  0
SECTION
  2
HEADER
  9
$ACADVER
  1
AC1018
  9
$ACADMAINTVER
 70
     0
  9
$DWGCODEPAGE
  3
ANSI_1252
  9
$INSBASE
 10
0.0
 20
0.0
 30
0.0
  9
$EXTMIN
 10
1.000000000000000E+20
 20
1.000000000000000E+20
 30
1.000000000000000E+20
  9
$EXTMAX
 10
-1.000000000000000E+20
 20
-1.000000000000000E+20
 30
-1.000000000000000E+20
  9
$LIMMIN
 10
0.0
 20
0.0
  9
$LIMMAX
 10
12.0
 20
9.0
  9
$ORTHOMODE
 70
     0
  9
$REGENMODE
 70
     1
  9
$FILLMODE
 70
     1
  9
$QTEXTMODE
 70
     0
  9
$MIRRTEXT
 70
     1
  9
$LTSCALE
 40
1.0
  9
$ATTMODE
 70
     1
  9
$TEXTSIZE
 40
0.2
  9
$TRACEWID
 40
0.05
  9
$TEXTSTYLE
  7
Standard
  9
$CLAYER
  8
0
  9
$CELTYPE
  6
ByLayer
  9
$CECOLOR
 62
   256
  9
$CELTSCALE
 40
1.0
  9
$DISPSILH
 70
     0
  9
$DIMSCALE
 40
1.0
  9
$DIMASZ
 40
0.18
  9
$DIMEXO
 40
0.0625
  9
$DIMDLI
 40
0.38
  9
$DIMRND
 40
0.0
  9
$DIMDLE
 40
0.0
  9
$DIMEXE
 40
0.18
  9
$DIMTP
 40
0.0
  9
$DIMTM
 40
0.0
  9
$DIMTXT
 40
0.18
  9
$DIMCEN
 40
0.09
  9
$DIMTSZ
 40
0.0
  9
$DIMTOL
 70
     0
  9
$DIMLIM
 70
     0
  9
$DIMTIH
 70
     1
  9
$DIMTOH
 70
     1
  9
$DIMSE1
 70
     0
  9
$DIMSE2
 70
     0
  9
$DIMTAD
 70
     0
  9
$DIMZIN
 70
     0
  9
$DIMBLK
  1

  9
$DIMASO
 70
     1
  9
$DIMSHO
 70
     1
  9
$DIMPOST
  1

  9
$DIMAPOST
  1

  9
$DIMALT
 70
     0
  9
$DIMALTD
 70
     2
  9
$DIMALTF
 40
25.4
  9
$DIMLFAC
 40
1.0
  9
$DIMTOFL
 70
     0
  9
$DIMTVP
 40
0.0
  9
$DIMTIX
 70
     0
  9
$DIMSOXD
 70
     0
  9
$DIMSAH
 70
     0
  9
$DIMBLK1
  1

  9
$DIMBLK2
  1

  9
$DIMSTYLE
  2
Standard
  9
$DIMCLRD
 70
     0
  9
$DIMCLRE
 70
     0
  9
$DIMCLRT
 70
     0
  9
$DIMTFAC
 40
1.0
  9
$DIMGAP
 40
0.09
  9
$DIMJUST
 70
     0
  9
$DIMSD1
 70
     0
  9
$DIMSD2
 70
     0
  9
$DIMTOLJ
 70
     1
  9
$DIMTZIN
 70
     0
  9
$DIMALTZ
 70
     0
  9
$DIMALTTZ
 70
     0
  9
$DIMUPT
 70
     0
  9
$DIMDEC
 70
     4
  9
$DIMTDEC
 70
     4
  9
$DIMALTU
 70
     2
  9
$DIMALTTD
 70
     2
  9
$DIMTXSTY
  7
Standard
  9
$DIMAUNIT
 70
     0
  9
$DIMADEC
 70
     0
  9
$DIMALTRND
 40
0.0
  9
$DIMAZIN
 70
     0
  9
$DIMDSEP
 70
    46
  9
$DIMATFIT
 70
     3
  9
$DIMFRAC
 70
     0
  9
$DIMLDRBLK
  1

  9
$DIMLUNIT
 70
     2
  9
$DIMLWD
 70
    -2
  9
$DIMLWE
 70
    -2
  9
$DIMTMOVE
 70
     0
  9
$LUNITS
 70
     2
  9
$LUPREC
 70
     4
  9
$SKETCHINC
 40
0.1
  9
$FILLETRAD
 40
0.5
  9
$AUNITS
 70
     0
  9
$AUPREC
 70
     0
  9
$MENU
  1
.
  9
$ELEVATION
 40
0.0
  9
$PELEVATION
 40
0.0
  9
$THICKNESS
 40
0.0
  9
$LIMCHECK
 70
     0
  9
$CHAMFERA
 40
0.5
  9
$CHAMFERB
 40
0.5
  9
$CHAMFERC
 40
1.0
  9
$CHAMFERD
 40
0.0
  9
$SKPOLY
 70
     0
  9
$TDCREATE
 40
2457469.50282353
  9
$TDUCREATE
 40
2457469.50282353
  9
$TDUPDATE
 40
2457469.502823542
  9
$TDUUPDATE
 40
2457469.502823542
  9
$TDINDWG
 40
0.0000000116
  9
$TDUSRTIMER
 40
0.0000000116
  9
$USRTIMER
 70
     1
  9
$ANGBASE
 50
0.0
  9
$ANGDIR
 70
     0
  9
$PDMODE
 70
     0
  9
$PDSIZE
 40
0.0
  9
$PLINEWID
 40
0.0
  9
$SPLFRAME
 70
     0
  9
$SPLINETYPE
 70
     6
  9
$SPLINESEGS
 70
     8
  9
$HANDSEED
  5
114
  9
$SURFTAB1
 70
     6
  9
$SURFTAB2
 70
     6
  9
$SURFTYPE
 70
     6
  9
$SURFU
 70
     6
  9
$SURFV
 70
     6
  9
$UCSBASE
  2

  9
$UCSNAME
  2

  9
$UCSORG
 10
0.0
 20
0.0
 30
0.0
  9
$UCSXDIR
 10
1.0
 20
0.0
 30
0.0
  9
$UCSYDIR
 10
0.0
 20
1.0
 30
0.0
  9
$UCSORTHOREF
  2

  9
$UCSORTHOVIEW
 70
     0
  9
$UCSORGTOP
 10
0.0
 20
0.0
 30
0.0
  9
$UCSORGBOTTOM
 10
0.0
 20
0.0
 30
0.0
  9
$UCSORGLEFT
 10
0.0
 20
0.0
 30
0.0
  9
$UCSORGRIGHT
 10
0.0
 20
0.0
 30
0.0
  9
$UCSORGFRONT
 10
0.0
 20
0.0
 30
0.0
  9
$UCSORGBACK
 10
0.0
 20
0.0
 30
0.0
  9
$PUCSBASE
  2

  9
$PUCSNAME
  2

  9
$PUCSORG
 10
0.0
 20
0.0
 30
0.0
  9
$PUCSXDIR
 10
1.0
 20
0.0
 30
0.0
  9
$PUCSYDIR
 10
0.0
 20
1.0
 30
0.0
  9
$PUCSORTHOREF
  2

  9
$PUCSORTHOVIEW
 70
     0
  9
$PUCSORGTOP
 10
0.0
 20
0.0
 30
0.0
  9
$PUCSORGBOTTOM
 10
0.0
 20
0.0
 30
0.0
  9
$PUCSORGLEFT
 10
0.0
 20
0.0
 30
0.0
  9
$PUCSORGRIGHT
 10
0.0
 20
0.0
 30
0.0
  9
$PUCSORGFRONT
 10
0.0
 20
0.0
 30
0.0
  9
$PUCSORGBACK
 10
0.0
 20
0.0
 30
0.0
  9
$USERI1
 70
     0
  9
$USERI2
 70
     0
  9
$USERI3
 70
     0
  9
$USERI4
 70
     0
  9
$USERI5
 70
     0
  9
$USERR1
 40
0.0
  9
$USERR2
 40
0.0
  9
$USERR3
 40
0.0
  9
$USERR4
 40
0.0
  9
$USERR5
 40
0.0
  9
$WORLDVIEW
 70
     1
  9
$SHADEDGE
 70
     3
  9
$SHADEDIF
 70
    70
  9
$TILEMODE
 70
     1
  9
$MAXACTVP
 70
    64
  9
$PINSBASE
 10
0.0
 20
0.0
 30
0.0
  9
$PLIMCHECK
 70
     0
  9
$PEXTMIN
 10
1.000000000000000E+20
 20
1.000000000000000E+20
 30
1.000000000000000E+20
  9
$PEXTMAX
 10
-1.000000000000000E+20
 20
-1.000000000000000E+20
 30
-1.000000000000000E+20
  9
$PLIMMIN
 10
0.0
 20
0.0
  9
$PLIMMAX
 10
12.0
 20
9.0
  9
$UNITMODE
 70
     0
  9
$VISRETAIN
 70
     1
  9
$PLINEGEN
 70
     0
  9
$PSLTSCALE
 70
     1
  9
$TREEDEPTH
 70
  3020
  9
$CMLSTYLE
  2
Standard
  9
$CMLJUST
 70
     0
  9
$CMLSCALE
 40
1.0
  9
$PROXYGRAPHICS
 70
     1
  9
$MEASUREMENT
 70
     0
  9
$CELWEIGHT
370
    -1
  9
$ENDCAPS
280
     0
  9
$JOINSTYLE
280
     0
  9
$LWDISPLAY
290
     1
  9
$INSUNITS
 70
     1
  9
$HYPERLINKBASE
  1

  9
$STYLESHEET
  1

  9
$XEDIT
290
     1
  9
$CEPSNTYPE
380
     0
  9
$PSTYLEMODE
290
     1
  9
$FINGERPRINTGUID
  2
{02B998DB-CD69-49FF-ABCA-E123C1209C2F}
  9
$VERSIONGUID
  2
{FAEB1C32-E019-11D5-929B-00C0DF256EC4}
  9
$EXTNAMES
290
     1
  9
$PSVPSCALE
 40
0.0
  9
$OLESTARTUP
290
     0
  9
$SORTENTS
280
   127
  9
$INDEXCTL
280
     0
  9
$HIDETEXT
280
     1
  9
$XCLIPFRAME
290
     0
  9
$HALOGAP
280
     0
  9
$OBSCOLOR
 70
   257
  9
$OBSLTYPE
280
     0
  9
$INTERSECTIONDISPLAY
280
     0
  9
$INTERSECTIONCOLOR
 70
   257
  9
$DIMASSOC
280
     2
  9
$PROJECTNAME
  1

  0
ENDSEC
  0
SECTION
  2
CLASSES
  0
CLASS
  1
ACDBDICTIONARYWDFLT
  2
AcDbDictionaryWithDefault
  3
ObjectDBX Classes
 90
        0
 91
        3
280
     0
281
     0
  0
CLASS
  1
VISUALSTYLE
  2
AcDbVisualStyle
  3
ObjectDBX Classes
 90
     4095
 91
        3
280
     0
281
     0
  0
ENDSEC
  0
SECTION
  2
TABLES
  0
TABLE
  2
VPORT
  5
8
330
0
100
AcDbSymbolTable
 70
     1
  0
VPORT
  5
29
330
8
100
AcDbSymbolTableRecord
100
AcDbViewportTableRecord
  2
*Active
 70
     0
 10
0.0
 20
0.0
 11
1.0
 21
1.0
 12
0.0
 22
0.0
 13
0.0
 23
0.0
 14
0.5
 24
0.5
 15
0.5
 25
0.5
 16
0.0
 26
0.0
 36
1.0
 17
-0.9573920353509298
 27
0.6364813908999073
 37
0.0
 40
3.500010307284719
 41
1.746244856979743
 42
50.0
 43
0.0
 44
0.0
 50
0.0
 51
0.0
 71
     0
 72
   100
 73
     1
 74
     3
 75
     0
 76
     0
 77
     0
 78
     0
281
     0
 65
     1
110
0.0
120
0.0
130
0.0
111
1.0
121
0.0
131
0.0
112
0.0
122
1.0
132
0.0
 79
     0
146
0.0
  0
ENDTAB
  0
TABLE
  2
LTYPE
  5
5
330
0
100
AcDbSymbolTable
 70
     1
  0
LTYPE
  5
14
330
5
100
AcDbSymbolTableRecord
100
AcDbLinetypeTableRecord
  2
ByBlock
 70
     0
  3

 72
    65
 73
     0
 40
0.0
  0
LTYPE
  5
15
330
5
100
AcDbSymbolTableRecord
100
AcDbLinetypeTableRecord
  2
ByLayer
 70
     0
  3

 72
    65
 73
     0
 40
0.0
  0
LTYPE
  5
16
330
5
100
AcDbSymbolTableRecord
100
AcDbLinetypeTableRecord
  2
Continuous
 70
     0
  3
Solid line
 72
    65
 73
     0
 40
0.0
  0
ENDTAB
  0
TABLE
  2
LAYER
  5
2
330
0
100
AcDbSymbolTable
 70
     4
  0
LAYER
  5
10
330
2
100
AcDbSymbolTableRecord
100
AcDbLayerTableRecord
  2
0
 70
     0
 62
     7
  6
Continuous
370
    -3
390
F
  0
LAYER
  5
3B
330
2
100
AcDbSymbolTableRecord
100
AcDbLayerTableRecord
  2
Livello 1
 70
     0
 62
     7
  6
Continuous
370
    -3
390
F
  0
LAYER
  5
70
330
2
100
AcDbSymbolTableRecord
100
AcDbLayerTableRecord
  2
Layer 3
 70
     0
 62
     7
  6
Continuous
370
    -3
390
F
  0
LAYER
  5
C5
330
2
100
AcDbSymbolTableRecord
100
AcDbLayerTableRecord
  2
Layer 4
 70
     0
 62
     7
  6
Continuous
370
    -3
390
F
  0
ENDTAB
  0
TABLE
  2
STYLE
  5
3
330
0
100
AcDbSymbolTable
 70
     1
  0
STYLE
  5
11
330
3
100
AcDbSymbolTableRecord
100
AcDbTextStyleTableRecord
  2
Standard
 70
     0
 40
0.0
 41
1.0
 50
0.0
 71
     0
 42
0.2
  3
txt
  4

  0
ENDTAB
  0
TABLE
  2
VIEW
  5
6
330
0
100
AcDbSymbolTable
 70
     0
  0
ENDTAB
  0
TABLE
  2
UCS
  5
7
330
0
100
AcDbSymbolTable
 70
     0
  0
ENDTAB
  0
TABLE
  2
APPID
  5
9
330
0
100
AcDbSymbolTable
 70
     1
  0
APPID
  5
12
330
9
100
AcDbSymbolTableRecord
100
AcDbRegAppTableRecord
  2
ACAD
 70
     0
  0
ENDTAB
  0
TABLE
  2
DIMSTYLE
  5
A
330
0
100
AcDbSymbolTable
 70
     1
100
AcDbDimStyleTable
  0
DIMSTYLE
105
27
330
A
100
AcDbSymbolTableRecord
100
AcDbDimStyleTableRecord
  2
Standard
 70
     0
340
11
  0
ENDTAB
  0
TABLE
  2
BLOCK_RECORD
  5
1
330
0
100
AcDbSymbolTable
 70
     2
  0
BLOCK_RECORD
  5
1F
330
1
100
AcDbSymbolTableRecord
100
AcDbBlockTableRecord
  2
*Model_Space
340
22
  0
BLOCK_RECORD
  5
1B
330
1
100
AcDbSymbolTableRecord
100
AcDbBlockTableRecord
  2
*Paper_Space
340
1E
  0
BLOCK_RECORD
  5
23
330
1
100
AcDbSymbolTableRecord
100
AcDbBlockTableRecord
  2
*Paper_Space0
340
26
  0
BLOCK_RECORD
  5
73
330
1
100
AcDbSymbolTableRecord
100
AcDbBlockTableRecord
  2
block 2
340
0
102
{BLKREFS
331
74
102
}
  0
ENDTAB
  0
ENDSEC
  0
SECTION
  2
BLOCKS
  0
BLOCK
  5
20
330
1F
100
AcDbEntity
  8
0
100
AcDbBlockBegin
  2
*Model_Space
 70
     0
 71
     0
 10
0.0
 20
0.0
 30
0.0
  3
*Model_Space
  1

  0
ENDBLK
  5
21
330
1F
100
AcDbEntity
  8
0
100
AcDbBlockEnd
  0
BLOCK
  5
1C
330
1B
100
AcDbEntity
 67
     1
  8
0
100
AcDbBlockBegin
  2
*Paper_Space
 70
     0
 71
     0
 10
0.0
 20
0.0
 30
0.0
  3
*Paper_Space
  1

  0
ENDBLK
  5
1D
330
1B
100
AcDbEntity
 67
     1
  8
0
100
AcDbBlockEnd
  0
BLOCK
  5
24
330
23
100
AcDbEntity
  8
0
100
AcDbBlockBegin
  2
*Paper_Space0
 70
     0
 71
     0
 10
0.0
 20
0.0
 30
0.0
  3
*Paper_Space0
  1

  0
ENDBLK
  5
25
330
23
100
AcDbEntity
  8
0
100
AcDbBlockEnd
  0
BLOCK
  5
75
330
73
100
AcDbEntity
  8
0
100
AcDbBlockBegin
  2
block 2
 70
     0
 71
     0
 10
0.0
 20
0.0
 30
0.0
  3
block 2
  1

  0
SPLINE
  5
77
330
73
100
AcDbEntity
  8
Layer 3
370
     0
100
AcDbSpline
210
0.0
220
0.0
230
1.0
 70
    11
 71
     3
 72
    29
 73
    25
 74
     0
 42
0.0000000001
 43
0.0000000001
 40
0.0
 40
0.0
 40
0.0
 40
0.0
 40
1.0
 40
1.0
 40
1.0
 40
2.0
 40
2.0
 40
2.0
 40
3.0
 40
3.0
 40
3.0
 40
4.0
 40
4.0
 40
4.0
 40
5.0
 40
5.0
 40
5.0
 40
6.0
 40
6.0
 40
6.0
 40
7.0
 40
7.0
 40
7.0
 40
8.0
 40
8.0
 40
8.0
 40
8.0
 10
0.1454519313872481
 20
-0.6379283310037123
 30
0.0
 10
0.1454519313872481
 20
-0.6379283310037123
 30
0.0
 10
0.1302935112521488
 20
-0.6795795354203829
 30
0.0
 10
0.1302935112521488
 20
-0.6795795354203829
 30
0.0
 10
0.127950846322179
 20
-0.6858496092035375
 30
0.0
 10
0.1210606553516793
 20
-0.6890879989596724
 30
0.0
 10
0.1147905815685246
 20
-0.686779784984555
 30
0.0
 10
0.1085205077853699
 20
-0.6845404729191427
 30
0.0
 10
0.105282118029235
 20
-0.677581380038938
 30
0.0
 10
0.1074869791397949
 20
-0.6713113062557833
 30
0.0
 10
0.1074869791397949
 20
-0.6713113062557833
 30
0.0
 10
0.1226453992748942
 20
-0.6296601018391127
 30
0.0
 10
0.1226453992748942
 20
-0.6296601018391127
 30
0.0
 10
0.1076936848689099
 20
-0.6295222980197027
 30
0.0
 10
0.0936376952890906
 20
-0.6386862520104672
 30
0.0
 10
0.0882633463321008
 20
-0.6535001625970416
 30
0.0
 10
0.0813731553616012
 20
-0.6723448349013582
 30
0.0
 10
0.0910883246300057
 20
-0.6932221135419722
 30
0.0
 10
0.1099674478891748
 20
-0.7000434026027669
 30
0.0
 10
0.1287776692386389
 20
-0.706968044528119
 30
0.0
 10
0.1495860459695479
 20
-0.697218424304862
 30
0.0
 10
0.1564762369400476
 20
-0.6784082029553979
 30
0.0
 10
0.1618505858970374
 20
-0.663628743323676
 30
0.0
 10
0.1569585503079826
 20
-0.6475056964527068
 30
0.0
 10
0.1454519313872481
 20
-0.6379283310037123
 30
0.0
  0
HATCH
  5
78
330
73
100
AcDbEntity
  8
Layer 3
 62
   250
420
  1842203
100
AcDbHatch
 10
0.0
 20
0.0
 30
0.0
210
0.0
220
0.0
230
1.0
  2
SOLID
 70
     1
 71
     0
 91
        1
 92
        1
 93
        2
 72
     4
 94
        3
 73
     0
 74
     0
 95
       29
 96
       25
 40
0.0
 40
0.0
 40
0.0
 40
0.0
 40
0.0352777777689583
 40
0.0352777777689583
 40
0.0352777777689583
 40
0.0705555555379167
 40
0.0705555555379167
 40
0.0705555555379167
 40
0.105833333306875
 40
0.105833333306875
 40
0.105833333306875
 40
0.1411111110758333
 40
0.1411111110758333
 40
0.1411111110758333
 40
0.1763888888447916
 40
0.1763888888447916
 40
0.1763888888447916
 40
0.21166666661375
 40
0.21166666661375
 40
0.21166666661375
 40
0.2469444443827083
 40
0.2469444443827083
 40
0.2469444443827083
 40
0.2822222221516666
 40
0.2822222221516666
 40
0.2822222221516666
 40
0.2822222221516666
 10
0.1454519313872481
 20
-0.6379283310037123
 10
0.1454519313872481
 20
-0.6379283310037123
 10
0.1302935112521488
 20
-0.6795795354203829
 10
0.1302935112521488
 20
-0.6795795354203829
 10
0.127950846322179
 20
-0.6858496092035375
 10
0.1210606553516793
 20
-0.6890879989596724
 10
0.1147905815685246
 20
-0.686779784984555
 10
0.1085205077853699
 20
-0.6845404729191427
 10
0.105282118029235
 20
-0.677581380038938
 10
0.1074869791397949
 20
-0.6713113062557833
 10
0.1074869791397949
 20
-0.6713113062557833
 10
0.1226453992748942
 20
-0.6296601018391127
 10
0.1226453992748942
 20
-0.6296601018391127
 10
0.1076936848689099
 20
-0.6295222980197027
 10
0.0936376952890906
 20
-0.6386862520104672
 10
0.0882633463321008
 20
-0.6535001625970416
 10
0.0813731553616012
 20
-0.6723448349013582
 10
0.0910883246300057
 20
-0.6932221135419722
 10
0.1099674478891748
 20
-0.7000434026027669
 10
0.1287776692386389
 20
-0.706968044528119
 10
0.1495860459695479
 20
-0.697218424304862
 10
0.1564762369400476
 20
-0.6784082029553979
 10
0.1618505858970374
 20
-0.663628743323676
 10
0.1569585503079826
 20
-0.6475056964527068
 10
0.1454519313872481
 20
-0.6379283310037123
 72
     1
 10
0.1454519313872481
 20
-0.6379283310037123
 11
0.1454519313872481
 21
-0.6379283310037123
 97
        0
 75
     2
 76
     1
 98
        0
  0
SPLINE
  5
79
330
73
100
AcDbEntity
  8
Layer 3
370
     0
100
AcDbSpline
210
0.0
220
0.0
230
1.0
 70
    11
 71
     3
 72
    17
 73
    13
 74
     0
 42
0.0000000001
 43
0.0000000001
 40
0.0
 40
0.0
 40
0.0
 40
0.0
 40
1.0
 40
1.0
 40
1.0
 40
2.0
 40
2.0
 40
2.0
 40
3.0
 40
3.0
 40
3.0
 40
4.0
 40
4.0
 40
4.0
 40
4.0
 10
0.1408355034370133
 20
-0.6447840710193595
 30
0.0
 10
0.1389062499652734
 20
-0.6500206161569393
 30
0.0
 10
0.1331184895500537
 20
-0.6527422415902866
 30
0.0
 10
0.1278819444124739
 20
-0.6508474390733993
 30
0.0
 10
0.1226453992748942
 20
-0.6489181856016593
 30
0.0
 10
0.1199582247963993
 20
-0.643095974231587
 30
0.0
 10
0.1218185763584342
 20
-0.6378938800488598
 30
0.0
 10
0.1237478298301741
 20
-0.6326228839564275
 30
0.0
 10
0.1295355902453939
 20
-0.6299701604327852
 30
0.0
 10
0.1347721353829736
 20
-0.6318994139045251
 30
0.0
 10
0.1400086805205534
 20
-0.6337942164214125
 30
0.0
 10
0.1426958549990482
 20
-0.6395475258817798
 30
0.0
 10
0.1408355034370133
 20
-0.6447840710193595
 30
0.0
  0
HATCH
  5
7A
330
73
100
AcDbEntity
  8
Layer 3
 62
   250
420
  1842203
100
AcDbHatch
 10
0.0
 20
0.0
 30
0.0
210
0.0
220
0.0
230
1.0
  2
SOLID
 70
     1
 71
     0
 91
        1
 92
        1
 93
        2
 72
     4
 94
        3
 73
     0
 74
     0
 95
       17
 96
       13
 40
0.0
 40
0.0
 40
0.0
 40
0.0
 40
0.0352777777689583
 40
0.0352777777689583
 40
0.0352777777689583
 40
0.0705555555379167
 40
0.0705555555379167
 40
0.0705555555379167
 40
0.105833333306875
 40
0.105833333306875
 40
0.105833333306875
 40
0.1411111110758333
 40
0.1411111110758333
 40
0.1411111110758333
 40
0.1411111110758333
 10
0.1408355034370133
 20
-0.6447840710193595
 10
0.1389062499652734
 20
-0.6500206161569393
 10
0.1331184895500537
 20
-0.6527422415902866
 10
0.1278819444124739
 20
-0.6508474390733993
 10
0.1226453992748942
 20
-0.6489181856016593
 10
0.1199582247963993
 20
-0.643095974231587
 10
0.1218185763584342
 20
-0.6378938800488598
 10
0.1237478298301741
 20
-0.6326228839564275
 10
0.1295355902453939
 20
-0.6299701604327852
 10
0.1347721353829736
 20
-0.6318994139045251
 10
0.1400086805205534
 20
-0.6337942164214125
 10
0.1426958549990482
 20
-0.6395475258817798
 10
0.1408355034370133
 20
-0.6447840710193595
 72
     1
 10
0.1408355034370133
 20
-0.6447840710193595
 11
0.1408355034370133
 21
-0.6447840710193595
 97
        0
 75
     2
 76
     1
 98
        0
  0
POLYLINE
  5
7B
330
73
100
AcDbEntity
  8
Layer 3
370
     0
100
AcDb2dPolyline
 66
     1
 10
0.0
 20
0.0
 30
0.0
  0
VERTEX
  5
7C
330
7B
100
AcDbEntity
  8
Layer 3
370
     0
100
AcDbVertex
100
AcDb2dVertex
 10
0.1821766492600114
 20
-0.6876066079010149
 30
0.0
  0
VERTEX
  5
7D
330
7B
100
AcDbEntity
  8
Layer 3
370
     0
100
AcDbVertex
100
AcDb2dVertex
 10
0.1821766492600114
 20
-0.6311414928977701
 30
0.0
  0
VERTEX
  5
7E
330
7B
100
AcDbEntity
  8
Layer 3
370
     0
100
AcDbVertex
100
AcDb2dVertex
 10
0.1624018011746773
 20
-0.6311414928977701
 30
0.0
  0
VERTEX
  5
7F
330
7B
100
AcDbEntity
  8
Layer 3
370
     0
100
AcDbVertex
100
AcDb2dVertex
 10
0.1624018011746773
 20
-0.7024894203972942
 30
0.0
  0
VERTEX
  5
80
330
7B
100
AcDbEntity
  8
Layer 3
370
     0
100
AcDbVertex
100
AcDb2dVertex
 10
0.2100130207808301
 20
-0.7025238713521468
 30
0.0
  0
VERTEX
  5
81
330
7B
100
AcDbEntity
  8
Layer 3
370
     0
100
AcDbVertex
100
AcDb2dVertex
 10
0.2100130207808301
 20
-0.6876066079010149
 30
0.0
  0
VERTEX
  5
82
330
7B
100
AcDbEntity
  8
Layer 3
370
     0
100
AcDbVertex
100
AcDb2dVertex
 10
0.1821766492600114
 20
-0.6876066079010149
 30
0.0
  0
SEQEND
  5
83
330
7B
100
AcDbEntity
  8
Layer 3
370
     0
  0
HATCH
  5
84
330
73
100
AcDbEntity
  8
Layer 3
 62
   250
420
  1842203
100
AcDbHatch
 10
0.0
 20
0.0
 30
0.0
210
0.0
220
0.0
230
1.0
  2
SOLID
 70
     1
 71
     0
 91
        1
 92
        1
 93
        6
 72
     1
 10
0.1821766492600114
 20
-0.6876066079010149
 11
0.1821766492600114
 21
-0.6311414928977701
 72
     1
 10
0.1821766492600114
 20
-0.6311414928977701
 11
0.1624018011746773
 21
-0.6311414928977701
 72
     1
 10
0.1624018011746773
 20
-0.6311414928977701
 11
0.1624018011746773
 21
-0.7024894203972942
 72
     1
 10
0.1624018011746773
 20
-0.7024894203972942
 11
0.2100130207808301
 21
-0.7025238713521468
 72
     1
 10
0.2100130207808301
 20
-0.7025238713521468
 11
0.2100130207808301
 21
-0.6876066079010149
 72
     1
 10
0.2100130207808301
 20
-0.6876066079010149
 11
0.1821766492600114
 21
-0.6876066079010149
 97
        0
 75
     2
 76
     1
 98
        0
  0
POLYLINE
  5
85
330
73
100
AcDbEntity
  8
Layer 3
370
     0
100
AcDb2dPolyline
 66
     1
 10
0.0
 20
0.0
 30
0.0
  0
VERTEX
  5
86
330
85
100
AcDbEntity
  8
Layer 3
370
     0
100
AcDbVertex
100
AcDb2dVertex
 10
0.2337841796290539
 20
-0.7025583223069992
 30
0.0
  0
VERTEX
  5
87
330
85
100
AcDbEntity
  8
Layer 3
370
     0
100
AcDbVertex
100
AcDb2dVertex
 10
0.2139404296340149
 20
-0.7025238713521468
 30
0.0
  0
VERTEX
  5
88
330
85
100
AcDbEntity
  8
Layer 3
370
     0
100
AcDbVertex
100
AcDb2dVertex
 10
0.2139404296340149
 20
-0.6311759438526227
 30
0.0
  0
VERTEX
  5
89
330
85
100
AcDbEntity
  8
Layer 3
370
     0
100
AcDbVertex
100
AcDb2dVertex
 10
0.2337841796290539
 20
-0.6311759438526227
 30
0.0
  0
VERTEX
  5
8A
330
85
100
AcDbEntity
  8
Layer 3
370
     0
100
AcDbVertex
100
AcDb2dVertex
 10
0.2337841796290539
 20
-0.7025583223069992
 30
0.0
  0
SEQEND
  5
8B
330
85
100
AcDbEntity
  8
Layer 3
370
     0
  0
HATCH
  5
8C
330
73
100
AcDbEntity
  8
Layer 3
 62
   250
420
  1842203
100
AcDbHatch
 10
0.0
 20
0.0
 30
0.0
210
0.0
220
0.0
230
1.0
  2
SOLID
 70
     1
 71
     0
 91
        1
 92
        1
 93
        4
 72
     1
 10
0.2337841796290539
 20
-0.7025583223069992
 11
0.2139404296340149
 21
-0.7025238713521468
 72
     1
 10
0.2139404296340149
 20
-0.7025238713521468
 11
0.2139404296340149
 21
-0.6311759438526227
 72
     1
 10
0.2139404296340149
 20
-0.6311759438526227
 11
0.2337841796290539
 21
-0.6311759438526227
 72
     1
 10
0.2337841796290539
 20
-0.6311759438526227
 11
0.2337841796290539
 21
-0.7025583223069992
 97
        0
 75
     2
 76
     1
 98
        0
  0
ENDBLK
  5
76
330
73
100
AcDbEntity
  8
0
100
AcDbBlockEnd
  0
ENDSEC
  0
SECTION
  2
ENTITIES
  0
POLYLINE
  5
3C
330
1F
100
AcDbEntity
  8
Livello 1
 62
   250
420
  1842203
370
     9
100
AcDb2dPolyline
 66
     1
 10
0.0
 20
0.0
 30
0.0
  0
VERTEX
  5
3D
330
3C
100
AcDbEntity
  8
Livello 1
 62
   250
420
  1842203
370
     9
100
AcDbVertex
100
AcDb2dVertex
 10
-3.445319416456378
 20
1.705339490676095
 30
0.0
  0
VERTEX
  5
3E
330
3C
100
AcDbEntity
  8
Livello 1
 62
   250
420
  1842203
370
     9
100
AcDbVertex
100
AcDb2dVertex
 10
-3.734983044856185
 20
1.705339490676095
 30
0.0
  0
SEQEND
  5
3F
330
3C
100
AcDbEntity
  8
Livello 1
370
     9
  0
POLYLINE
  5
40
330
1F
100
AcDbEntity
  8
Livello 1
 62
   250
420
  1842203
370
     9
100
AcDb2dPolyline
 66
     1
 10
0.0
 20
0.0
 30
0.0
  0
VERTEX
  5
41
330
40
100
AcDbEntity
  8
Livello 1
 62
   250
420
  1842203
370
     9
100
AcDbVertex
100
AcDb2dVertex
 10
-3.475791286023413
 20
1.732194009983618
 30
0.0
  0
VERTEX
  5
42
330
40
100
AcDbEntity
  8
Livello 1
 62
   250
420
  1842203
370
     9
100
AcDbVertex
100
AcDb2dVertex
 10
-3.475791286023413
 20
2.021857638383424
 30
0.0
  0
SEQEND
  5
43
330
40
100
AcDbEntity
  8
Livello 1
370
     9
  0
POLYLINE
  5
44
330
1F
100
AcDbEntity
  8
Livello 1
 62
   250
420
  1842203
370
     9
100
AcDb2dPolyline
 66
     1
 10
0.0
 20
0.0
 30
0.0
  0
VERTEX
  5
45
330
44
100
AcDbEntity
  8
Livello 1
 62
   250
420
  1842203
370
     9
100
AcDbVertex
100
AcDb2dVertex
 10
0.3742062716078373
 20
1.732194009983618
 30
0.0
  0
VERTEX
  5
46
330
44
100
AcDbEntity
  8
Livello 1
 62
   250
420
  1842203
370
     9
100
AcDbVertex
100
AcDb2dVertex
 10
0.3742062716078373
 20
2.021857638383424
 30
0.0
  0
SEQEND
  5
47
330
44
100
AcDbEntity
  8
Livello 1
370
     9
  0
POLYLINE
  5
48
330
1F
100
AcDbEntity
  8
Livello 1
 62
   250
420
  1842203
370
     9
100
AcDb2dPolyline
 66
     1
 10
0.0
 20
0.0
 30
0.0
  0
VERTEX
  5
49
330
48
100
AcDbEntity
  8
Livello 1
 62
   250
420
  1842203
370
     9
100
AcDbVertex
100
AcDb2dVertex
 10
-3.47561903124915
 20
1.877008598706095
 30
0.0
  0
VERTEX
  5
4A
330
48
100
AcDbEntity
  8
Livello 1
 62
   250
420
  1842203
370
     9
100
AcDbVertex
100
AcDb2dVertex
 10
0.3700032551158325
 20
1.877008598706095
 30
0.0
  0
SEQEND
  5
4B
330
48
100
AcDbEntity
  8
Livello 1
370
     9
  0
POLYLINE
  5
4C
330
1F
100
AcDbEntity
  8
Livello 1
 62
   250
420
  1842203
370
     9
100
AcDb2dPolyline
 66
     1
 10
0.0
 20
0.0
 30
0.0
  0
VERTEX
  5
4D
330
4C
100
AcDbEntity
  8
Livello 1
 62
   250
420
  1842203
370
     9
100
AcDbVertex
100
AcDb2dVertex
 10
1.614509548207484
 20
1.703461913636634
 30
0.0
  0
VERTEX
  5
4E
330
4C
100
AcDbEntity
  8
Livello 1
 62
   250
420
  1842203
370
     9
100
AcDbVertex
100
AcDb2dVertex
 10
1.614509548207484
 20
2.021857638383424
 30
0.0
  0
SEQEND
  5
4F
330
4C
100
AcDbEntity
  8
Livello 1
370
     9
  0
POLYLINE
  5
50
330
1F
100
AcDbEntity
  8
Livello 1
 62
   250
420
  1842203
370
     9
100
AcDb2dPolyline
 66
     1
 10
0.0
 20
0.0
 30
0.0
  0
VERTEX
  5
51
330
50
100
AcDbEntity
  8
Livello 1
 62
   250
420
  1842203
370
     9
100
AcDbVertex
100
AcDb2dVertex
 10
1.497686360302662
 20
1.877008598706095
 30
0.0
  0
VERTEX
  5
52
330
50
100
AcDbEntity
  8
Livello 1
 62
   250
420
  1842203
370
     9
100
AcDbVertex
100
AcDb2dVertex
 10
1.614509548207484
 20
1.877008598706095
 30
0.0
  0
SEQEND
  5
53
330
50
100
AcDbEntity
  8
Livello 1
370
     9
  0
POLYLINE
  5
54
330
1F
100
AcDbEntity
  8
Livello 1
 62
   250
420
  1842203
370
     9
100
AcDb2dPolyline
 66
     1
 10
0.0
 20
0.0
 30
0.0
  0
VERTEX
  5
55
330
54
100
AcDbEntity
  8
Livello 1
 62
   250
420
  1842203
370
     9
100
AcDbVertex
100
AcDb2dVertex
 10
0.695840386110762
 20
1.877008598706095
 30
0.0
  0
VERTEX
  5
56
330
54
100
AcDbEntity
  8
Livello 1
 62
   250
420
  1842203
370
     9
100
AcDbVertex
100
AcDb2dVertex
 10
1.489969346415702
 20
1.877008598706095
 30
0.0
  0
SEQEND
  5
57
330
54
100
AcDbEntity
  8
Livello 1
370
     9
  0
POLYLINE
  5
58
330
1F
100
AcDbEntity
  8
Livello 1
 62
   250
420
  1842203
370
     9
100
AcDb2dPolyline
 66
     1
 10
0.0
 20
0.0
 30
0.0
  0
VERTEX
  5
59
330
58
100
AcDbEntity
  8
Livello 1
 62
   250
420
  1842203
370
     9
100
AcDbVertex
100
AcDb2dVertex
 10
1.497720811257514
 20
1.703461913636634
 30
0.0
  0
VERTEX
  5
5A
330
58
100
AcDbEntity
  8
Livello 1
 62
   250
420
  1842203
370
     9
100
AcDbVertex
100
AcDb2dVertex
 10
1.497720811257514
 20
2.021857638383424
 30
0.0
  0
SEQEND
  5
5B
330
58
100
AcDbEntity
  8
Livello 1
370
     9
  0
POLYLINE
  5
5C
330
1F
100
AcDbEntity
  8
Livello 1
 62
   250
420
  1842203
370
     9
100
AcDb2dPolyline
 66
     1
 10
0.0
 20
0.0
 30
0.0
  0
VERTEX
  5
5D
330
5C
100
AcDbEntity
  8
Livello 1
 62
   250
420
  1842203
370
     9
100
AcDbVertex
100
AcDb2dVertex
 10
1.063879936800002
 20
1.247469075208966
 30
0.0
  0
VERTEX
  5
5E
330
5C
100
AcDbEntity
  8
Livello 1
 62
   250
420
  1842203
370
     9
100
AcDbVertex
100
AcDb2dVertex
 10
1.063879936800002
 20
2.021823187428572
 30
0.0
  0
SEQEND
  5
5F
330
5C
100
AcDbEntity
  8
Livello 1
370
     9
  0
POLYLINE
  5
60
330
1F
100
AcDbEntity
  8
Livello 1
 62
   250
420
  1842203
370
     9
100
AcDb2dPolyline
 66
     1
 10
0.0
 20
0.0
 30
0.0
  0
VERTEX
  5
61
330
60
100
AcDbEntity
  8
Livello 1
 62
   250
420
  1842203
370
     9
100
AcDbVertex
100
AcDb2dVertex
 10
1.613992783884696
 20
1.877008598706095
 30
0.0
  0
VERTEX
  5
62
330
60
100
AcDbEntity
  8
Livello 1
 62
   250
420
  1842203
370
     9
100
AcDbVertex
100
AcDb2dVertex
 10
1.84722574823611
 20
1.877008598706095
 30
0.0
  0
SEQEND
  5
63
330
60
100
AcDbEntity
  8
Livello 1
370
     9
  0
POLYLINE
  5
64
330
1F
100
AcDbEntity
  8
Livello 1
 62
   250
420
  1842203
370
     9
100
AcDb2dPolyline
 66
     1
 10
0.0
 20
0.0
 30
0.0
  0
VERTEX
  5
65
330
64
100
AcDbEntity
  8
Livello 1
 62
   250
420
  1842203
370
     9
100
AcDbVertex
100
AcDb2dVertex
 10
-3.658794758199885
 20
1.680913763685674
 30
0.0
  0
VERTEX
  5
66
330
64
100
AcDbEntity
  8
Livello 1
 62
   250
420
  1842203
370
     9
100
AcDbVertex
100
AcDb2dVertex
 10
-3.658794758199885
 20
-0.8000889754944221
 30
0.0
  0
SEQEND
  5
67
330
64
100
AcDbEntity
  8
Livello 1
370
     9
  0
MTEXT
  5
68
330
1F
100
AcDbEntity
  8
Livello 1
 62
   250
420
  1842203
100
AcDbMText
 10
-1.786902126289385
 20
1.968338080020068
 30
0.0
 40
0.1679222221802417
 41
0.0
 71
     7
 72
     1
  1
\fHelvetica Neue LT W1G 55 Roman|b0|i0|c0|p34;\W1;230
 73
     1
 44
1.0
  0
POLYLINE
  5
69
330
1F
100
AcDbEntity
  8
Livello 1
 62
   250
420
  1842203
370
     9
100
AcDb2dPolyline
 66
     1
 10
0.0
 20
0.0
 30
0.0
  0
VERTEX
  5
6A
330
69
100
AcDbEntity
  8
Livello 1
 62
   250
420
  1842203
370
     9
100
AcDbVertex
100
AcDb2dVertex
 10
-3.445319416456378
 20
-0.8202083331282812
 30
0.0
  0
VERTEX
  5
6B
330
69
100
AcDbEntity
  8
Livello 1
 62
   250
420
  1842203
370
     9
100
AcDbVertex
100
AcDb2dVertex
 10
-3.734983044856185
 20
-0.8202083331282812
 30
0.0
  0
SEQEND
  5
6C
330
69
100
AcDbEntity
  8
Livello 1
370
     9
  0
MTEXT
  5
6D
330
1F
100
AcDbEntity
  8
Livello 1
 62
   250
420
  1842203
100
AcDbMText
 10
-3.733828937868626
 20
0.1755620659283317
 30
0.0
 40
0.1679222221802417
 41
0.0
 71
     7
 72
     1
  1
\fHelvetica Neue LT W1G 55 Roman|b0|i0|c0|p34;\W1;150
 11
-4.371139000186241E-8
 21
0.999999999999999
 31
0.0
 73
     1
 44
1.0
  0
MTEXT
  5
6E
330
1F
100
AcDbEntity
  8
Livello 1
 62
   250
420
  1842203
100
AcDbMText
 10
1.687752278223895
 20
1.899229464585956
 30
0.0
 40
0.1679222221802417
 41
0.0
 71
     7
 72
     1
  1
\fHelvetica Neue LT W1G 55 Roman|b0|i0|c0|p34;\W1;6.5
 73
     1
 44
1.0
  0
MTEXT
  5
6F
330
1F
100
AcDbEntity
  8
Livello 1
 62
   250
420
  1842203
100
AcDbMText
 10
0.5257904729588301
 20
1.899229464585956
 30
0.0
 40
0.1679222221802417
 41
0.0
 71
     7
 72
     1
  1
\fHelvetica Neue LT W1G 55 Roman|b0|i0|c0|p34;\W1;23.5
 73
     1
 44
1.0
  0
SPLINE
  5
71
330
1F
100
AcDbEntity
  8
Layer 3
 62
   250
420
  1842203
370
    18
100
AcDbSpline
210
0.0
220
0.0
230
1.0
 70
    11
 71
     3
 72
    29
 73
    25
 74
     0
 42
0.0000000001
 43
0.0000000001
 40
0.0
 40
0.0
 40
0.0
 40
0.0
 40
1.0
 40
1.0
 40
1.0
 40
2.0
 40
2.0
 40
2.0
 40
3.0
 40
3.0
 40
3.0
 40
4.0
 40
4.0
 40
4.0
 40
5.0
 40
5.0
 40
5.0
 40
6.0
 40
6.0
 40
6.0
 40
7.0
 40
7.0
 40
7.0
 40
8.0
 40
8.0
 40
8.0
 40
8.0
 10
-3.471347112847441
 20
1.679173990465623
 30
0.0
 10
-3.471347112847441
 20
1.679173990465623
 30
0.0
 10
-3.472828503906098
 20
1.701480983732616
 30
0.0
 10
-3.449040119580448
 20
1.701480983732616
 30
0.0
 10
-3.425251735254798
 20
1.701480983732616
 30
0.0
 10
0.336861436547729
 20
1.701842718758567
 30
0.0
 10
0.336861436547729
 20
1.701842718758567
 30
0.0
 10
0.336861436547729
 20
1.701842718758567
 30
0.0
 10
0.36941758888334
 20
1.69732964367289
 30
0.0
 10
0.36941758888334
 20
1.669286566422956
 30
0.0
 10
0.36941758888334
 20
1.641243489173022
 30
0.0
 10
0.36941758888334
 20
-0.7774891491111832
 30
0.0
 10
0.36941758888334
 20
-0.7774891491111832
 30
0.0
 10
0.36941758888334
 20
-0.7774891491111832
 30
0.0
 10
0.3767556422669222
 20
-0.8198638235797562
 30
0.0
 10
0.327042914414767
 20
-0.8198638235797562
 30
0.0
 10
0.2773301865626119
 20
-0.8198638235797562
 30
0.0
 10
-3.431246201399133
 20
-0.8198638235797562
 30
0.0
 10
-3.431246201399133
 20
-0.8198638235797562
 30
0.0
 10
-3.431246201399133
 20
-0.8198638235797562
 30
0.0
 10
-3.471105956163473
 20
-0.8266162107308459
 30
0.0
 10
-3.471105956163473
 20
-0.7800040688154156
 30
0.0
 10
-3.471105956163473
 20
-0.7333919268999853
 30
0.0
 10
-3.471347112847441
 20
1.679173990465623
 30
0.0
 10
-3.471347112847441
 20
1.679173990465623
 30
0.0
  0
SPLINE
  5
72
330
1F
100
AcDbEntity
  8
Layer 3
 62
   250
420
  1842203
370
    18
100
AcDbSpline
210
0.0
220
0.0
230
1.0
 70
    11
 71
     3
 72
    23
 73
    19
 74
     0
 42
0.0000000001
 43
0.0000000001
 40
0.0
 40
0.0
 40
0.0
 40
0.0
 40
1.0
 40
1.0
 40
1.0
 40
2.0
 40
2.0
 40
2.0
 40
3.0
 40
3.0
 40
3.0
 40
4.0
 40
4.0
 40
4.0
 40
5.0
 40
5.0
 40
5.0
 40
6.0
 40
6.0
 40
6.0
 40
6.0
 10
1.504921060821686
 20
1.705339490676095
 30
0.0
 10
1.504921060821686
 20
1.705339490676095
 30
0.0
 10
1.597663031284612
 20
1.696881781259807
 30
0.0
 10
1.597663031284612
 20
1.696881781259807
 30
0.0
 10
1.597663031284612
 20
1.696881781259807
 30
0.0
 10
1.613958332929844
 20
1.692110324012736
 30
0.0
 10
1.613958332929844
 20
1.679173990465623
 30
0.0
 10
1.613958332929844
 20
1.66623765691851
 30
0.0
 10
1.612545843780891
 20
-0.7918207463298226
 30
0.0
 10
1.612545843780891
 20
-0.7918207463298226
 30
0.0
 10
1.612545843780891
 20
-0.7918207463298226
 30
0.0
 10
1.609651963573281
 20
-0.8135248478868965
 30
0.0
 10
1.600798068176189
 20
-0.8139382593451265
 30
0.0
 10
1.591944172779097
 20
-0.8143516708033565
 30
0.0
 10
1.504921060821686
 20
-0.8161775714105389
 30
0.0
 10
1.504921060821686
 20
-0.8161775714105389
 30
0.0
 10
1.504921060821686
 20
-0.8161775714105389
 30
0.0
 10
1.504921060821686
 20
1.705339490676095
 30
0.0
 10
1.504921060821686
 20
1.705339490676095
 30
0.0
  0
INSERT
  5
74
330
1F
100
AcDbEntity
  8
Layer 3
100
AcDbBlockReference
  2
block 2
 10
0.0
 20
0.0
 30
0.0
  0
POLYLINE
  5
8D
330
1F
100
AcDbEntity
  8
Layer 3
 62
   250
420
  1842203
370
    18
100
AcDb2dPolyline
 66
     1
 10
0.0
 20
0.0
 30
0.0
  0
VERTEX
  5
8E
330
8D
100
AcDbEntity
  8
Layer 3
 62
   250
420
  1842203
370
    18
100
AcDbVertex
100
AcDb2dVertex
 10
1.650304090299229
 20
0.2483569335316607
 30
0.0
  0
VERTEX
  5
8F
330
8D
100
AcDbEntity
  8
Layer 3
 62
   250
420
  1842203
370
    18
100
AcDbVertex
100
AcDb2dVertex
 10
1.650304090299229
 20
0.2483569335316607
 30
0.0
  0
SEQEND
  5
90
330
8D
100
AcDbEntity
  8
Layer 3
370
    18
  0
POLYLINE
  5
91
330
1F
100
AcDbEntity
  8
Layer 3
 62
   250
420
  1842203
370
    18
100
AcDb2dPolyline
 66
     1
 10
0.0
 20
0.0
 30
0.0
  0
VERTEX
  5
92
330
91
100
AcDbEntity
  8
Layer 3
 62
   250
420
  1842203
370
    18
100
AcDbVertex
100
AcDb2dVertex
 10
1.63528347398354
 20
0.1043174912933651
 30
0.0
  0
VERTEX
  5
93
330
91
100
AcDbEntity
  8
Layer 3
 62
   250
420
  1842203
370
    18
100
AcDbVertex
100
AcDb2dVertex
 10
1.650304090299229
 20
0.2483569335316607
 30
0.0
  0
SEQEND
  5
94
330
91
100
AcDbEntity
  8
Layer 3
370
    18
  0
POLYLINE
  5
95
330
1F
100
AcDbEntity
  8
Layer 3
 62
   250
420
  1842203
370
    18
100
AcDb2dPolyline
 66
     1
 10
0.0
 20
0.0
 30
0.0
  0
VERTEX
  5
96
330
95
100
AcDbEntity
  8
Layer 3
 62
   250
420
  1842203
370
    18
100
AcDbVertex
100
AcDb2dVertex
 10
1.650304090299229
 20
0.2927642143365312
 30
0.0
  0
VERTEX
  5
97
330
95
100
AcDbEntity
  8
Layer 3
 62
   250
420
  1842203
370
    18
100
AcDbVertex
100
AcDb2dVertex
 10
1.650304090299229
 20
0.2483569335316607
 30
0.0
  0
SEQEND
  5
98
330
95
100
AcDbEntity
  8
Layer 3
370
    18
  0
POLYLINE
  5
99
330
1F
100
AcDbEntity
  8
Layer 3
 62
   250
420
  1842203
370
    18
100
AcDb2dPolyline
 66
     1
 10
0.0
 20
0.0
 30
0.0
  0
VERTEX
  5
9A
330
99
100
AcDbEntity
  8
Layer 3
 62
   250
420
  1842203
370
    18
100
AcDbVertex
100
AcDb2dVertex
 10
1.610892197947971
 20
0.1881366644494936
 30
0.0
  0
VERTEX
  5
9B
330
99
100
AcDbEntity
  8
Layer 3
 62
   250
420
  1842203
370
    18
100
AcDbVertex
100
AcDb2dVertex
 10
1.62811767537422
 20
0.1358745659382536
 30
0.0
  0
SEQEND
  5
9C
330
99
100
AcDbEntity
  8
Layer 3
370
    18
  0
POLYLINE
  5
9D
330
1F
100
AcDbEntity
  8
Layer 3
 62
   250
420
  1842203
370
    18
100
AcDb2dPolyline
 66
     1
 10
0.0
 20
0.0
 30
0.0
  0
VERTEX
  5
9E
330
9D
100
AcDbEntity
  8
Layer 3
 62
   250
420
  1842203
370
    18
100
AcDbVertex
100
AcDb2dVertex
 10
1.62811767537422
 20
0.1358745659382536
 30
0.0
  0
VERTEX
  5
9F
330
9D
100
AcDbEntity
  8
Layer 3
 62
   250
420
  1842203
370
    18
100
AcDbVertex
100
AcDb2dVertex
 10
1.640278862437152
 20
0.0821310763683561
 30
0.0
  0
SEQEND
  5
A0
330
9D
100
AcDbEntity
  8
Layer 3
370
    18
  0
POLYLINE
  5
A1
330
1F
100
AcDbEntity
  8
Layer 3
 62
   250
420
  1842203
370
    18
100
AcDb2dPolyline
 66
     1
 10
0.0
 20
0.0
 30
0.0
  0
VERTEX
  5
A2
330
A1
100
AcDbEntity
  8
Layer 3
 62
   250
420
  1842203
370
    18
100
AcDbVertex
100
AcDb2dVertex
 10
1.640278862437152
 20
0.0821310763683561
 30
0.0
  0
VERTEX
  5
A3
330
A1
100
AcDbEntity
  8
Layer 3
 62
   250
420
  1842203
370
    18
100
AcDbVertex
100
AcDb2dVertex
 10
1.648168131098374
 20
0.0270439995592112
 30
0.0
  0
SEQEND
  5
A4
330
A1
100
AcDbEntity
  8
Layer 3
370
    18
  0
POLYLINE
  5
A5
330
1F
100
AcDbEntity
  8
Layer 3
 62
   250
420
  1842203
370
    18
100
AcDb2dPolyline
 66
     1
 10
0.0
 20
0.0
 30
0.0
  0
VERTEX
  5
A6
330
A5
100
AcDbEntity
  8
Layer 3
 62
   250
420
  1842203
370
    18
100
AcDbVertex
100
AcDb2dVertex
 10
1.648168131098374
 20
0.0270439995592112
 30
0.0
  0
VERTEX
  5
A7
330
A5
100
AcDbEntity
  8
Layer 3
 62
   250
420
  1842203
370
    18
100
AcDbVertex
100
AcDb2dVertex
 10
1.650304090299229
 20
-0.0281464301144912
 30
0.0
  0
SEQEND
  5
A8
330
A5
100
AcDbEntity
  8
Layer 3
370
    18
  0
POLYLINE
  5
A9
330
1F
100
AcDbEntity
  8
Layer 3
 62
   250
420
  1842203
370
    18
100
AcDb2dPolyline
 66
     1
 10
0.0
 20
0.0
 30
0.0
  0
VERTEX
  5
AA
330
A9
100
AcDbEntity
  8
Layer 3
 62
   250
420
  1842203
370
    18
100
AcDbVertex
100
AcDb2dVertex
 10
1.650304090299229
 20
-0.0281464301144912
 30
0.0
  0
VERTEX
  5
AB
330
A9
100
AcDbEntity
  8
Layer 3
 62
   250
420
  1842203
370
    18
100
AcDbVertex
100
AcDb2dVertex
 10
1.648168131098374
 20
-0.084060329840096
 30
0.0
  0
SEQEND
  5
AC
330
A9
100
AcDbEntity
  8
Layer 3
370
    18
  0
POLYLINE
  5
AD
330
1F
100
AcDbEntity
  8
Layer 3
 62
   250
420
  1842203
370
    18
100
AcDb2dPolyline
 66
     1
 10
0.0
 20
0.0
 30
0.0
  0
VERTEX
  5
AE
330
AD
100
AcDbEntity
  8
Layer 3
 62
   250
420
  1842203
370
    18
100
AcDbVertex
100
AcDb2dVertex
 10
1.648168131098374
 20
-0.084060329840096
 30
0.0
  0
VERTEX
  5
AF
330
AD
100
AcDbEntity
  8
Layer 3
 62
   250
420
  1842203
370
    18
100
AcDbVertex
100
AcDb2dVertex
 10
1.640278862437152
 20
-0.1392163085589459
 30
0.0
  0
SEQEND
  5
B0
330
AD
100
AcDbEntity
  8
Layer 3
370
    18
  0
POLYLINE
  5
B1
330
1F
100
AcDbEntity
  8
Layer 3
 62
   250
420
  1842203
370
    18
100
AcDb2dPolyline
 66
     1
 10
0.0
 20
0.0
 30
0.0
  0
VERTEX
  5
B2
330
B1
100
AcDbEntity
  8
Layer 3
 62
   250
420
  1842203
370
    18
100
AcDbVertex
100
AcDb2dVertex
 10
1.640278862437152
 20
-0.1392163085589459
 30
0.0
  0
VERTEX
  5
B3
330
B1
100
AcDbEntity
  8
Layer 3
 62
   250
420
  1842203
370
    18
100
AcDbVertex
100
AcDb2dVertex
 10
1.62811767537422
 20
-0.1929942490836959
 30
0.0
  0
SEQEND
  5
B4
330
B1
100
AcDbEntity
  8
Layer 3
370
    18
  0
POLYLINE
  5
B5
330
1F
100
AcDbEntity
  8
Layer 3
 62
   250
420
  1842203
370
    18
100
AcDb2dPolyline
 66
     1
 10
0.0
 20
0.0
 30
0.0
  0
VERTEX
  5
B6
330
B5
100
AcDbEntity
  8
Layer 3
 62
   250
420
  1842203
370
    18
100
AcDbVertex
100
AcDb2dVertex
 10
1.621675346816803
 20
0.7240901690898107
 30
0.0
  0
VERTEX
  5
B7
330
B5
100
AcDbEntity
  8
Layer 3
 62
   250
420
  1842203
370
    18
100
AcDbVertex
100
AcDb2dVertex
 10
1.63459445488649
 20
0.6166548663822946
 30
0.0
  0
SEQEND
  5
B8
330
B5
100
AcDbEntity
  8
Layer 3
370
    18
  0
POLYLINE
  5
B9
330
1F
100
AcDbEntity
  8
Layer 3
 62
   250
420
  1842203
370
    18
100
AcDb2dPolyline
 66
     1
 10
0.0
 20
0.0
 30
0.0
  0
VERTEX
  5
BA
330
B9
100
AcDbEntity
  8
Layer 3
 62
   250
420
  1842203
370
    18
100
AcDbVertex
100
AcDb2dVertex
 10
1.63459445488649
 20
0.6166548663822946
 30
0.0
  0
VERTEX
  5
BB
330
B9
100
AcDbEntity
  8
Layer 3
 62
   250
420
  1842203
370
    18
100
AcDbVertex
100
AcDb2dVertex
 10
1.643172742644762
 20
0.5091506617650734
 30
0.0
  0
SEQEND
  5
BC
330
B9
100
AcDbEntity
  8
Layer 3
370
    18
  0
POLYLINE
  5
BD
330
1F
100
AcDbEntity
  8
Layer 3
 62
   250
420
  1842203
370
    18
100
AcDb2dPolyline
 66
     1
 10
0.0
 20
0.0
 30
0.0
  0
VERTEX
  5
BE
330
BD
100
AcDbEntity
  8
Layer 3
 62
   250
420
  1842203
370
    18
100
AcDbVertex
100
AcDb2dVertex
 10
1.643172742644762
 20
0.5091506617650734
 30
0.0
  0
VERTEX
  5
BF
330
BD
100
AcDbEntity
  8
Layer 3
 62
   250
420
  1842203
370
    18
100
AcDbVertex
100
AcDb2dVertex
 10
1.648168131098374
 20
0.401009114483081
 30
0.0
  0
SEQEND
  5
C0
330
BD
100
AcDbEntity
  8
Layer 3
370
    18
  0
POLYLINE
  5
C1
330
1F
100
AcDbEntity
  8
Layer 3
 62
   250
420
  1842203
370
    18
100
AcDb2dPolyline
 66
     1
 10
0.0
 20
0.0
 30
0.0
  0
VERTEX
  5
C2
330
C1
100
AcDbEntity
  8
Layer 3
 62
   250
420
  1842203
370
    18
100
AcDbVertex
100
AcDb2dVertex
 10
1.648168131098374
 20
0.401009114483081
 30
0.0
  0
VERTEX
  5
C3
330
C1
100
AcDbEntity
  8
Layer 3
 62
   250
420
  1842203
370
    18
100
AcDbVertex
100
AcDb2dVertex
 10
1.650304090299229
 20
0.2927642143365312
 30
0.0
  0
SEQEND
  5
C4
330
C1
100
AcDbEntity
  8
Layer 3
370
    18
  0
SPLINE
  5
C6
330
1F
100
AcDbEntity
  8
Layer 4
 62
   250
420
  1842203
370
    18
100
AcDbSpline
210
0.0
220
0.0
230
1.0
 70
    11
 71
     3
 72
    17
 73
    13
 74
     0
 42
0.0000000001
 43
0.0000000001
 40
0.0
 40
0.0
 40
0.0
 40
0.0
 40
1.0
 40
1.0
 40
1.0
 40
2.0
 40
2.0
 40
2.0
 40
3.0
 40
3.0
 40
3.0
 40
4.0
 40
4.0
 40
4.0
 40
4.0
 10
-2.764103460680502
 20
0.2725759547929671
 30
0.0
 10
-2.764103460680502
 20
0.6620784503553137
 30
0.0
 10
-2.448343233979928
 20
0.9778559025333138
 30
0.0
 10
-2.058840738417581
 20
0.9778559025333138
 30
0.0
 10
-1.669286566422956
 20
0.9778559025333138
 30
0.0
 10
-1.353509114244956
 20
0.6620784503553137
 30
0.0
 10
-1.353509114244956
 20
0.2725759547929671
 30
0.0
 10
-1.353509114244956
 20
-0.116960991724232
 30
0.0
 10
-1.669286566422956
 20
-0.4327039929473795
 30
0.0
 10
-2.058840738417581
 20
-0.4327039929473795
 30
0.0
 10
-2.448343233979928
 20
-0.4327039929473795
 30
0.0
 10
-2.764103460680502
 20
-0.116960991724232
 30
0.0
 10
-2.764103460680502
 20
0.2725759547929671
 30
0.0
  0
SPLINE
  5
C7
330
1F
100
AcDbEntity
  8
Layer 4
 62
   250
420
  1842203
370
    18
100
AcDbSpline
210
0.0
220
0.0
230
1.0
 70
    11
 71
     3
 72
    17
 73
    13
 74
     0
 42
0.0000000001
 43
0.0000000001
 40
0.0
 40
0.0
 40
0.0
 40
0.0
 40
1.0
 40
1.0
 40
1.0
 40
2.0
 40
2.0
 40
2.0
 40
3.0
 40
3.0
 40
3.0
 40
4.0
 40
4.0
 40
4.0
 40
4.0
 10
-2.705278455269861
 20
0.2725415038381146
 30
0.0
 10
-2.705278455269861
 20
0.6295911999294077
 30
0.0
 10
-2.415855983554022
 20
0.9190136716452465
 30
0.0
 10
-2.058823512940155
 20
0.9190136716452465
 30
0.0
 10
-1.701773816848862
 20
0.9190136716452465
 30
0.0
 10
-1.412334119655597
 20
0.6295911999294077
 30
0.0
 10
-1.412334119655597
 20
0.2725415038381146
 30
0.0
 10
-1.412334119655597
 20
-0.0845081922531785
 30
0.0
 10
-1.701773816848862
 20
-0.3738962130141648
 30
0.0
 10
-2.058823512940155
 20
-0.3738962130141648
 30
0.0
 10
-2.415855983554022
 20
-0.3738962130141648
 30
0.0
 10
-2.705278455269861
 20
-0.0845081922531785
 30
0.0
 10
-2.705278455269861
 20
0.2725415038381146
 30
0.0
  0
SPLINE
  5
C8
330
1F
100
AcDbEntity
  8
Layer 4
 62
   250
420
  1842203
370
    18
100
AcDbSpline
210
0.0
220
0.0
230
1.0
 70
    11
 71
     3
 72
    17
 73
    13
 74
     0
 42
0.0000000001
 43
0.0000000001
 40
0.0
 40
0.0
 40
0.0
 40
0.0
 40
1.0
 40
1.0
 40
1.0
 40
2.0
 40
2.0
 40
2.0
 40
3.0
 40
3.0
 40
3.0
 40
4.0
 40
4.0
 40
4.0
 40
4.0
 10
-2.312020805628592
 20
-0.0494371202133352
 30
0.0
 10
-2.312020805628592
 20
0.1020092773182477
 30
0.0
 10
-2.189220377056861
 20
0.2248269313674044
 30
0.0
 10
-2.037773979525279
 20
0.2248269313674044
 30
0.0
 10
-1.886258680083991
 20
0.2248269313674044
 30
0.0
 10
-1.76345825151226
 20
0.1020092773182477
 30
0.0
 10
-1.76345825151226
 20
-0.0494371202133352
 30
0.0
 10
-1.76345825151226
 20
-0.200883517744918
 30
0.0
 10
-1.886258680083991
 20
-0.3237011717940747
 30
0.0
 10
-2.037773979525279
 20
-0.3237011717940747
 30
0.0
 10
-2.189220377056861
 20
-0.3237011717940747
 30
0.0
 10
-2.312020805628592
 20
-0.200883517744918
 30
0.0
 10
-2.312020805628592
 20
-0.0494371202133352
 30
0.0
  0
SPLINE
  5
C9
330
1F
100
AcDbEntity
  8
Layer 4
 62
   250
420
  1842203
370
    18
100
AcDbSpline
210
0.0
220
0.0
230
1.0
 70
    11
 71
     3
 72
    17
 73
    13
 74
     0
 42
0.0000000001
 43
0.0000000001
 40
0.0
 40
0.0
 40
0.0
 40
0.0
 40
1.0
 40
1.0
 40
1.0
 40
2.0
 40
2.0
 40
2.0
 40
3.0
 40
3.0
 40
3.0
 40
4.0
 40
4.0
 40
4.0
 40
4.0
 10
-1.284745008359369
 20
-0.0494371202133352
 30
0.0
 10
-1.284745008359369
 20
0.1020092773182477
 30
0.0
 10
-1.161944579787639
 20
0.2248269313674044
 30
0.0
 10
-1.01048095677863
 20
0.2248269313674044
 30
0.0
 10
-0.8589656573373419
 20
0.2248269313674044
 30
0.0
 10
-0.7361824542430376
 20
0.1020092773182477
 30
0.0
 10
-0.7361824542430376
 20
-0.0494371202133352
 30
0.0
 10
-0.7361824542430376
 20
-0.200883517744918
 30
0.0
 10
-0.8589656573373419
 20
-0.3237011717940747
 30
0.0
 10
-1.01048095677863
 20
-0.3237011717940747
 30
0.0
 10
-1.161944579787639
 20
-0.3237011717940747
 30
0.0
 10
-1.284745008359369
 20
-0.200883517744918
 30
0.0
 10
-1.284745008359369
 20
-0.0494371202133352
 30
0.0
  0
SPLINE
  5
CA
330
1F
100
AcDbEntity
  8
Layer 4
 62
   250
420
  1842203
370
    18
100
AcDbSpline
210
0.0
220
0.0
230
1.0
 70
    11
 71
     3
 72
    17
 73
    13
 74
     0
 42
0.0000000001
 43
0.0000000001
 40
0.0
 40
0.0
 40
0.0
 40
0.0
 40
1.0
 40
1.0
 40
1.0
 40
2.0
 40
2.0
 40
2.0
 40
3.0
 40
3.0
 40
3.0
 40
4.0
 40
4.0
 40
4.0
 40
4.0
 10
-1.339539252052268
 20
-0.0458542209086753
 30
0.0
 10
-1.339539252052268
 20
0.1349443901572361
 30
0.0
 10
-1.19298489010974
 20
0.2814987520997642
 30
0.0
 10
-1.012203504521255
 20
0.2814987520997642
 30
0.0
 10
-0.8313704425004906
 20
0.2814987520997642
 30
0.0
 10
-0.6848160805579626
 20
0.1349443901572361
 30
0.0
 10
-0.6848160805579626
 20
-0.0458542209086753
 30
0.0
 10
-0.6848160805579626
 20
-0.2266183810197343
 30
0.0
 10
-0.8313704425004906
 20
-0.3732071939171148
 30
0.0
 10
-1.012203504521255
 20
-0.3732071939171148
 30
0.0
 10
-1.19298489010974
 20
-0.3732071939171148
 30
0.0
 10
-1.339539252052268
 20
-0.2266183810197343
 30
0.0
 10
-1.339539252052268
 20
-0.0458542209086753
 30
0.0
  0
SPLINE
  5
CB
330
1F
100
AcDbEntity
  8
Layer 4
 62
   250
420
  1842203
370
     9
100
AcDbSpline
210
0.0
220
0.0
230
1.0
 70
    11
 71
     3
 72
    17
 73
    13
 74
     0
 42
0.0000000001
 43
0.0000000001
 40
0.0
 40
0.0
 40
0.0
 40
0.0
 40
1.0
 40
1.0
 40
1.0
 40
2.0
 40
2.0
 40
2.0
 40
3.0
 40
3.0
 40
3.0
 40
4.0
 40
4.0
 40
4.0
 40
4.0
 10
-2.729514702008593
 20
0.2725415038381146
 30
0.0
 10
-2.729514702008593
 20
0.6429926213670296
 30
0.0
 10
-2.429240179514218
 20
0.9432671438614054
 30
0.0
 10
-2.058823512940155
 20
0.9432671438614054
 30
0.0
 10
-1.68837239541124
 20
0.9432671438614054
 30
0.0
 10
-1.388097872916864
 20
0.6429926213670296
 30
0.0
 10
-1.388097872916864
 20
0.2725415038381146
 30
0.0
 10
-1.388097872916864
 20
-0.0979096136908004
 30
0.0
 10
-1.68837239541124
 20
-0.3981152342754712
 30
0.0
 10
-2.058823512940155
 20
-0.3981152342754712
 30
0.0
 10
-2.429240179514218
 20
-0.3981152342754712
 30
0.0
 10
-2.729514702008593
 20
-0.0979096136908004
 30
0.0
 10
-2.729514702008593
 20
0.2725415038381146
 30
0.0
  0
SPLINE
  5
CC
330
1F
100
AcDbEntity
  8
Layer 4
 62
   250
420
  1842203
370
     9
100
AcDbSpline
210
0.0
220
0.0
230
1.0
 70
    11
 71
     3
 72
    17
 73
    13
 74
     0
 42
0.0000000001
 43
0.0000000001
 40
0.0
 40
0.0
 40
0.0
 40
0.0
 40
1.0
 40
1.0
 40
1.0
 40
2.0
 40
2.0
 40
2.0
 40
3.0
 40
3.0
 40
3.0
 40
4.0
 40
4.0
 40
4.0
 40
4.0
 10
-1.310634900931022
 20
-0.0458542209086753
 30
0.0
 10
-1.310634900931022
 20
0.1198893228866943
 30
0.0
 10
-1.176241726051426
 20
0.254316948721143
 30
0.0
 10
-1.010446505823777
 20
0.254316948721143
 30
0.0
 10
-0.8446340601187026
 20
0.254316948721143
 30
0.0
 10
-0.7102408852391064
 20
0.1198893228866943
 30
0.0
 10
-0.7102408852391064
 20
-0.0458542209086753
 30
0.0
 10
-0.7102408852391064
 20
-0.211597764704045
 30
0.0
 10
-0.8446340601187026
 20
-0.3460253905384936
 30
0.0
 10
-1.010446505823777
 20
-0.3460253905384936
 30
0.0
 10
-1.176241726051426
 20
-0.3460253905384936
 30
0.0
 10
-1.310634900931022
 20
-0.211597764704045
 30
0.0
 10
-1.310634900931022
 20
-0.0458542209086753
 30
0.0
  0
SPLINE
  5
CD
330
1F
100
AcDbEntity
  8
Layer 4
 62
   250
420
  1842203
370
    18
100
AcDbSpline
210
0.0
220
0.0
230
1.0
 70
    11
 71
     3
 72
    53
 73
    49
 74
     0
 42
0.0000000001
 43
0.0000000001
 40
0.0
 40
0.0
 40
0.0
 40
0.0
 40
1.0
 40
1.0
 40
1.0
 40
2.0
 40
2.0
 40
2.0
 40
3.0
 40
3.0
 40
3.0
 40
4.0
 40
4.0
 40
4.0
 40
5.0
 40
5.0
 40
5.0
 40
6.0
 40
6.0
 40
6.0
 40
7.0
 40
7.0
 40
7.0
 40
8.0
 40
8.0
 40
8.0
 40
9.0
 40
9.0
 40
9.0
 40
10.0
 40
10.0
 40
10.0
 40
11.0
 40
11.0
 40
11.0
 40
12.0
 40
12.0
 40
12.0
 40
13.0
 40
13.0
 40
13.0
 40
14.0
 40
14.0
 40
14.0
 40
15.0
 40
15.0
 40
15.0
 40
16.0
 40
16.0
 40
16.0
 40
16.0
 10
1.48841905344734
 20
1.421188015052689
 30
0.0
 10
1.48841905344734
 20
1.421188015052689
 30
0.0
 10
1.400948079076846
 20
1.418983153942129
 30
0.0
 10
1.400948079076846
 20
1.418983153942129
 30
0.0
 10
1.400948079076846
 20
1.418983153942129
 30
0.0
 10
1.234756672868394
 20
1.396021592532939
 30
0.0
 10
1.234756672868394
 20
1.396021592532939
 30
0.0
 10
1.234756672868394
 20
1.396021592532939
 30
0.0
 10
1.125512695031122
 20
1.396021592532939
 30
0.0
 10
1.125512695031122
 20
1.396021592532939
 30
0.0
 10
1.125512695031122
 20
1.396021592532939
 30
0.0
 10
1.066808267962464
 20
1.407063123563165
 30
0.0
 10
1.066808267962464
 20
1.336628146367232
 30
0.0
 10
1.066808267962464
 20
1.266193169171299
 30
0.0
 10
1.066808267962464
 20
-0.3942567273319914
 30
0.0
 10
1.066808267962464
 20
-0.3942567273319914
 30
0.0
 10
1.066808267962464
 20
-0.3942567273319914
 30
0.0
 10
1.046034342186408
 20
-0.4702210827817502
 30
0.0
 10
1.11514295762052
 20
-0.4702210827817502
 30
0.0
 10
1.184251573054631
 20
-0.4702210827817502
 30
0.0
 10
1.239786512276859
 20
-0.4658802624703355
 30
0.0
 10
1.239786512276859
 20
-0.4658802624703355
 30
0.0
 10
1.239786512276859
 20
-0.4658802624703355
 30
0.0
 10
1.411007757893776
 20
-0.5017437064717862
 30
0.0
 10
1.411007757893776
 20
-0.5017437064717862
 30
0.0
 10
1.411007757893776
 20
-0.5017437064717862
 30
0.0
 10
1.489142523499242
 20
-0.5017437064717862
 30
0.0
 10
1.489142523499242
 20
-0.5017437064717862
 30
0.0
 10
1.489142523499242
 20
-0.5017437064717862
 30
0.0
 10
1.489142523499242
 20
0.1709800889329494
 30
0.0
 10
1.489142523499242
 20
0.1709800889329494
 30
0.0
 10
1.489142523499242
 20
0.1709800889329494
 30
0.0
 10
1.501407063426731
 20
0.1984374999503906
 30
0.0
 10
1.513189289986286
 20
0.2003667534221305
 30
0.0
 10
1.52497151654584
 20
0.2022960068938704
 30
0.0
 10
1.547157931470849
 20
0.2096685112323051
 30
0.0
 10
1.547157931470849
 20
0.2096685112323051
 30
0.0
 10
1.547157931470849
 20
0.2096685112323051
 30
0.0
 10
1.556115179732499
 20
0.6746702743539018
 30
0.0
 10
1.556115179732499
 20
0.6746702743539018
 30
0.0
 10
1.556115179732499
 20
0.6746702743539018
 30
0.0
 10
1.547571342929079
 20
0.7053660751274778
 30
0.0
 10
1.536030273053492
 20
0.707588161715464
 30
0.0
 10
1.524489203177905
 20
0.7098102483034502
 30
0.0
 10
1.493414441900952
 20
0.7312731931765567
 30
0.0
 10
1.493414441900952
 20
0.7312731931765567
 30
0.0
 10
1.493414441900952
 20
0.7312731931765567
 30
0.0
 10
1.48841905344734
 20
1.421188015052689
 30
0.0
 10
1.48841905344734
 20
1.421188015052689
 30
0.0
  0
SPLINE
  5
CE
330
1F
100
AcDbEntity
  8
Layer 4
 62
   250
420
  1842203
370
    18
100
AcDbSpline
210
0.0
220
0.0
230
1.0
 70
     8
 71
     3
 72
    65
 73
    61
 74
     0
 42
0.0000000001
 43
0.0000000001
 40
0.0
 40
0.0
 40
0.0
 40
0.0
 40
1.0
 40
1.0
 40
1.0
 40
2.0
 40
2.0
 40
2.0
 40
3.0
 40
3.0
 40
3.0
 40
4.0
 40
4.0
 40
4.0
 40
5.0
 40
5.0
 40
5.0
 40
6.0
 40
6.0
 40
6.0
 40
7.0
 40
7.0
 40
7.0
 40
8.0
 40
8.0
 40
8.0
 40
9.0
 40
9.0
 40
9.0
 40
10.0
 40
10.0
 40
10.0
 40
11.0
 40
11.0
 40
11.0
 40
12.0
 40
12.0
 40
12.0
 40
13.0
 40
13.0
 40
13.0
 40
14.0
 40
14.0
 40
14.0
 40
15.0
 40
15.0
 40
15.0
 40
16.0
 40
16.0
 40
16.0
 40
17.0
 40
17.0
 40
17.0
 40
18.0
 40
18.0
 40
18.0
 40
19.0
 40
19.0
 40
19.0
 40
20.0
 40
20.0
 40
20.0
 40
20.0
 10
1.234756672868394
 20
1.396021592532939
 30
0.0
 10
1.234756672868394
 20
1.396021592532939
 30
0.0
 10
1.234756672868394
 20
1.134125433744246
 30
0.0
 10
1.234756672868394
 20
1.134125433744246
 30
0.0
 10
1.234756672868394
 20
1.134125433744246
 30
0.0
 10
1.232620713667539
 20
1.112180175503205
 30
0.0
 10
1.243369411581519
 20
1.11238688123232
 30
0.0
 10
1.254118109495498
 20
1.112593586961435
 30
0.0
 10
1.277785915479165
 20
1.105289984532705
 30
0.0
 10
1.277785915479165
 20
1.098761528588157
 30
0.0
 10
1.277785915479165
 20
1.092233072643608
 30
0.0
 10
1.279163953673264
 20
0.994116753223693
 30
0.0
 10
1.279163953673264
 20
0.994116753223693
 30
0.0
 10
1.279163953673264
 20
0.994116753223693
 30
0.0
 10
1.282126735790579
 20
0.9691570364330578
 30
0.0
 10
1.274203016174505
 20
0.9676928708518268
 30
0.0
 10
1.26627929655843
 20
0.9662287052705956
 30
0.0
 10
1.243369411581519
 20
0.9612333168169833
 30
0.0
 10
1.243369411581519
 20
0.9612333168169833
 30
0.0
 10
1.243369411581519
 20
0.9612333168169833
 30
0.0
 10
1.237719454985709
 20
0.951121961567775
 30
0.0
 10
1.236961533978954
 20
0.9467122393466552
 30
0.0
 10
1.236203612972199
 20
0.9423025171255354
 30
0.0
 10
1.239786512276859
 20
0.7462938094922459
 30
0.0
 10
1.239786512276859
 20
0.7462938094922459
 30
0.0
 10
1.239786512276859
 20
0.7462938094922459
 30
0.0
 10
1.196688367756383
 20
0.7476890731637721
 30
0.0
 10
1.196688367756383
 20
0.7476890731637721
 30
0.0
 10
1.196688367756383
 20
0.7476890731637721
 30
0.0
 10
1.173537326095504
 20
0.7370781790692026
 30
0.0
 10
1.173537326095504
 20
0.7305497231246542
 30
0.0
 10
1.173537326095504
 20
0.7240212671801057
 30
0.0
 10
1.184975043106534
 20
0.1939588758195658
 30
0.0
 10
1.184975043106534
 20
0.1939588758195658
 30
0.0
 10
1.184975043106534
 20
0.1939588758195658
 30
0.0
 10
1.193415527045396
 20
0.1822455511697164
 30
0.0
 10
1.198238660724746
 20
0.1774224174903666
 30
0.0
 10
1.203061794404096
 20
0.1725992838110168
 30
0.0
 10
1.236961533978954
 20
0.1774224174903666
 30
0.0
 10
1.236961533978954
 20
0.1774224174903666
 30
0.0
 10
1.236961533978954
 20
0.1774224174903666
 30
0.0
 10
1.236961533978954
 20
-0.0190169270785791
 30
0.0
 10
1.236961533978954
 20
-0.0190169270785791
 30
0.0
 10
1.236961533978954
 20
-0.0190169270785791
 30
0.0
 10
1.241440158109779
 20
-0.0388951280284707
 30
0.0
 10
1.250569661145691
 20
-0.0388951280284707
 30
0.0
 10
1.259699164181603
 20
-0.0388951280284707
 30
0.0
 10
1.269517686314565
 20
-0.0578431531973448
 30
0.0
 10
1.269517686314565
 20
-0.0578431531973448
 30
0.0
 10
1.269517686314565
 20
-0.0578431531973448
 30
0.0
 10
1.269517686314565
 20
-0.1600246852898549
 30
0.0
 10
1.269517686314565
 20
-0.1600246852898549
 30
0.0
 10
1.269517686314565
 20
-0.1600246852898549
 30
0.0
 10
1.280369737093102
 20
-0.1742873805987893
 30
0.0
 10
1.267726236662235
 20
-0.1814876301629614
 30
0.0
 10
1.255082736231368
 20
-0.1886878797271336
 30
0.0
 10
1.241233452380664
 20
-0.1915128580250385
 30
0.0
 10
1.241233452380664
 20
-0.1915128580250385
 30
0.0
 10
1.241233452380664
 20
-0.1915128580250385
 30
0.0
 10
1.241233452380664
 20
-0.4658802624703355
 30
0.0
 10
1.241233452380664
 20
-0.4658802624703355
 30
0.0
  0
POLYLINE
  5
CF
330
1F
100
AcDbEntity
  8
Layer 4
 62
   250
420
  1842203
370
     9
100
AcDb2dPolyline
 66
     1
 10
0.0
 20
0.0
 30
0.0
  0
VERTEX
  5
D0
330
CF
100
AcDbEntity
  8
Layer 4
 62
   250
420
  1842203
370
     9
100
AcDbVertex
100
AcDb2dVertex
 10
1.491278482700097
 20
0.735372856804004
 30
0.0
  0
VERTEX
  5
D1
330
CF
100
AcDbEntity
  8
Layer 4
 62
   250
420
  1842203
370
     9
100
AcDbVertex
100
AcDb2dVertex
 10
1.491278482700097
 20
0.1853116861515887
 30
0.0
  0
SEQEND
  5
D2
330
CF
100
AcDbEntity
  8
Layer 4
370
     9
  0
SPLINE
  5
D3
330
1F
100
AcDbEntity
  8
Layer 4
 62
   250
420
  1842203
370
     9
100
AcDbSpline
210
0.0
220
0.0
230
1.0
 70
     8
 71
     3
 72
    23
 73
    19
 74
     0
 42
0.0000000001
 43
0.0000000001
 40
0.0
 40
0.0
 40
0.0
 40
0.0
 40
1.0
 40
1.0
 40
1.0
 40
2.0
 40
2.0
 40
2.0
 40
3.0
 40
3.0
 40
3.0
 40
4.0
 40
4.0
 40
4.0
 40
5.0
 40
5.0
 40
5.0
 40
6.0
 40
6.0
 40
6.0
 40
6.0
 10
1.134469943292771
 20
0.3350355359405466
 30
0.0
 10
1.134469943292771
 20
0.3350355359405466
 30
0.0
 10
1.134469943292771
 20
-0.3717947047681624
 30
0.0
 10
1.134469943292771
 20
-0.3717947047681624
 30
0.0
 10
1.134469943292771
 20
-0.3717947047681624
 30
0.0
 10
1.141704643811796
 20
-0.4050054252459708
 30
0.0
 10
1.15596733912073
 20
-0.4050054252459708
 30
0.0
 10
1.170230034429665
 20
-0.4050054252459708
 30
0.0
 10
1.186766492758864
 20
-0.4050054252459708
 30
0.0
 10
1.186766492758864
 20
-0.4050054252459708
 30
0.0
 10
1.186766492758864
 20
-0.4050054252459708
 30
0.0
 10
1.198238660724746
 20
-0.3987353514628161
 30
0.0
 10
1.198238660724746
 20
-0.4100697156092881
 30
0.0
 10
1.198238660724746
 20
-0.4214040797557601
 30
0.0
 10
1.198238660724746
 20
-0.4358390298389569
 30
0.0
 10
1.198238660724746
 20
-0.4358390298389569
 30
0.0
 10
1.198238660724746
 20
-0.4358390298389569
 30
0.0
 10
1.236203612972199
 20
-0.4358390298389569
 30
0.0
 10
1.236203612972199
 20
-0.4358390298389569
 30
0.0
  0
SPLINE
  5
D4
330
1F
100
AcDbEntity
  8
Layer 4
 62
   250
420
  1842203
370
     9
100
AcDbSpline
210
0.0
220
0.0
230
1.0
 70
     8
 71
     3
 72
    20
 73
    16
 74
     0
 42
0.0000000001
 43
0.0000000001
 40
0.0
 40
0.0
 40
0.0
 40
0.0
 40
1.0
 40
1.0
 40
1.0
 40
2.0
 40
2.0
 40
2.0
 40
3.0
 40
3.0
 40
3.0
 40
4.0
 40
4.0
 40
4.0
 40
5.0
 40
5.0
 40
5.0
 40
5.0
 10
1.064293348258232
 20
0.6121245658191911
 30
0.0
 10
1.064293348258232
 20
0.6121245658191911
 30
0.0
 10
1.130163573936209
 20
0.6121245658191911
 30
0.0
 10
1.130163573936209
 20
0.6121245658191911
 30
0.0
 10
1.130163573936209
 20
0.6121245658191911
 30
0.0
 10
1.130163573936209
 20
0.5940378145216294
 30
0.0
 10
1.130163573936209
 20
0.5940378145216294
 30
0.0
 10
1.130163573936209
 20
0.5940378145216294
 30
0.0
 10
1.130163573936209
 20
1.257856038096994
 30
0.0
 10
1.130163573936209
 20
1.29075669998113
 30
0.0
 10
1.130163573936209
 20
1.323657361865266
 30
0.0
 10
1.175363226702687
 20
1.327705349060435
 30
0.0
 10
1.175363226702687
 20
1.327705349060435
 30
0.0
 10
1.175363226702687
 20
1.327705349060435
 30
0.0
 10
1.235859103423674
 20
1.327705349060435
 30
0.0
 10
1.235859103423674
 20
1.327705349060435
 30
0.0
  0
POLYLINE
  5
D5
330
1F
100
AcDbEntity
  8
Layer 4
 62
   250
420
  1842203
370
     9
100
AcDb2dPolyline
 66
     1
 10
0.0
 20
0.0
 30
0.0
  0
VERTEX
  5
D6
330
D5
100
AcDbEntity
  8
Layer 4
 62
   250
420
  1842203
370
     9
100
AcDbVertex
100
AcDb2dVertex
 10
1.173537326095504
 20
0.5893697101391159
 30
0.0
  0
VERTEX
  5
D7
330
D5
100
AcDbEntity
  8
Layer 4
 62
   250
420
  1842203
370
     9
100
AcDbVertex
100
AcDb2dVertex
 10
1.132299533137064
 20
0.5893697101391159
 30
0.0
  0
SEQEND
  5
D8
330
D5
100
AcDbEntity
  8
Layer 4
370
     9
  0
POLYLINE
  5
D9
330
1F
100
AcDbEntity
  8
Layer 4
 62
   250
420
  1842203
370
     9
100
AcDb2dPolyline
 66
     1
 10
0.0
 20
0.0
 30
0.0
  0
VERTEX
  5
DA
330
D9
100
AcDbEntity
  8
Layer 4
 62
   250
420
  1842203
370
     9
100
AcDbVertex
100
AcDb2dVertex
 10
1.068186306156564
 20
0.3128491210155377
 30
0.0
  0
VERTEX
  5
DB
330
D9
100
AcDbEntity
  8
Layer 4
 62
   250
420
  1842203
370
     9
100
AcDbVertex
100
AcDb2dVertex
 10
1.133057454143819
 20
0.3128491210155377
 30
0.0
  0
VERTEX
  5
DC
330
D9
100
AcDbEntity
  8
Layer 4
 62
   250
420
  1842203
370
     9
100
AcDbVertex
100
AcDb2dVertex
 10
1.135193413344674
 20
0.3371714951414015
 30
0.0
  0
VERTEX
  5
DD
330
D9
100
AcDbEntity
  8
Layer 4
 62
   250
420
  1842203
370
     9
100
AcDbVertex
100
AcDb2dVertex
 10
1.181736653350399
 20
0.3371714951414015
 30
0.0
  0
SEQEND
  5
DE
330
D9
100
AcDbEntity
  8
Layer 4
370
     9
  0
SPLINE
  5
DF
330
1F
100
AcDbEntity
  8
Layer 4
 62
   250
420
  1842203
370
     9
100
AcDbSpline
210
0.0
220
0.0
230
1.0
 70
     8
 71
     3
 72
    20
 73
    16
 74
     0
 42
0.0000000001
 43
0.0000000001
 40
0.0
 40
0.0
 40
0.0
 40
0.0
 40
1.0
 40
1.0
 40
1.0
 40
2.0
 40
2.0
 40
2.0
 40
3.0
 40
3.0
 40
3.0
 40
4.0
 40
4.0
 40
4.0
 40
5.0
 40
5.0
 40
5.0
 40
5.0
 10
1.063535427251477
 20
0.5599658201725085
 30
0.0
 10
1.063535427251477
 20
0.5599658201725085
 30
0.0
 10
1.090786132539803
 20
0.5603792316307384
 30
0.0
 10
1.090786132539803
 20
0.5603792316307384
 30
0.0
 10
1.090786132539803
 20
0.5603792316307384
 30
0.0
 10
1.121964246681314
 20
0.558897840572081
 30
0.0
 10
1.121964246681314
 20
0.5354711912723822
 30
0.0
 10
1.121964246681314
 20
0.5120445419726832
 30
0.0
 10
1.121964246681314
 20
0.3907427299370365
 30
0.0
 10
1.121964246681314
 20
0.3907427299370365
 30
0.0
 10
1.121964246681314
 20
0.3907427299370365
 30
0.0
 10
1.11789903400872
 20
0.3651112195267777
 30
0.0
 10
1.101569281408635
 20
0.3651112195267777
 30
0.0
 10
1.085239528808551
 20
0.3651112195267777
 30
0.0
 10
1.069288736711844
 20
0.3651112195267777
 30
0.0
 10
1.069288736711844
 20
0.3651112195267777
 30
0.0
  0
POLYLINE
  5
E0
330
1F
100
AcDbEntity
  8
Layer 4
 62
   250
420
  1842203
370
     9
100
AcDb2dPolyline
 66
     1
 10
0.0
 20
0.0
 30
0.0
  0
VERTEX
  5
E1
330
E0
100
AcDbEntity
  8
Layer 4
 62
   250
420
  1842203
370
     9
100
AcDbVertex
100
AcDb2dVertex
 10
1.065016818310135
 20
0.5757788084498052
 30
0.0
  0
VERTEX
  5
E2
330
E0
100
AcDbEntity
  8
Layer 4
 62
   250
420
  1842203
370
     9
100
AcDbVertex
100
AcDb2dVertex
 10
1.176844617761344
 20
0.5757788084498052
 30
0.0
  0
SEQEND
  5
E3
330
E0
100
AcDbEntity
  8
Layer 4
370
     9
  0
POLYLINE
  5
E4
330
1F
100
AcDbEntity
  8
Layer 4
 62
   250
420
  1842203
370
     9
100
AcDb2dPolyline
 66
     1
 10
0.0
 20
0.0
 30
0.0
  0
VERTEX
  5
E5
330
E4
100
AcDbEntity
  8
Layer 4
 62
   250
420
  1842203
370
     9
100
AcDbVertex
100
AcDb2dVertex
 10
1.065016818310135
 20
0.3433037651051463
 30
0.0
  0
VERTEX
  5
E6
330
E4
100
AcDbEntity
  8
Layer 4
 62
   250
420
  1842203
370
     9
100
AcDbVertex
100
AcDb2dVertex
 10
1.176844617761344
 20
0.3433037651051463
 30
0.0
  0
SEQEND
  5
E7
330
E4
100
AcDbEntity
  8
Layer 4
370
     9
  0
POLYLINE
  5
E8
330
1F
100
AcDbEntity
  8
Layer 4
 62
   250
420
  1842203
370
     9
100
AcDb2dPolyline
 66
     1
 10
0.0
 20
0.0
 30
0.0
  0
VERTEX
  5
E9
330
E8
100
AcDbEntity
  8
Layer 4
 62
   250
420
  1842203
370
     9
100
AcDbVertex
100
AcDb2dVertex
 10
1.48552517323973
 20
1.310514322589038
 30
0.0
  0
VERTEX
  5
EA
330
E8
100
AcDbEntity
  8
Layer 4
 62
   250
420
  1842203
370
     9
100
AcDbVertex
100
AcDb2dVertex
 10
1.239786512276859
 20
1.303658582573391
 30
0.0
  0
VERTEX
  5
EB
330
E8
100
AcDbEntity
  8
Layer 4
 62
   250
420
  1842203
370
     9
100
AcDbVertex
100
AcDb2dVertex
 10
1.140223252753139
 20
1.278612738395625
 30
0.0
  0
SEQEND
  5
EC
330
E8
100
AcDbEntity
  8
Layer 4
370
     9
  0
POLYLINE
  5
ED
330
1F
100
AcDbEntity
  8
Layer 4
 62
   250
420
  1842203
370
     9
100
AcDb2dPolyline
 66
     1
 10
0.0
 20
0.0
 30
0.0
  0
VERTEX
  5
EE
330
ED
100
AcDbEntity
  8
Layer 4
 62
   250
420
  1842203
370
     9
100
AcDbVertex
100
AcDb2dVertex
 10
1.48841905344734
 20
0.8798257105005296
 30
0.0
  0
VERTEX
  5
EF
330
ED
100
AcDbEntity
  8
Layer 4
 62
   250
420
  1842203
370
     9
100
AcDbVertex
100
AcDb2dVertex
 10
1.235514593875149
 20
0.9004101560248974
 30
0.0
  0
SEQEND
  5
F0
330
ED
100
AcDbEntity
  8
Layer 4
370
     9
  0
POLYLINE
  5
F1
330
1F
100
AcDbEntity
  8
Layer 4
 62
   250
420
  1842203
370
    18
100
AcDb2dPolyline
 66
     1
 10
0.0
 20
0.0
 30
0.0
  0
VERTEX
  5
F2
330
F1
100
AcDbEntity
  8
Layer 4
 62
   250
420
  1842203
370
    18
100
AcDbVertex
100
AcDb2dVertex
 10
1.489831542596292
 20
0.7771101886078058
 30
0.0
  0
VERTEX
  5
F3
330
F1
100
AcDbEntity
  8
Layer 4
 62
   250
420
  1842203
370
    18
100
AcDbVertex
100
AcDb2dVertex
 10
1.246297742743981
 20
0.7591956920845065
 30
0.0
  0
SEQEND
  5
F4
330
F1
100
AcDbEntity
  8
Layer 4
370
    18
  0
POLYLINE
  5
F5
330
1F
100
AcDbEntity
  8
Layer 4
 62
   250
420
  1842203
370
     9
100
AcDb2dPolyline
 66
     1
 10
0.0
 20
0.0
 30
0.0
  0
VERTEX
  5
F6
330
F5
100
AcDbEntity
  8
Layer 4
 62
   250
420
  1842203
370
     9
100
AcDbVertex
100
AcDb2dVertex
 10
1.486972113343535
 20
0.6839548066866501
 30
0.0
  0
VERTEX
  5
F7
330
F5
100
AcDbEntity
  8
Layer 4
 62
   250
420
  1842203
370
     9
100
AcDbVertex
100
AcDb2dVertex
 10
1.181736653350399
 20
0.6682279457964846
 30
0.0
  0
SEQEND
  5
F8
330
F5
100
AcDbEntity
  8
Layer 4
370
     9
  0
POLYLINE
  5
F9
330
1F
100
AcDbEntity
  8
Layer 4
 62
   250
420
  1842203
370
     9
100
AcDb2dPolyline
 66
     1
 10
0.0
 20
0.0
 30
0.0
  0
VERTEX
  5
FA
330
F9
100
AcDbEntity
  8
Layer 4
 62
   250
420
  1842203
370
     9
100
AcDbVertex
100
AcDb2dVertex
 10
1.185354003609911
 20
0.6094373913406962
 30
0.0
  0
VERTEX
  5
FB
330
F9
100
AcDbEntity
  8
Layer 4
 62
   250
420
  1842203
370
     9
100
AcDbVertex
100
AcDb2dVertex
 10
1.48194227393507
 20
0.5958464896513855
 30
0.0
  0
SEQEND
  5
FC
330
F9
100
AcDbEntity
  8
Layer 4
370
     9
  0
POLYLINE
  5
FD
330
1F
100
AcDbEntity
  8
Layer 4
 62
   250
420
  1842203
370
     9
100
AcDb2dPolyline
 66
     1
 10
0.0
 20
0.0
 30
0.0
  0
VERTEX
  5
FE
330
FD
100
AcDbEntity
  8
Layer 4
 62
   250
420
  1842203
370
     9
100
AcDbVertex
100
AcDb2dVertex
 10
1.184975043106534
 20
0.3221508788257123
 30
0.0
  0
VERTEX
  5
FF
330
FD
100
AcDbEntity
  8
Layer 4
 62
   250
420
  1842203
370
     9
100
AcDbVertex
100
AcDb2dVertex
 10
1.486972113343535
 20
0.328558756428277
 30
0.0
  0
VERTEX
  5
100
330
FD
100
AcDbEntity
  8
Layer 4
 62
   250
420
  1842203
370
     9
100
AcDbVertex
100
AcDb2dVertex
 10
1.484767252232975
 20
0.2411911349223411
 30
0.0
  0
VERTEX
  5
101
330
FD
100
AcDbEntity
  8
Layer 4
 62
   250
420
  1842203
370
     9
100
AcDbVertex
100
AcDb2dVertex
 10
1.183769259686696
 20
0.2505273436873681
 30
0.0
  0
SEQEND
  5
102
330
FD
100
AcDbEntity
  8
Layer 4
370
     9
  0
POLYLINE
  5
103
330
1F
100
AcDbEntity
  8
Layer 4
 62
   250
420
  1842203
370
    18
100
AcDb2dPolyline
 66
     1
 10
0.0
 20
0.0
 30
0.0
  0
VERTEX
  5
104
330
103
100
AcDbEntity
  8
Layer 4
 62
   250
420
  1842203
370
    18
100
AcDbVertex
100
AcDb2dVertex
 10
1.236961533978954
 20
0.1667081705312396
 30
0.0
  0
VERTEX
  5
105
330
103
100
AcDbEntity
  8
Layer 4
 62
   250
420
  1842203
370
    18
100
AcDbVertex
100
AcDb2dVertex
 10
1.485559624194582
 20
0.1530655924096503
 30
0.0
  0
VERTEX
  5
106
330
103
100
AcDbEntity
  8
Layer 4
 62
   250
420
  1842203
370
    18
100
AcDbVertex
100
AcDb2dVertex
 10
1.485559624194582
 20
0.0356222873174833
 30
0.0
  0
VERTEX
  5
107
330
103
100
AcDbEntity
  8
Layer 4
 62
   250
420
  1842203
370
    18
100
AcDbVertex
100
AcDb2dVertex
 10
1.236961533978954
 20
0.0255281575457013
 30
0.0
  0
SEQEND
  5
108
330
103
100
AcDbEntity
  8
Layer 4
370
    18
  0
POLYLINE
  5
109
330
1F
100
AcDbEntity
  8
Layer 4
 62
   250
420
  1842203
370
     9
100
AcDb2dPolyline
 66
     1
 10
0.0
 20
0.0
 30
0.0
  0
VERTEX
  5
10A
330
109
100
AcDbEntity
  8
Layer 4
 62
   250
420
  1842203
370
     9
100
AcDbVertex
100
AcDb2dVertex
 10
1.241233452380664
 20
-0.3648700628428103
 30
0.0
  0
VERTEX
  5
10B
330
109
100
AcDbEntity
  8
Layer 4
 62
   250
420
  1842203
370
     9
100
AcDbVertex
100
AcDb2dVertex
 10
1.489142523499242
 20
-0.3648700628428103
 30
0.0
  0
SEQEND
  5
10C
330
109
100
AcDbEntity
  8
Layer 4
370
     9
  0
SPLINE
  5
10D
330
1F
100
AcDbEntity
  8
Layer 4
 62
   250
420
  1842203
370
     9
100
AcDbSpline
210
0.0
220
0.0
230
1.0
 70
     8
 71
     3
 72
    29
 73
    25
 74
     0
 42
0.0000000001
 43
0.0000000001
 40
0.0
 40
0.0
 40
0.0
 40
0.0
 40
1.0
 40
1.0
 40
1.0
 40
2.0
 40
2.0
 40
2.0
 40
3.0
 40
3.0
 40
3.0
 40
4.0
 40
4.0
 40
4.0
 40
5.0
 40
5.0
 40
5.0
 40
6.0
 40
6.0
 40
6.0
 40
7.0
 40
7.0
 40
7.0
 40
8.0
 40
8.0
 40
8.0
 40
8.0
 10
1.140223252753139
 20
0.1351510958863511
 30
0.0
 10
1.140223252753139
 20
0.1351510958863511
 30
0.0
 10
1.176017794844884
 20
0.1351510958863511
 30
0.0
 10
1.176017794844884
 20
0.1351510958863511
 30
0.0
 10
1.176017794844884
 20
0.1351510958863511
 30
0.0
 10
1.206885850392723
 20
0.1321538628141838
 30
0.0
 10
1.206885850392723
 20
0.1194070095187593
 30
0.0
 10
1.206885850392723
 20
0.106660156223335
 30
0.0
 10
1.206885850392723
 20
0.0799951171675012
 30
0.0
 10
1.206885850392723
 20
0.0799951171675012
 30
0.0
 10
1.206885850392723
 20
0.0799951171675012
 30
0.0
 10
1.21939154700418
 20
0.0698665364408667
 30
0.0
 10
1.21939154700418
 20
0.0607025824501021
 30
0.0
 10
1.21939154700418
 20
0.0515386284593376
 30
0.0
 10
1.21939154700418
 20
-0.180075141014009
 30
0.0
 10
1.21939154700418
 20
-0.180075141014009
 30
0.0
 10
1.21939154700418
 20
-0.180075141014009
 30
0.0
 10
1.211192219749285
 20
-0.2015380858871155
 30
0.0
 10
1.211192219749285
 20
-0.2015380858871155
 30
0.0
 10
1.211192219749285
 20
-0.2015380858871155
 30
0.0
 10
1.200409070880453
 20
-0.2194870333652671
 30
0.0
 10
1.200409070880453
 20
-0.2194870333652671
 30
0.0
 10
1.200409070880453
 20
-0.2194870333652671
 30
0.0
 10
1.130163573936209
 20
-0.221622992566122
 30
0.0
 10
1.130163573936209
 20
-0.221622992566122
 30
0.0
  0
POLYLINE
  5
10E
330
1F
100
AcDbEntity
  8
Layer 4
 62
   250
420
  1842203
370
     9
100
AcDb2dPolyline
 66
     1
 10
0.0
 20
0.0
 30
0.0
  0
VERTEX
  5
10F
330
10E
100
AcDbEntity
  8
Layer 4
 62
   250
420
  1842203
370
     9
100
AcDbVertex
100
AcDb2dVertex
 10
1.201098089977503
 20
0.0889523654291508
 30
0.0
  0
VERTEX
  5
110
330
10E
100
AcDbEntity
  8
Layer 4
 62
   250
420
  1842203
370
     9
100
AcDbVertex
100
AcDb2dVertex
 10
1.201098089977503
 20
-0.221622992566122
 30
0.0
  0
SEQEND
  5
111
330
10E
100
AcDbEntity
  8
Layer 4
370
     9
  0
SPLINE
  5
112
330
1F
100
AcDbEntity
  8
Layer 4
 62
   250
420
  1842203
370
     9
100
AcDbSpline
210
0.0
220
0.0
230
1.0
 70
     8
 71
     3
 72
    20
 73
    16
 74
     0
 42
0.0000000001
 43
0.0000000001
 40
0.0
 40
0.0
 40
0.0
 40
0.0
 40
1.0
 40
1.0
 40
1.0
 40
2.0
 40
2.0
 40
2.0
 40
3.0
 40
3.0
 40
3.0
 40
4.0
 40
4.0
 40
4.0
 40
5.0
 40
5.0
 40
5.0
 40
5.0
 10
1.26627929655843
 20
-0.1571308050822451
 30
0.0
 10
1.26627929655843
 20
-0.1571308050822451
 30
0.0
 10
1.222629936760315
 20
-0.1710834417975069
 30
0.0
 10
1.215050726692765
 20
-0.189411349779036
 30
0.0
 10
1.207471516625215
 20
-0.2077392577605652
 30
0.0
 10
1.200374619925601
 20
-0.2588989257165252
 30
0.0
 10
1.199306640325173
 20
-0.2846682399461941
 30
0.0
 10
1.198238660724746
 20
-0.3104375541758628
 30
0.0
 10
1.202200520532783
 20
-0.3240801322974521
 30
0.0
 10
1.202200520532783
 20
-0.3240801322974521
 30
0.0
 10
1.202200520532783
 20
-0.3240801322974521
 30
0.0
 10
1.216532117751422
 20
-0.336930338457434
 30
0.0
 10
1.216532117751422
 20
-0.336930338457434
 30
0.0
 10
1.216532117751422
 20
-0.336930338457434
 30
0.0
 10
1.236961533978954
 20
-0.3398242186650439
 30
0.0
 10
1.236961533978954
 20
-0.3398242186650439
 30
0.0
  0
ENDSEC
  0
SECTION
  2
OBJECTS
  0
DICTIONARY
  5
C
330
0
100
AcDbDictionary
281
     1
  3
ACAD_GROUP
350
D
  3
ACAD_LAYOUT
350
1A
  3
ACAD_MLINESTYLE
350
17
  3
ACAD_PLOTSETTINGS
350
19
  3
ACAD_PLOTSTYLENAME
350
E
  3
ACAD_TABLESTYLE
350
113
  3
ACAD_VISUALSTYLE
350
2A
  0
DICTIONARY
  5
D
102
{ACAD_REACTORS
330
C
102
}
330
C
100
AcDbDictionary
281
     1
  0
DICTIONARY
  5
1A
102
{ACAD_REACTORS
330
C
102
}
330
C
100
AcDbDictionary
281
     1
  3
Layout1
350
1E
  3
Layout2
350
26
  3
Model
350
22
  0
DICTIONARY
  5
17
102
{ACAD_REACTORS
330
C
102
}
330
C
100
AcDbDictionary
281
     1
  3
Standard
350
18
  0
DICTIONARY
  5
19
102
{ACAD_REACTORS
330
C
102
}
330
C
100
AcDbDictionary
281
     1
  0
ACDBDICTIONARYWDFLT
  5
E
102
{ACAD_REACTORS
330
C
102
}
330
C
100
AcDbDictionary
281
     1
  3
Normal
350
F
100
AcDbDictionaryWithDefault
340
F
  0
DICTIONARY
  5
113
102
{ACAD_REACTORS
330
C
102
}
330
C
100
AcDbDictionary
281
     1
  0
DICTIONARY
  5
2A
102
{ACAD_REACTORS
330
C
102
}
330
C
100
AcDbDictionary
281
     1
  3
2dWireframe
350
2F
  3
3D Hidden
350
31
  3
3dWireframe
350
30
  3
Basic
350
32
  3
Brighten
350
36
  3
ColorChange
350
3A
  3
Conceptual
350
34
  3
Dim
350
35
  3
Facepattern
350
39
  3
Flat
350
2B
  3
FlatWithEdges
350
2C
  3
Gouraud
350
2D
  3
GouraudWithEdges
350
2E
  3
Linepattern
350
38
  3
Realistic
350
33
  3
Thicken
350
37
  0
LAYOUT
  5
1E
102
{ACAD_REACTORS
330
1A
102
}
330
1A
100
AcDbPlotSettings
  1

  2
none_device
  4

  6

 40
0.0
 41
0.0
 42
0.0
 43
0.0
 44
0.0
 45
0.0
 46
0.0
 47
0.0
 48
0.0
 49
0.0
140
0.0
141
0.0
142
1.0
143
1.0
 70
   688
 72
     0
 73
     0
 74
     5
  7

 75
    16
 76
     0
 77
     2
 78
   300
147
1.0
148
0.0
149
0.0
100
AcDbLayout
  1
Layout1
 70
     1
 71
     1
 10
0.0
 20
0.0
 11
12.0
 21
9.0
 12
0.0
 22
0.0
 32
0.0
 14
1.000000000000000E+20
 24
1.000000000000000E+20
 34
1.000000000000000E+20
 15
-1.000000000000000E+20
 25
-1.000000000000000E+20
 35
-1.000000000000000E+20
146
0.0
 13
0.0
 23
0.0
 33
0.0
 16
1.0
 26
0.0
 36
0.0
 17
0.0
 27
1.0
 37
0.0
 76
     0
330
1B
  0
LAYOUT
  5
26
102
{ACAD_REACTORS
330
1A
102
}
330
1A
100
AcDbPlotSettings
  1

  2
none_device
  4

  6

 40
0.0
 41
0.0
 42
0.0
 43
0.0
 44
0.0
 45
0.0
 46
0.0
 47
0.0
 48
0.0
 49
0.0
140
0.0
141
0.0
142
1.0
143
1.0
 70
   688
 72
     0
 73
     0
 74
     5
  7

 75
    16
 76
     0
 77
     2
 78
   300
147
1.0
148
0.0
149
0.0
100
AcDbLayout
  1
Layout2
 70
     1
 71
     2
 10
0.0
 20
0.0
 11
0.0
 21
0.0
 12
0.0
 22
0.0
 32
0.0
 14
0.0
 24
0.0
 34
0.0
 15
0.0
 25
0.0
 35
0.0
146
0.0
 13
0.0
 23
0.0
 33
0.0
 16
1.0
 26
0.0
 36
0.0
 17
0.0
 27
1.0
 37
0.0
 76
     0
330
23
  0
LAYOUT
  5
22
102
{ACAD_REACTORS
330
1A
102
}
330
1A
100
AcDbPlotSettings
  1

  2
none_device
  4

  6

 40
0.0
 41
0.0
 42
0.0
 43
0.0
 44
0.0
 45
0.0
 46
0.0
 47
0.0
 48
0.0
 49
0.0
140
0.0
141
0.0
142
1.0
143
1.0
 70
  1712
 72
     0
 73
     0
 74
     0
  7

 75
     0
 76
     0
 77
     2
 78
   300
147
1.0
148
0.0
149
0.0
100
AcDbLayout
  1
Model
 70
     1
 71
     0
 10
0.0
 20
0.0
 11
12.0
 21
9.0
 12
0.0
 22
0.0
 32
0.0
 14
1.000000000000000E+20
 24
1.000000000000000E+20
 34
1.000000000000000E+20
 15
-1.000000000000000E+20
 25
-1.000000000000000E+20
 35
-1.000000000000000E+20
146
0.0
 13
0.0
 23
0.0
 33
0.0
 16
1.0
 26
0.0
 36
0.0
 17
0.0
 27
1.0
 37
0.0
 76
     0
330
1F
331
29
  0
MLINESTYLE
  5
18
102
{ACAD_REACTORS
330
17
102
}
330
17
100
AcDbMlineStyle
  2
Standard
 70
     0
  3

 62
   256
 51
90.0
 52
90.0
 71
     2
 49
0.5
 62
   256
  6
BYLAYER
 49
-0.5
 62
   256
  6
BYLAYER
  0
ACDBPLACEHOLDER
  5
F
102
{ACAD_REACTORS
330
E
102
}
330
E
  0
VISUALSTYLE
  5
2F
102
{ACAD_REACTORS
330
2A
102
}
330
2A
100
AcDbVisualStyle
  2
2dWireframe
 70
     4
 71
     0
 72
     2
 73
     0
 90
        0
 40
-0.6
 41
-30.0
 62
     5
 63
     7
421
 16777215
 74
     1
 91
        4
 64
     7
 65
   257
 75
     1
175
     1
 42
1.0
 92
        0
 66
   257
 43
1.0
 76
     1
 77
     6
 78
     2
 67
     7
 79
     5
170
     0
171
     0
290
     0
174
     0
 93
        1
 44
0.0
173
     0
291
     0
 45
0.0
1001
ACAD
1000
AcDbSavedByObjectVersion
1070
     0
  0
VISUALSTYLE
  5
31
102
{ACAD_REACTORS
330
2A
102
}
330
2A
100
AcDbVisualStyle
  2
3D Hidden
 70
     6
 71
     1
 72
     2
 73
     2
 90
        0
 40
-0.6
 41
-30.0
 62
     5
 63
     7
421
 16777215
 74
     2
 91
        2
 64
     7
 65
   257
 75
     2
175
     1
 42
40.0
 92
        0
 66
   257
 43
1.0
 76
     1
 77
     6
 78
     2
 67
     7
 79
     3
170
     0
171
     0
290
     0
174
     0
 93
        1
 44
0.0
173
     0
291
     0
 45
0.0
1001
ACAD
1000
AcDbSavedByObjectVersion
1070
     0
  0
VISUALSTYLE
  5
30
102
{ACAD_REACTORS
330
2A
102
}
330
2A
100
AcDbVisualStyle
  2
3dWireframe
 70
     5
 71
     0
 72
     2
 73
     0
 90
        0
 40
-0.6
 41
-30.0
 62
     5
 63
     7
421
 16777215
 74
     1
 91
        4
 64
     7
 65
   257
 75
     1
175
     1
 42
1.0
 92
        0
 66
   257
 43
1.0
 76
     1
 77
     6
 78
     2
 67
     7
 79
     5
170
     0
171
     0
290
     0
174
     0
 93
        1
 44
0.0
173
     0
291
     0
 45
0.0
1001
ACAD
1000
AcDbSavedByObjectVersion
1070
     0
  0
VISUALSTYLE
  5
32
102
{ACAD_REACTORS
330
2A
102
}
330
2A
100
AcDbVisualStyle
  2
Basic
 70
     7
 71
     1
 72
     0
 73
     1
 90
        0
 40
-0.6
 41
-30.0
 62
     5
 63
     7
421
 16777215
 74
     0
 91
        4
 64
     7
 65
   257
 75
     1
175
     1
 42
1.0
 92
        8
 66
     7
 43
1.0
 76
     1
 77
     6
 78
     2
 67
     7
 79
     5
170
     0
171
     0
290
     0
174
     0
 93
        1
 44
0.0
173
     0
291
     1
 45
0.0
1001
ACAD
1000
AcDbSavedByObjectVersion
1070
     0
  0
VISUALSTYLE
  5
36
102
{ACAD_REACTORS
330
2A
102
}
330
2A
100
AcDbVisualStyle
  2
Brighten
 70
    12
 71
     2
 72
     2
 73
     0
 90
        0
 40
-0.6
 41
-30.0
 62
     5
 63
     7
421
 16777215
 74
     1
 91
        4
 64
     7
 65
   257
 75
     1
175
     1
 42
1.0
 92
        8
 66
     7
 43
1.0
 76
     1
 77
     6
 78
     2
 67
     7
 79
     5
170
     0
171
     0
290
     0
174
     0
 93
        1
 44
50.0
173
     0
291
     1
 45
0.0
1001
ACAD
1000
AcDbSavedByObjectVersion
1070
     0
  0
VISUALSTYLE
  5
3A
102
{ACAD_REACTORS
330
2A
102
}
330
2A
100
AcDbVisualStyle
  2
ColorChange
 70
    16
 71
     2
 72
     2
 73
     3
 90
        0
 40
-0.6
 41
-30.0
 62
     5
 63
     8
421
  8421504
 74
     1
 91
        4
 64
     7
 65
   257
 75
     1
175
     1
 42
1.0
 92
        8
 66
     8
424
  8421504
 43
1.0
 76
     1
 77
     6
 78
     2
 67
     7
 79
     5
170
     0
171
     0
290
     0
174
     0
 93
        1
 44
0.0
173
     0
291
     1
 45
0.0
1001
ACAD
1000
AcDbSavedByObjectVersion
1070
     0
  0
VISUALSTYLE
  5
34
102
{ACAD_REACTORS
330
2A
102
}
330
2A
100
AcDbVisualStyle
  2
Conceptual
 70
     9
 71
     3
 72
     2
 73
     0
 90
        0
 40
-0.6
 41
-30.0
 62
     5
 63
     7
421
 16777215
 74
     2
 91
        2
 64
     7
 65
   257
 75
     1
175
     1
 42
40.0
 92
        8
 66
     7
 43
1.0
 76
     1
 77
     6
 78
     2
 67
     7
 79
     3
170
     0
171
     0
290
     0
174
     0
 93
        1
 44
0.0
173
     0
291
     0
 45
0.0
1001
ACAD
1000
AcDbSavedByObjectVersion
1070
     0
  0
VISUALSTYLE
  5
35
102
{ACAD_REACTORS
330
2A
102
}
330
2A
100
AcDbVisualStyle
  2
Dim
 70
    11
 71
     2
 72
     2
 73
     0
 90
        0
 40
-0.6
 41
-30.0
 62
     5
 63
     7
421
 16777215
 74
     1
 91
        4
 64
     7
 65
   257
 75
     1
175
     1
 42
1.0
 92
        8
 66
     7
 43
1.0
 76
     1
 77
     6
 78
     2
 67
     7
 79
     5
170
     0
171
     0
290
     0
174
     0
 93
        1
 44
-50.0
173
     0
291
     1
 45
0.0
1001
ACAD
1000
AcDbSavedByObjectVersion
1070
     0
  0
VISUALSTYLE
  5
39
102
{ACAD_REACTORS
330
2A
102
}
330
2A
100
AcDbVisualStyle
  2
Facepattern
 70
    15
 71
     2
 72
     2
 73
     0
 90
        0
 40
-0.6
 41
-30.0
 62
     5
 63
     7
421
 16777215
 74
     1
 91
        4
 64
     7
 65
   257
 75
     1
175
     1
 42
1.0
 92
        8
 66
     7
 43
1.0
 76
     1
 77
     6
 78
     2
 67
     7
 79
     5
170
     0
171
     0
290
     0
174
     0
 93
        1
 44
0.0
173
     0
291
     1
 45
0.0
1001
ACAD
1000
AcDbSavedByObjectVersion
1070
     0
  0
VISUALSTYLE
  5
2B
102
{ACAD_REACTORS
330
2A
102
}
330
2A
100
AcDbVisualStyle
  2
Flat
 70
     0
 71
     2
 72
     1
 73
     1
 90
        2
 40
-0.6
 41
30.0
 62
     5
 63
     7
421
 16777215
 74
     0
 91
        4
 64
     7
 65
   257
 75
     1
175
     1
 42
1.0
 92
        8
 66
     7
 43
1.0
 76
     1
 77
     6
 78
     2
 67
     7
 79
     5
170
     0
171
     0
290
     0
174
     0
 93
       13
 44
0.0
173
     0
291
     1
 45
0.0
1001
ACAD
1000
AcDbSavedByObjectVersion
1070
     0
  0
VISUALSTYLE
  5
2C
102
{ACAD_REACTORS
330
2A
102
}
330
2A
100
AcDbVisualStyle
  2
FlatWithEdges
 70
     1
 71
     2
 72
     1
 73
     1
 90
        2
 40
-0.6
 41
30.0
 62
     5
 63
     7
421
 16777215
 74
     1
 91
        4
 64
     7
 65
   257
 75
     1
175
     1
 42
1.0
 92
        0
 66
   257
 43
1.0
 76
     1
 77
     6
 78
     2
 67
     7
 79
     5
170
     0
171
     0
290
     0
174
     0
 93
       13
 44
0.0
173
     0
291
     1
 45
0.0
1001
ACAD
1000
AcDbSavedByObjectVersion
1070
     0
  0
VISUALSTYLE
  5
2D
102
{ACAD_REACTORS
330
2A
102
}
330
2A
100
AcDbVisualStyle
  2
Gouraud
 70
     2
 71
     2
 72
     2
 73
     1
 90
        2
 40
-0.6
 41
30.0
 62
     5
 63
     7
421
 16777215
 74
     0
 91
        4
 64
     7
 65
   257
 75
     1
175
     1
 42
1.0
 92
        0
 66
     7
 43
1.0
 76
     1
 77
     6
 78
     2
 67
     7
 79
     5
170
     0
171
     0
290
     0
174
     0
 93
       13
 44
0.0
173
     0
291
     1
 45
0.0
1001
ACAD
1000
AcDbSavedByObjectVersion
1070
     0
  0
VISUALSTYLE
  5
2E
102
{ACAD_REACTORS
330
2A
102
}
330
2A
100
AcDbVisualStyle
  2
GouraudWithEdges
 70
     3
 71
     2
 72
     2
 73
     1
 90
        2
 40
-0.6
 41
30.0
 62
     5
 63
     7
421
 16777215
 74
     1
 91
        4
 64
     7
 65
   257
 75
     1
175
     1
 42
1.0
 92
        0
 66
   257
 43
1.0
 76
     1
 77
     6
 78
     2
 67
     7
 79
     5
170
     0
171
     0
290
     0
174
     0
 93
       13
 44
0.0
173
     0
291
     1
 45
0.0
1001
ACAD
1000
AcDbSavedByObjectVersion
1070
     0
  0
VISUALSTYLE
  5
38
102
{ACAD_REACTORS
330
2A
102
}
330
2A
100
AcDbVisualStyle
  2
Linepattern
 70
    14
 71
     2
 72
     2
 73
     0
 90
        0
 40
-0.6
 41
-30.0
 62
     5
 63
     7
421
 16777215
 74
     1
 91
        4
 64
     7
 65
   257
 75
     7
175
     7
 42
1.0
 92
        8
 66
     7
 43
1.0
 76
     1
 77
     6
 78
     2
 67
     7
 79
     5
170
     0
171
     0
290
     0
174
     0
 93
        1
 44
0.0
173
     0
291
     1
 45
0.0
1001
ACAD
1000
AcDbSavedByObjectVersion
1070
     0
  0
VISUALSTYLE
  5
33
102
{ACAD_REACTORS
330
2A
102
}
330
2A
100
AcDbVisualStyle
  2
Realistic
 70
     8
 71
     2
 72
     2
 73
     0
 90
        0
 40
-0.6
 41
-30.0
 62
     5
 63
     7
421
 16777215
 74
     1
 91
        0
 64
     7
 65
   257
 75
     1
175
     1
 42
1.0
 92
        8
 66
     8
424
  7895160
 43
1.0
 76
     1
 77
     6
 78
     2
 67
     7
 79
     5
170
     0
171
     0
290
     0
174
     0
 93
       13
 44
0.0
173
     0
291
     0
 45
0.0
1001
ACAD
1000
AcDbSavedByObjectVersion
1070
     0
  0
VISUALSTYLE
  5
37
102
{ACAD_REACTORS
330
2A
102
}
330
2A
100
AcDbVisualStyle
  2
Thicken
 70
    13
 71
     2
 72
     2
 73
     0
 90
        0
 40
-0.6
 41
-30.0
 62
     5
 63
     7
421
 16777215
 74
     1
 91
        4
 64
     7
 65
   257
 75
     1
175
     1
 42
1.0
 92
       12
 66
     7
 43
1.0
 76
     1
 77
     6
 78
     2
 67
     7
 79
     5
170
     0
171
     0
290
     0
174
     0
 93
        1
 44
0.0
173
     0
291
     1
 45
0.0
1001
ACAD
1000
AcDbSavedByObjectVersion
1070
     0
  0
ENDSEC
  0
EOF
