  0
SECTION
  2
HEADER
  9
$ACADVER
  1
AC1024
  9
$ACADMAINTVER
 70
     6
  9
$DWGCODEPAGE
  3
ANSI_1252
  9
$INSBASE
 10
0.0
 20
0.0
 30
0.0
  9
$EXTMIN
 10
1.000000E+20
 20
1.000000E+20
 30
1.000000E+20
  9
$EXTMAX
 10
-1.000000E+20
 20
-1.000000E+20
 30
-1.000000E+20
  9
$LIMMIN
 10
0.0
 20
0.0
  9
$LIMMAX
 10
420.0
 20
297.0
  9
$ORTHOMODE
 70
     0
  9
$REGENMODE
 70
     1
  9
$FILLMODE
 70
     1
  9
$QTEXTMODE
 70
     0
  9
$MIRRTEXT
 70
     1
  9
$LTSCALE
 40
1.0
  9
$ATTMODE
 70
     1
  9
$TEXTSIZE
 40
2.5
  9
$TRACEWID
 40
1.0
  9
$TEXTSTYLE
  7
Standard
  9
$CLAYER
  8
0
  9
$CELTYPE
  6
ByLayer
  9
$CECOLOR
 62
   256
  9
$CELTSCALE
 40
1.0
  9
$DISPSILH
 70
     0
  9
$DIMSCALE
 40
1.0
  9
$DIMASZ
 40
2.5
  9
$DIMEXO
 40
0.625
  9
$DIMDLI
 40
3.75
  9
$DIMRND
 40
0.0
  9
$DIMDLE
 40
0.0
  9
$DIMEXE
 40
1.25
  9
$DIMTP
 40
0.0
  9
$DIMTM
 40
0.0
  9
$DIMTXT
 40
2.5
  9
$DIMCEN
 40
2.5
  9
$DIMTSZ
 40
0.0
  9
$DIMTOL
 70
     0
  9
$DIMLIM
 70
     0
  9
$DIMTIH
 70
     0
  9
$DIMTOH
 70
     0
  9
$DIMSE1
 70
     0
  9
$DIMSE2
 70
     0
  9
$DIMTAD
 70
     1
  9
$DIMZIN
 70
     8
  9
$DIMBLK
  1

  9
$DIMASO
 70
     1
  9
$DIMSHO
 70
     1
  9
$DIMPOST
  1

  9
$DIMAPOST
  1

  9
$DIMALT
 70
     0
  9
$DIMALTD
 70
     3
  9
$DIMALTF
 40
0.03937
  9
$DIMLFAC
 40
1.0
  9
$DIMTOFL
 70
     1
  9
$DIMTVP
 40
0.0
  9
$DIMTIX
 70
     0
  9
$DIMSOXD
 70
     0
  9
$DIMSAH
 70
     0
  9
$DIMBLK1
  1

  9
$DIMBLK2
  1

  9
$DIMSTYLE
  2
ISO-25
  9
$DIMCLRD
 70
     0
  9
$DIMCLRE
 70
     0
  9
$DIMCLRT
 70
     0
  9
$DIMTFAC
 40
1.0
  9
$DIMGAP
 40
0.625
  9
$DIMJUST
 70
     0
  9
$DIMSD1
 70
     0
  9
$DIMSD2
 70
     0
  9
$DIMTOLJ
 70
     0
  9
$DIMTZIN
 70
     8
  9
$DIMALTZ
 70
     0
  9
$DIMALTTZ
 70
     0
  9
$DIMUPT
 70
     0
  9
$DIMDEC
 70
     2
  9
$DIMTDEC
 70
     2
  9
$DIMALTU
 70
     2
  9
$DIMALTTD
 70
     3
  9
$DIMTXSTY
  7
Standard
  9
$DIMAUNIT
 70
     0
  9
$DIMADEC
 70
     0
  9
$DIMALTRND
 40
0.0
  9
$DIMAZIN
 70
     0
  9
$DIMDSEP
 70
    44
  9
$DIMATFIT
 70
     3
  9
$DIMFRAC
 70
     0
  9
$DIMLDRBLK
  1

  9
$DIMLUNIT
 70
     2
  9
$DIMLWD
 70
    -2
  9
$DIMLWE
 70
    -2
  9
$DIMTMOVE
 70
     0
  9
$DIMFXL
 40
1.0
  9
$DIMFXLON
 70
     0
  9
$DIMJOGANG
 40
0.785398
  9
$DIMTFILL
 70
     0
  9
$DIMTFILLCLR
 70
     0
  9
$DIMARCSYM
 70
     0
  9
$DIMLTYPE
  6

  9
$DIMLTEX1
  6

  9
$DIMLTEX2
  6

  9
$DIMTXTDIRECTION
 70
     0
  9
$LUNITS
 70
     2
  9
$LUPREC
 70
     4
  9
$SKETCHINC
 40
1.0
  9
$FILLETRAD
 40
10.0
  9
$AUNITS
 70
     0
  9
$AUPREC
 70
     0
  9
$MENU
  1
.
  9
$ELEVATION
 40
0.0
  9
$PELEVATION
 40
0.0
  9
$THICKNESS
 40
0.0
  9
$LIMCHECK
 70
     0
  9
$CHAMFERA
 40
0.0
  9
$CHAMFERB
 40
0.0
  9
$CHAMFERC
 40
0.0
  9
$CHAMFERD
 40
0.0
  9
$SKPOLY
 70
     0
  9
$TDCREATE
 40
2458614.610812315
  9
$TDUCREATE
 40
2458614.527478981
  9
$TDUPDATE
 40
2458614.610812894
  9
$TDUUPDATE
 40
2458614.52747956
  9
$TDINDWG
 40
0.0000000116
  9
$TDUSRTIMER
 40
0.0000000116
  9
$USRTIMER
 70
     1
  9
$ANGBASE
 50
0.0
  9
$ANGDIR
 70
     0
  9
$PDMODE
 70
     0
  9
$PDSIZE
 40
0.0
  9
$PLINEWID
 40
0.0
  9
$SPLFRAME
 70
     0
  9
$SPLINETYPE
 70
     6
  9
$SPLINESEGS
 70
     8
  9
$HANDSEED
  5
192
  9
$SURFTAB1
 70
     6
  9
$SURFTAB2
 70
     6
  9
$SURFTYPE
 70
     6
  9
$SURFU
 70
     6
  9
$SURFV
 70
     6
  9
$UCSBASE
  2

  9
$UCSNAME
  2

  9
$UCSORG
 10
0.0
 20
0.0
 30
0.0
  9
$UCSXDIR
 10
1.0
 20
0.0
 30
0.0
  9
$UCSYDIR
 10
0.0
 20
1.0
 30
0.0
  9
$UCSORTHOREF
  2

  9
$UCSORTHOVIEW
 70
     0
  9
$UCSORGTOP
 10
0.0
 20
0.0
 30
0.0
  9
$UCSORGBOTTOM
 10
0.0
 20
0.0
 30
0.0
  9
$UCSORGLEFT
 10
0.0
 20
0.0
 30
0.0
  9
$UCSORGRIGHT
 10
0.0
 20
0.0
 30
0.0
  9
$UCSORGFRONT
 10
0.0
 20
0.0
 30
0.0
  9
$UCSORGBACK
 10
0.0
 20
0.0
 30
0.0
  9
$PUCSBASE
  2

  9
$PUCSNAME
  2

  9
$PUCSORG
 10
0.0
 20
0.0
 30
0.0
  9
$PUCSXDIR
 10
1.0
 20
0.0
 30
0.0
  9
$PUCSYDIR
 10
0.0
 20
1.0
 30
0.0
  9
$PUCSORTHOREF
  2

  9
$PUCSORTHOVIEW
 70
     0
  9
$PUCSORGTOP
 10
0.0
 20
0.0
 30
0.0
  9
$PUCSORGBOTTOM
 10
0.0
 20
0.0
 30
0.0
  9
$PUCSORGLEFT
 10
0.0
 20
0.0
 30
0.0
  9
$PUCSORGRIGHT
 10
0.0
 20
0.0
 30
0.0
  9
$PUCSORGFRONT
 10
0.0
 20
0.0
 30
0.0
  9
$PUCSORGBACK
 10
0.0
 20
0.0
 30
0.0
  9
$USERI1
 70
     0
  9
$USERI2
 70
     0
  9
$USERI3
 70
     0
  9
$USERI4
 70
     0
  9
$USERI5
 70
     0
  9
$USERR1
 40
0.0
  9
$USERR2
 40
0.0
  9
$USERR3
 40
0.0
  9
$USERR4
 40
0.0
  9
$USERR5
 40
0.0
  9
$WORLDVIEW
 70
     1
  9
$SHADEDGE
 70
     3
  9
$SHADEDIF
 70
    70
  9
$TILEMODE
 70
     1
  9
$MAXACTVP
 70
    64
  9
$PINSBASE
 10
0.0
 20
0.0
 30
0.0
  9
$PLIMCHECK
 70
     0
  9
$PEXTMIN
 10
1.000000E+20
 20
1.000000E+20
 30
1.000000E+20
  9
$PEXTMAX
 10
-1.000000E+20
 20
-1.000000E+20
 30
-1.000000E+20
  9
$PLIMMIN
 10
0.0
 20
0.0
  9
$PLIMMAX
 10
420.0
 20
297.0
  9
$UNITMODE
 70
     0
  9
$VISRETAIN
 70
     1
  9
$PLINEGEN
 70
     0
  9
$PSLTSCALE
 70
     1
  9
$TREEDEPTH
 70
  3020
  9
$CMLSTYLE
  2
Standard
  9
$CMLJUST
 70
     0
  9
$CMLSCALE
 40
20.0
  9
$PROXYGRAPHICS
 70
     1
  9
$MEASUREMENT
 70
     1
  9
$CELWEIGHT
370
    -1
  9
$ENDCAPS
280
     0
  9
$JOINSTYLE
280
     0
  9
$LWDISPLAY
290
     0
  9
$INSUNITS
 70
     4
  9
$HYPERLINKBASE
  1

  9
$STYLESHEET
  1

  9
$XEDIT
290
     1
  9
$CEPSNTYPE
380
     0
  9
$PSTYLEMODE
290
     1
  9
$FINGERPRINTGUID
  2
{22CF1F59-BAEB-408D-B461-777E69F17DE8}
  9
$VERSIONGUID
  2
{FAEB1C32-E019-11D5-929B-00C0DF256EC4}
  9
$EXTNAMES
290
     1
  9
$PSVPSCALE
 40
0.0
  9
$OLESTARTUP
290
     0
  9
$SORTENTS
280
   127
  9
$INDEXCTL
280
     0
  9
$HIDETEXT
280
     1
  9
$XCLIPFRAME
280
     2
  9
$HALOGAP
280
     0
  9
$OBSCOLOR
 70
   257
  9
$OBSLTYPE
280
     0
  9
$INTERSECTIONDISPLAY
280
     0
  9
$INTERSECTIONCOLOR
 70
   257
  9
$DIMASSOC
280
     2
  9
$PROJECTNAME
  1

  9
$CAMERADISPLAY
290
     0
  9
$LENSLENGTH
 40
50.0
  9
$CAMERAHEIGHT
 40
0.0
  9
$STEPSPERSEC
 40
2.0
  9
$STEPSIZE
 40
6.0
  9
$3DDWFPREC
 40
2.0
  9
$PSOLWIDTH
 40
5.0
  9
$PSOLHEIGHT
 40
80.0
  9
$LOFTANG1
 40
1.570796
  9
$LOFTANG2
 40
1.570796
  9
$LOFTMAG1
 40
0.0
  9
$LOFTMAG2
 40
0.0
  9
$LOFTPARAM
 70
     7
  9
$LOFTNORMALS
280
     1
  9
$LATITUDE
 40
37.795
  9
$LONGITUDE
 40
-122.394
  9
$NORTHDIRECTION
 40
0.0
  9
$TIMEZONE
 70
 -8000
  9
$LIGHTGLYPHDISPLAY
280
     1
  9
$TILEMODELIGHTSYNCH
280
     1
  9
$CMATERIAL
347
44
  9
$SOLIDHIST
280
     0
  9
$SHOWHIST
280
     1
  9
$DWFFRAME
280
     2
  9
$DGNFRAME
280
     2
  9
$REALWORLDSCALE
290
     1
  9
$INTERFERECOLOR
 62
   256
  9
$CSHADOW
280
     0
  9
$SHADOWPLANELOCATION
 40
0.0
  0
ENDSEC
  0
SECTION
  2
CLASSES
  0
CLASS
  1
ACDBDICTIONARYWDFLT
  2
AcDbDictionaryWithDefault
  3
ObjectDBX Classes
 90
        0
 91
        4
280
     0
281
     0
  0
CLASS
  1
VISUALSTYLE
  2
AcDbVisualStyle
  3
ObjectDBX Classes
 90
     4095
 91
        4
280
     0
281
     0
  0
CLASS
  1
MATERIAL
  2
AcDbMaterial
  3
ObjectDBX Classes
 90
     1153
 91
        4
280
     0
281
     0
  0
CLASS
  1
SCALE
  2
AcDbScale
  3
ObjectDBX Classes
 90
     1153
 91
        4
280
     0
281
     0
  0
CLASS
  1
TABLESTYLE
  2
AcDbTableStyle
  3
ObjectDBX Classes
 90
     4095
 91
        4
280
     0
281
     0
  0
CLASS
  1
MLEADERSTYLE
  2
AcDbMLeaderStyle
  3
ACDB_MLEADERSTYLE_CLASS
 90
     4095
 91
        4
280
     0
281
     0
  0
CLASS
  1
SUN
  2
AcDbSun
  3
SCENEOE
 90
     1153
 91
        4
280
     0
281
     0
  0
CLASS
  1
DICTIONARYVAR
  2
AcDbDictionaryVar
  3
ObjectDBX Classes
 90
        0
 91
        4
280
     0
281
     0
  0
CLASS
  1
CELLSTYLEMAP
  2
AcDbCellStyleMap
  3
ObjectDBX Classes
 90
     1152
 91
        4
280
     0
281
     0
  0
ENDSEC
  0
SECTION
  2
TABLES
  0
TABLE
  2
VPORT
  5
8
330
0
100
AcDbSymbolTable
 70
     1
  0
VPORT
  5
29
330
8
100
AcDbSymbolTableRecord
100
AcDbViewportTableRecord
  2
*Active
 70
     0
 10
0.0
 20
0.0
 11
1.0
 21
1.0
 12
344.186916
 22
148.5
 13
0.0
 23
0.0
 14
10.0
 24
10.0
 15
10.0
 25
10.0
 16
0.0
 26
0.0
 36
1.0
 17
0.0
 27
0.0
 37
0.0
 40
297.0
 41
1.972973
 42
50.0
 43
0.0
 44
0.0
 50
0.0
 51
0.0
 71
     0
 72
   100
 73
     1
 74
     3
 75
     0
 76
     0
 77
     0
 78
     0
281
     0
 65
     1
110
0.0
120
0.0
130
0.0
111
1.0
121
0.0
131
0.0
112
0.0
122
1.0
132
0.0
 79
     0
146
0.0
348
2F
 60
     3
 61
     5
292
     1
282
     1
141
0.0
142
0.0
 63
   250
361
6D
  0
ENDTAB
  0
TABLE
  2
LTYPE
  5
5
330
0
100
AcDbSymbolTable
 70
     1
  0
LTYPE
  5
14
330
5
100
AcDbSymbolTableRecord
100
AcDbLinetypeTableRecord
  2
ByBlock
 70
     0
  3

 72
    65
 73
     0
 40
0.0
  0
LTYPE
  5
15
330
5
100
AcDbSymbolTableRecord
100
AcDbLinetypeTableRecord
  2
ByLayer
 70
     0
  3

 72
    65
 73
     0
 40
0.0
  0
LTYPE
  5
16
330
5
100
AcDbSymbolTableRecord
100
AcDbLinetypeTableRecord
  2
Continuous
 70
     0
  3
Solid line
 72
    65
 73
     0
 40
0.0
  0
ENDTAB
  0
TABLE
  2
LAYER
  5
2
330
0
100
AcDbSymbolTable
 70
     1
  0
LAYER
  5
10
330
2
100
AcDbSymbolTableRecord
100
AcDbLayerTableRecord
  2
0
 70
     0
 62
   106
  6
Continuous
370
     0
390
F
347
46
  0
ENDTAB
  0
TABLE
  2
STYLE
  5
3
330
0
100
AcDbSymbolTable
 70
     4
  0
STYLE
  5
11
330
3
100
AcDbSymbolTableRecord
100
AcDbTextStyleTableRecord
  2
Standard
 70
     0
 40
0.0
 41
1.0
 50
0.0
 71
     0
 42
2.5
  3
txt
  4

  0
STYLE
  5
6E
330
3
100
AcDbSymbolTableRecord
100
AcDbTextStyleTableRecord
  2
Default
 70
     0
 40
0.0
 41
1.0
 50
0.0
 71
     0
 42
2.5
  3

  4

1001
ACAD
1000
txt
1071
        0
  0
STYLE
  5
6F
330
3
100
AcDbSymbolTableRecord
100
AcDbTextStyleTableRecord
  2
ISO
 70
     0
 40
0.0
 41
1.0
 50
0.0
 71
     0
 42
2.5
  3

  4

1001
ACAD
1000
txt
1071
        0
  0
STYLE
  5
70
330
3
100
AcDbSymbolTableRecord
100
AcDbTextStyleTableRecord
  2
zucchetti
 70
     0
 40
0.0
 41
1.0
 50
0.0
 71
     0
 42
2.5
  3

  4

1001
ACAD
1000
Arial
1071
        0
  0
ENDTAB
  0
TABLE
  2
VIEW
  5
6
330
0
100
AcDbSymbolTable
 70
     0
  0
ENDTAB
  0
TABLE
  2
UCS
  5
7
330
0
100
AcDbSymbolTable
 70
     0
  0
ENDTAB
  0
TABLE
  2
APPID
  5
9
330
0
100
AcDbSymbolTable
 70
     1
  0
APPID
  5
12
330
9
100
AcDbSymbolTableRecord
100
AcDbRegAppTableRecord
  2
ACAD
 70
     0
  0
ENDTAB
  0
TABLE
  2
DIMSTYLE
  5
A
330
0
100
AcDbSymbolTable
 70
     4
100
AcDbDimStyleTable
  0
DIMSTYLE
105
27
330
A
100
AcDbSymbolTableRecord
100
AcDbDimStyleTableRecord
  2
ISO-25
 70
     0
 41
2.5
 42
0.625
 43
3.75
 44
1.25
 73
     0
 74
     0
 77
     1
 78
     8
140
2.5
141
2.5
143
0.03937
147
0.625
171
     3
172
     1
178
     0
271
     2
272
     2
274
     3
278
    44
283
     0
284
     8
340
11
  0
DIMSTYLE
105
71
330
A
100
AcDbSymbolTableRecord
100
AcDbDimStyleTableRecord
  2
Default
 70
     0
  3
<>
 41
4.375
 42
1.05
 44
2.1
 49
10.01
 73
     0
 74
     0
 77
     1
 78
     8
140
3.5
146
0.4
147
1.75
172
     1
271
     2
178
     3
271
     2
272
     3
284
     8
340
6E
341
72
342
72
  0
DIMSTYLE
105
79
330
A
100
AcDbSymbolTableRecord
100
AcDbDimStyleTableRecord
  2
ISO
 70
     0
  3
<>
 41
4.375
 42
1.05
 44
2.1
 49
10.01
 73
     0
 74
     0
 77
     1
 78
     8
140
3.5
146
0.4
147
1.75
172
     1
271
     2
178
     3
271
     2
272
     3
284
     8
340
6F
341
72
342
72
  0
DIMSTYLE
105
7A
330
A
100
AcDbSymbolTableRecord
100
AcDbDimStyleTableRecord
  2
zucchetti
 70
     0
  3
<>
 41
3.0
 42
0.9
 44
1.8
 49
8.58
 73
     0
 74
     0
 77
     1
 78
     8
140
3.0
146
0.6
147
1.5
172
     1
176
     3
177
     3
271
     2
178
     3
271
     2
272
     2
284
     8
340
70
  0
ENDTAB
  0
TABLE
  2
BLOCK_RECORD
  5
1
330
0
100
AcDbSymbolTable
 70
     6
  0
BLOCK_RECORD
  5
1F
330
1
100
AcDbSymbolTableRecord
100
AcDbBlockTableRecord
  2
*Model_Space
340
22
 70
     0
280
     1
281
     0
  0
BLOCK_RECORD
  5
1B
330
1
100
AcDbSymbolTableRecord
100
AcDbBlockTableRecord
  2
*Paper_Space
340
1E
 70
     0
280
     1
281
     0
  0
BLOCK_RECORD
  5
23
330
1
100
AcDbSymbolTableRecord
100
AcDbBlockTableRecord
  2
*Paper_Space0
340
26
 70
     0
280
     1
281
     0
  0
BLOCK_RECORD
  5
72
330
1
100
AcDbSymbolTableRecord
100
AcDbBlockTableRecord
  2
_CLOSED
340
0
 70
     0
280
     1
281
     0
  0
BLOCK_RECORD
  5
7B
330
1
100
AcDbSymbolTableRecord
100
AcDbBlockTableRecord
  2
a
340
0
102
{BLKREFS
331
A8
102
}
 70
     0
280
     1
281
     0
  0
BLOCK_RECORD
  5
A9
330
1
100
AcDbSymbolTableRecord
100
AcDbBlockTableRecord
  2
b
340
0
102
{BLKREFS
331
DE
102
}
 70
     0
280
     1
281
     0
  0
BLOCK_RECORD
  5
DF
330
1
100
AcDbSymbolTableRecord
100
AcDbBlockTableRecord
  2
c
340
0
102
{BLKREFS
331
11B
102
}
 70
     0
280
     1
281
     0
  0
BLOCK_RECORD
  5
11C
330
1
100
AcDbSymbolTableRecord
100
AcDbBlockTableRecord
  2
d
340
0
102
{BLKREFS
331
158
102
}
 70
     0
280
     1
281
     0
  0
ENDTAB
  0
ENDSEC
  0
SECTION
  2
BLOCKS
  0
BLOCK
  5
20
330
1F
100
AcDbEntity
  8
0
100
AcDbBlockBegin
  2
*Model_Space
 70
     0
 10
0.0
 20
0.0
 30
0.0
  3
*Model_Space
  1

  0
ENDBLK
  5
21
330
1F
100
AcDbEntity
  8
0
100
AcDbBlockEnd
  0
BLOCK
  5
1C
330
1B
100
AcDbEntity
 67
     1
  8
0
100
AcDbBlockBegin
  2
*Paper_Space
 70
     0
 10
0.0
 20
0.0
 30
0.0
  3
*Paper_Space
  1

  0
ENDBLK
  5
1D
330
1B
100
AcDbEntity
 67
     1
  8
0
100
AcDbBlockEnd
  0
BLOCK
  5
24
330
23
100
AcDbEntity
  8
0
100
AcDbBlockBegin
  2
*Paper_Space0
 70
     0
 10
0.0
 20
0.0
 30
0.0
  3
*Paper_Space0
  1

  0
ENDBLK
  5
25
330
23
100
AcDbEntity
  8
0
100
AcDbBlockEnd
  0
BLOCK
  5
73
330
72
100
AcDbEntity
  8
0
100
AcDbBlockBegin
  2
_CLOSED
 70
     0
 10
0.0
 20
0.0
 30
0.0
  3
_CLOSED
  1

  0
LINE
  5
75
330
72
100
AcDbEntity
  8
0
  6
ByBlock
 62
     0
370
    -2
100
AcDbLine
 10
-1.0
 20
0.166667
 30
0.0
 11
0.0
 21
0.0
 31
0.0
  0
LINE
  5
76
330
72
100
AcDbEntity
  8
0
  6
ByBlock
 62
     0
370
    -2
100
AcDbLine
 10
0.0
 20
0.0
 30
0.0
 11
-1.0
 21
-0.166667
 31
0.0
  0
LINE
  5
77
330
72
100
AcDbEntity
  8
0
  6
ByBlock
 62
     0
370
    -2
100
AcDbLine
 10
-1.0
 20
0.166667
 30
0.0
 11
-1.0
 21
-0.166667
 31
0.0
  0
LINE
  5
78
330
72
100
AcDbEntity
  8
0
  6
ByBlock
 62
     0
370
    -2
100
AcDbLine
 10
0.0
 20
0.0
 30
0.0
 11
-1.0
 21
0.0
 31
0.0
  0
ENDBLK
  5
74
330
72
100
AcDbEntity
  8
0
100
AcDbBlockEnd
  0
BLOCK
  5
A6
330
7B
100
AcDbEntity
  8
0
100
AcDbBlockBegin
  2
a
 70
     0
 10
126.623024
 20
298.831207
 30
0.0
  3
a
  1

  0
ARC
  5
7C
330
7B
100
AcDbEntity
  8
0
  6
Continuous
 62
     0
370
    30
100
AcDbCircle
 10
189.024979
 20
361.233162
 30
0.0
 40
59.99987928696679
100
AcDbArc
 50
0.0
 51
180.0
  0
ARC
  5
7D
330
7B
100
AcDbEntity
  8
0
  6
Continuous
 62
     0
370
    30
100
AcDbCircle
 10
189.024979
 20
361.233162
 30
0.0
 40
59.99987928696679
100
AcDbArc
 50
180.0
 51
0.0
  0
ARC
  5
7E
330
7B
100
AcDbEntity
  8
0
  6
Continuous
 62
     0
370
    30
100
AcDbCircle
 10
189.024979
 20
361.233162
 30
0.0
 40
22.25000000097141
100
AcDbArc
 50
143.048947
 51
179.878464
  0
ARC
  5
7F
330
7B
100
AcDbEntity
  8
0
  6
Continuous
 62
     0
370
    30
100
AcDbCircle
 10
189.024979
 20
361.233162
 30
0.0
 40
22.25000000097147
100
AcDbArc
 50
0.121536
 51
36.92914
  0
ARC
  5
80
330
7B
100
AcDbEntity
  8
0
  6
Continuous
 62
     0
370
    30
100
AcDbCircle
 10
189.024979
 20
361.233162
 30
0.0
 40
22.25000000097437
100
AcDbArc
 50
350.123662
 51
359.630641
  0
ARC
  5
81
330
7B
100
AcDbEntity
  8
0
  6
Continuous
 62
     0
370
    30
100
AcDbCircle
 10
189.024979
 20
361.233162
 30
0.0
 40
22.25000000097159
100
AcDbArc
 50
180.369359
 51
189.87633
  0
LWPOLYLINE
  5
82
330
7B
100
AcDbEntity
  8
0
  6
Continuous
 62
     0
370
     0
100
AcDbPolyline
 90
       24
 70
     0
 43
0.0
 10
178.268936
 20
380.882294
 10
178.275574
 20
380.884247
 10
178.284897
 20
380.881622
 10
178.298981
 20
380.870789
 10
178.321701
 20
380.844879
 10
178.359894
 20
380.791626
 10
178.425095
 20
380.690094
 10
178.52739
 20
380.520264
 10
178.657074
 20
380.296722
 10
178.797318
 20
380.049683
 10
178.94046
 20
379.79422
 10
179.084106
 20
379.535522
 10
179.2276
 20
379.275238
 10
179.371643
 20
379.014618
 10
179.517517
 20
378.7547
 10
179.666412
 20
378.496338
 10
179.819458
 20
378.240356
 10
179.977493
 20
377.987396
 10
180.140686
 20
377.737793
 10
180.309219
 20
377.491852
 10
180.48291
 20
377.249634
 10
180.661469
 20
377.010956
 10
180.84523
 20
376.776398
 10
181.039902
 20
376.544952
  0
LWPOLYLINE
  5
83
330
7B
100
AcDbEntity
  8
0
  6
Continuous
 62
     0
370
     0
100
AcDbPolyline
 90
       15
 70
     0
 43
0.0
 10
181.039902
 20
376.544952
 10
182.151077
 20
376.866272
 10
183.272919
 20
377.149689
 10
184.403778
 20
377.396973
 10
185.543716
 20
377.601898
 10
186.692215
 20
377.758423
 10
187.847839
 20
377.859772
 10
189.00795
 20
377.896667
 10
190.168137
 20
377.861816
 10
191.323944
 20
377.762238
 10
192.472672
 20
377.607208
 10
193.612869
 20
377.403625
 10
194.743988
 20
377.157471
 10
195.865997
 20
376.874695
 10
197.010056
 20
376.544952
  0
LWPOLYLINE
  5
84
330
7B
100
AcDbEntity
  8
0
  6
Continuous
 62
     0
370
     0
100
AcDbPolyline
 90
       24
 70
     0
 43
0.0
 10
197.010056
 20
376.544952
 10
197.201202
 20
376.773254
 10
197.385101
 20
377.007843
 10
197.564163
 20
377.246277
 10
197.738205
 20
377.488403
 10
197.906921
 20
377.734283
 10
198.070221
 20
377.983826
 10
198.228271
 20
378.236725
 10
198.381363
 20
378.492645
 10
198.530304
 20
378.750946
 10
198.676208
 20
379.010834
 10
198.820267
 20
379.271423
 10
198.963745
 20
379.531708
 10
199.107391
 20
379.790436
 10
199.250534
 20
380.045929
 10
199.390839
 20
380.293152
 10
199.520798
 20
380.517273
 10
199.623611
 20
380.68808
 10
199.689316
 20
380.790527
 10
199.727829
 20
380.844299
 10
199.750717
 20
380.870544
 10
199.764893
 20
380.881531
 10
199.774261
 20
380.884247
 10
199.781021
 20
380.882294
  0
LWPOLYLINE
  5
85
330
7B
100
AcDbEntity
  8
0
  6
Continuous
 62
     0
370
     0
100
AcDbPolyline
 90
       16
 70
     0
 43
0.0
 10
210.943329
 20
357.412933
 10
210.985504
 20
358.58963
 10
210.996017
 20
359.767273
 10
210.974991
 20
360.944794
 10
210.920868
 20
362.121124
 10
210.830704
 20
363.295258
 10
210.700729
 20
364.465759
 10
210.525604
 20
365.630341
 10
210.299881
 20
366.786316
 10
210.018723
 20
367.930023
 10
209.67778
 20
369.057465
 10
209.274155
 20
370.164001
 10
208.806
 20
371.244904
 10
208.274094
 20
372.295868
 10
207.680344
 20
373.31308
 10
206.985931
 20
374.354584
  0
LWPOLYLINE
  5
86
330
7B
100
AcDbEntity
  8
0
  6
Continuous
 62
     0
370
     0
100
AcDbPolyline
 90
       26
 70
     0
 43
0.0
 10
199.790131
 20
380.874542
 10
200.779816
 20
380.28302
 10
201.737
 20
379.636993
 10
202.659714
 20
378.940094
 10
203.544754
 20
378.196472
 10
204.389114
 20
377.409821
 10
205.191162
 20
376.581848
 10
205.949524
 20
375.713348
 10
206.66098
 20
374.805634
 10
207.32135
 20
373.860016
 10
207.924622
 20
372.877228
 10
208.464478
 20
371.858063
 10
208.936569
 20
370.805817
 10
209.338898
 20
369.725037
 10
209.675278
 20
368.621887
 10
209.95163
 20
367.50238
 10
210.176193
 20
366.371277
 10
210.357361
 20
365.232635
 10
210.502853
 20
364.088806
 10
210.619949
 20
362.941864
 10
210.71376
 20
361.792786
 10
210.788544
 20
360.642303
 10
210.847641
 20
359.490967
 10
210.892776
 20
358.33902
 10
210.925461
 20
357.186615
 10
210.947098
 20
356.00882
  0
LWPOLYLINE
  5
87
330
7B
100
AcDbEntity
  8
0
  6
Continuous
 62
     0
370
     0
100
AcDbPolyline
 90
       27
 70
     0
 43
0.0
 10
197.010056
 20
376.544952
 10
197.674362
 20
375.635986
 10
198.302399
 20
374.701233
 10
198.90004
 20
373.746918
 10
199.46759
 20
372.774536
 10
200.006393
 20
371.785889
 10
200.516846
 20
370.782471
 10
200.990082
 20
369.760895
 10
201.407898
 20
368.715668
 10
201.755081
 20
367.644653
 10
202.031372
 20
366.553192
 10
202.245651
 20
365.447754
 10
202.409256
 20
364.33374
 10
202.532684
 20
363.214478
 10
202.625259
 20
362.092346
 10
202.694534
 20
360.968475
 10
202.747299
 20
359.84375
 10
202.78717
 20
358.718536
 10
202.816727
 20
357.593018
 10
202.838135
 20
356.467316
 10
202.852676
 20
355.341522
 10
202.861435
 20
354.215668
 10
202.865417
 20
353.089783
 10
202.865341
 20
351.963928
 10
202.861908
 20
350.838135
 10
202.85585
 20
349.712433
 10
202.848083
 20
348.560974
  0
LWPOLYLINE
  5
88
330
7B
100
AcDbEntity
  8
0
  6
Continuous
 62
     0
370
     0
100
AcDbPolyline
 90
       31
 70
     0
 43
0.0
 10
202.848083
 20
348.560974
 10
203.150177
 20
348.560669
 10
203.452255
 20
348.560425
 10
203.754349
 20
348.56015
 10
204.056427
 20
348.559875
 10
204.358505
 20
348.559631
 10
204.660568
 20
348.559387
 10
204.962631
 20
348.559174
 10
205.264679
 20
348.558929
 10
205.566727
 20
348.558716
 10
205.868774
 20
348.558502
 10
206.170807
 20
348.558289
 10
206.472839
 20
348.558105
 10
206.774841
 20
348.557892
 10
207.076828
 20
348.557709
 10
207.378754
 20
348.557526
 10
207.680588
 20
348.557312
 10
207.98233
 20
348.557098
 10
208.283936
 20
348.556885
 10
208.585388
 20
348.55661
 10
208.886658
 20
348.556305
 10
209.187576
 20
348.555908
 10
209.487961
 20
348.555298
 10
209.786957
 20
348.554077
 10
210.082779
 20
348.551392
 10
210.369644
 20
348.545502
 10
210.625519
 20
348.532471
 10
210.812698
 20
348.509979
 10
210.920914
 20
348.473541
 10
210.972321
 20
348.412598
 10
210.986298
 20
348.324066
  0
LWPOLYLINE
  5
89
330
7B
100
AcDbEntity
  8
0
  6
Continuous
 62
     0
370
     0
100
AcDbPolyline
 90
        8
 70
     0
 43
0.0
 10
178.364746
 20
308.080444
 10
181.39653
 20
308.027283
 10
184.430542
 20
308.002655
 10
187.465927
 20
307.993408
 10
190.501862
 20
307.993286
 10
193.537277
 20
308.002228
 10
196.571335
 20
308.026367
 10
199.685211
 20
308.080444
  0
LWPOLYLINE
  5
8A
330
7B
100
AcDbEntity
  8
0
  6
Continuous
 62
     0
370
     0
100
AcDbPolyline
 90
       78
 70
     0
 43
0.0
 10
199.685211
 20
308.080444
 10
200.133896
 20
308.386261
 10
200.536667
 20
308.747162
 10
200.884781
 20
309.157959
 10
201.166245
 20
309.61441
 10
201.38353
 20
310.102814
 10
201.551437
 20
310.609192
 10
201.683304
 20
311.125488
 10
201.789124
 20
311.6474
 10
201.876221
 20
312.172485
 10
201.949188
 20
312.699585
 10
202.011261
 20
313.227966
 10
202.06424
 20
313.757294
 10
202.10968
 20
314.287354
 10
202.149139
 20
314.817902
 10
202.184113
 20
315.348694
 10
202.215454
 20
315.879639
 10
202.243607
 20
316.410736
 10
202.268997
 20
316.941925
 10
202.292068
 20
317.473206
 10
202.313278
 20
318.004578
 10
202.333023
 20
318.53598
 10
202.351501
 20
319.067444
 10
202.368881
 20
319.598938
 10
202.385269
 20
320.130463
 10
202.400848
 20
320.662018
 10
202.415726
 20
321.193604
 10
202.430054
 20
321.725189
 10
202.443985
 20
322.256805
 10
202.457565
 20
322.788422
 10
202.47084
 20
323.320068
 10
202.483795
 20
323.851715
 10
202.496445
 20
324.383392
 10
202.508804
 20
324.9151
 10
202.520874
 20
325.446838
 10
202.532684
 20
325.978607
 10
202.544235
 20
326.510437
 10
202.555527
 20
327.042328
 10
202.566574
 20
327.574249
 10
202.577377
 20
328.106232
 10
202.587967
 20
328.638306
 10
202.598328
 20
329.17041
 10
202.608459
 20
329.702606
 10
202.618378
 20
330.234894
 10
202.628098
 20
330.767242
 10
202.637619
 20
331.299683
 10
202.646942
 20
331.832214
 10
202.656082
 20
332.364838
 10
202.665024
 20
332.897583
 10
202.673798
 20
333.43045
 10
202.682373
 20
333.96344
 10
202.690796
 20
334.496613
 10
202.69902
 20
335.029938
 10
202.707092
 20
335.563477
 10
202.714996
 20
336.097198
 10
202.722733
 20
336.631134
 10
202.730316
 20
337.165314
 10
202.737747
 20
337.699768
 10
202.745026
 20
338.234589
 10
202.752151
 20
338.769775
 10
202.75914
 20
339.30545
 10
202.765961
 20
339.841766
 10
202.772614
 20
340.378906
 10
202.779083
 20
340.916962
 10
202.785355
 20
341.456055
 10
202.791443
 20
341.996307
 10
202.797287
 20
342.537781
 10
202.802917
 20
343.080627
 10
202.808304
 20
343.624817
 10
202.813446
 20
344.170288
 10
202.818359
 20
344.716888
 10
202.823059
 20
345.264404
 10
202.82756
 20
345.812653
 10
202.831894
 20
346.36145
 10
202.83609
 20
346.910645
 10
202.840164
 20
347.460083
 10
202.844162
 20
348.009644
 10
202.848083
 20
348.560974
  0
LWPOLYLINE
  5
8B
330
7B
100
AcDbEntity
  8
0
  6
Continuous
 62
     0
370
     0
100
AcDbPolyline
 90
       27
 70
     0
 43
0.0
 10
181.039902
 20
376.544952
 10
180.376266
 20
375.635498
 10
179.747665
 20
374.701141
 10
179.149841
 20
373.746979
 10
178.582382
 20
372.774506
 10
178.043564
 20
371.785889
 10
177.533112
 20
370.782471
 10
177.059875
 20
369.760895
 10
176.642059
 20
368.715637
 10
176.294861
 20
367.644623
 10
176.018585
 20
366.553192
 10
175.804306
 20
365.447754
 10
175.640701
 20
364.33374
 10
175.517273
 20
363.214478
 10
175.424698
 20
362.092346
 10
175.355423
 20
360.968475
 10
175.302658
 20
359.84375
 10
175.262787
 20
358.718536
 10
175.233231
 20
357.592987
 10
175.211823
 20
356.467316
 10
175.197281
 20
355.341492
 10
175.188522
 20
354.215637
 10
175.18454
 20
353.089752
 10
175.184616
 20
351.963898
 10
175.188049
 20
350.838104
 10
175.194107
 20
349.712402
 10
175.201874
 20
348.560974
  0
LWPOLYLINE
  5
8C
330
7B
100
AcDbEntity
  8
0
  6
Continuous
 62
     0
370
     0
100
AcDbPolyline
 90
       78
 70
     0
 43
0.0
 10
175.201874
 20
348.560974
 10
175.205795
 20
348.011353
 10
175.209778
 20
347.461792
 10
175.213852
 20
346.912354
 10
175.218048
 20
346.36319
 10
175.222382
 20
345.814423
 10
175.226883
 20
345.266174
 10
175.231583
 20
344.718658
 10
175.236496
 20
344.172089
 10
175.241638
 20
343.626617
 10
175.247025
 20
343.082428
 10
175.25264
 20
342.539612
 10
175.258499
 20
341.998138
 10
175.264572
 20
341.457886
 10
175.270859
 20
340.918793
 10
175.277328
 20
340.380737
 10
175.283981
 20
339.843628
 10
175.290802
 20
339.307312
 10
175.297775
 20
338.771637
 10
175.304901
 20
338.236481
 10
175.31218
 20
337.701691
 10
175.319611
 20
337.167236
 10
175.327194
 20
336.633057
 10
175.33493
 20
336.099121
 10
175.342834
 20
335.56543
 10
175.350906
 20
335.031921
 10
175.359131
 20
334.498596
 10
175.367554
 20
333.965424
 10
175.376129
 20
333.432434
 10
175.384903
 20
332.899597
 10
175.393845
 20
332.366852
 10
175.402985
 20
331.834259
 10
175.412308
 20
331.301727
 10
175.421814
 20
330.769287
 10
175.431534
 20
330.236969
 10
175.441467
 20
329.704712
 10
175.451599
 20
329.172516
 10
175.461945
 20
328.640411
 10
175.472534
 20
328.108368
 10
175.483337
 20
327.576385
 10
175.494385
 20
327.044464
 10
175.505676
 20
326.512604
 10
175.517227
 20
325.980774
 10
175.529022
 20
325.449005
 10
175.541107
 20
324.917267
 10
175.553467
 20
324.38559
 10
175.566116
 20
323.853912
 10
175.579071
 20
323.322296
 10
175.592331
 20
322.79068
 10
175.605911
 20
322.259064
 10
175.619843
 20
321.727478
 10
175.634171
 20
321.195892
 10
175.649048
 20
320.664307
 10
175.664612
 20
320.132782
 10
175.681
 20
319.601257
 10
175.698364
 20
319.069763
 10
175.716843
 20
318.53833
 10
175.736588
 20
318.006927
 10
175.757782
 20
317.475586
 10
175.780853
 20
316.944305
 10
175.806229
 20
316.413116
 10
175.834366
 20
315.88205
 10
175.865692
 20
315.351105
 10
175.90065
 20
314.820343
 10
175.940079
 20
314.289795
 10
175.985489
 20
313.759735
 10
176.038437
 20
313.230408
 10
176.100464
 20
312.702057
 10
176.173355
 20
312.174957
 10
176.260376
 20
311.649872
 10
176.366089
 20
311.12796
 10
176.497818
 20
310.611633
 10
176.665512
 20
310.105225
 10
176.882523
 20
309.616699
 10
177.163666
 20
309.160065
 10
177.511353
 20
308.748932
 10
177.913574
 20
308.387512
 10
178.364746
 20
308.080444
  0
LWPOLYLINE
  5
8D
330
7B
100
AcDbEntity
  8
0
  6
Continuous
 62
     0
370
     0
100
AcDbPolyline
 90
       20
 70
     0
 43
0.0
 10
199.685211
 20
308.080444
 10
199.968872
 20
307.930359
 10
200.244354
 20
307.765442
 10
200.51326
 20
307.590149
 10
200.774933
 20
307.40451
 10
201.027939
 20
307.207123
 10
201.27066
 20
306.997101
 10
201.501343
 20
306.774109
 10
201.719864
 20
306.539062
 10
201.928787
 20
306.29483
 10
202.131195
 20
306.045319
 10
202.330368
 20
305.794739
 10
202.527405
 20
305.541321
 10
202.712509
 20
305.292572
 10
202.863968
 20
305.071533
 10
202.965515
 20
304.900055
 10
203.023697
 20
304.777039
 10
203.052704
 20
304.689026
 10
203.058258
 20
304.630554
 10
203.040024
 20
304.60318
  0
LWPOLYLINE
  5
8E
330
7B
100
AcDbEntity
  8
0
  6
Continuous
 62
     0
370
     0
100
AcDbPolyline
 90
       20
 70
     0
 43
0.0
 10
178.364746
 20
308.080444
 10
178.081223
 20
307.929993
 10
177.805786
 20
307.764954
 10
177.536758
 20
307.589813
 10
177.274918
 20
307.404327
 10
177.02182
 20
307.207001
 10
176.779068
 20
306.996948
 10
176.548401
 20
306.773895
 10
176.329865
 20
306.538788
 10
176.120926
 20
306.294525
 10
175.918503
 20
306.044983
 10
175.719299
 20
305.794403
 10
175.522247
 20
305.540924
 10
175.337158
 20
305.292175
 10
175.185745
 20
305.071198
 10
175.08429
 20
304.89978
 10
175.026184
 20
304.776825
 10
174.997208
 20
304.688873
 10
174.991714
 20
304.630463
 10
175.009995
 20
304.603149
  0
LWPOLYLINE
  5
8F
330
7B
100
AcDbEntity
  8
0
  6
Continuous
 62
     0
370
     0
100
AcDbPolyline
 90
       26
 70
     0
 43
0.0
 10
167.103241
 20
356.036682
 10
167.124527
 20
357.188141
 10
167.157196
 20
358.339355
 10
167.202286
 20
359.490173
 10
167.261292
 20
360.64035
 10
167.335968
 20
361.789642
 10
167.429626
 20
362.937561
 10
167.546494
 20
364.083374
 10
167.691666
 20
365.226044
 10
167.872391
 20
366.363586
 10
168.09639
 20
367.493591
 10
168.372009
 20
368.612091
 10
168.707443
 20
369.714294
 10
169.108673
 20
370.79425
 10
169.579498
 20
371.845795
 10
170.117981
 20
372.864349
 10
170.719833
 20
373.846649
 10
171.378754
 20
374.79184
 10
172.08876
 20
375.699219
 10
172.845612
 20
376.567505
 10
173.646088
 20
377.395355
 10
174.488831
 20
378.181976
 10
175.372208
 20
378.92572
 10
176.293259
 20
379.622894
 10
177.248764
 20
380.269379
 10
178.259827
 20
380.874542
  0
LWPOLYLINE
  5
90
330
7B
100
AcDbEntity
  8
0
  6
Continuous
 62
     0
370
     0
100
AcDbPolyline
 90
       16
 70
     0
 43
0.0
 10
170.948776
 20
374.190857
 10
170.310562
 20
373.217834
 10
169.72934
 20
372.2099
 10
169.208679
 20
371.169281
 10
168.750351
 20
370.099731
 10
168.35495
 20
369.005432
 10
168.020599
 20
367.890961
 10
167.744476
 20
366.760742
 10
167.522339
 20
365.618652
 10
167.349533
 20
364.468201
 10
167.220825
 20
363.311951
 10
167.130997
 20
362.15213
 10
167.076416
 20
360.990143
 10
167.054245
 20
359.826965
 10
167.062851
 20
358.663574
 10
167.106598
 20
357.413727
  0
LWPOLYLINE
  5
91
330
7B
100
AcDbEntity
  8
0
  6
Continuous
 62
     0
370
     0
100
AcDbPolyline
 90
       31
 70
     0
 43
0.0
 10
167.06366
 20
348.323975
 10
167.077438
 20
348.412109
 10
167.128525
 20
348.473206
 10
167.236298
 20
348.509796
 10
167.422913
 20
348.532349
 10
167.678467
 20
348.545441
 10
167.96524
 20
348.551361
 10
168.261047
 20
348.554047
 10
168.560043
 20
348.555298
 10
168.860428
 20
348.555908
 10
169.161362
 20
348.556305
 10
169.462631
 20
348.55661
 10
169.764099
 20
348.556885
 10
170.06572
 20
348.557098
 10
170.367462
 20
348.557312
 10
170.669312
 20
348.557526
 10
170.971237
 20
348.557709
 10
171.273239
 20
348.557892
 10
171.575256
 20
348.558105
 10
171.877304
 20
348.558289
 10
172.179337
 20
348.558502
 10
172.4814
 20
348.558716
 10
172.783447
 20
348.558929
 10
173.085526
 20
348.559174
 10
173.387589
 20
348.559387
 10
173.689667
 20
348.559631
 10
173.99176
 20
348.559875
 10
174.293839
 20
348.56015
 10
174.595947
 20
348.560425
 10
174.898041
 20
348.560669
 10
175.201874
 20
348.560974
  0
LWPOLYLINE
  5
92
330
7B
100
AcDbEntity
  8
0
  6
Continuous
 62
     0
370
    30
100
AcDbPolyline
 90
        4
 70
     0
 43
0.0
 10
167.096436
 20
357.48587
 10
166.919586
 20
358.719025
 10
166.812027
 20
359.959991
 10
166.775101
 20
361.280365
  0
LWPOLYLINE
  5
93
330
7B
100
AcDbEntity
  8
0
  6
Continuous
 62
     0
370
    30
100
AcDbPolyline
 90
        4
 70
     0
 43
0.0
 10
211.274857
 20
361.280365
 10
211.242233
 20
360.036316
 10
211.138977
 20
358.794891
 10
210.953476
 20
357.485596
  0
LWPOLYLINE
  5
94
330
7B
100
AcDbEntity
  8
0
  6
Continuous
 62
     0
370
    30
100
AcDbPolyline
 90
       12
 70
     0
 43
0.0
 10
171.212708
 20
374.565216
 10
170.464462
 20
373.490601
 10
169.784302
 20
372.377319
 10
169.174026
 20
371.229248
 10
168.633926
 20
370.050842
 10
168.163544
 20
368.846771
 10
167.761703
 20
367.621674
 10
167.427414
 20
366.378632
 10
167.159943
 20
365.119781
 10
166.96048
 20
363.849091
 10
166.831146
 20
362.571533
 10
166.775024
 20
361.280365
  0
LWPOLYLINE
  5
95
330
7B
100
AcDbEntity
  8
0
  6
Continuous
 62
     0
370
    30
100
AcDbPolyline
 90
       12
 70
     0
 43
0.0
 10
211.274933
 20
361.280365
 10
211.219666
 20
362.559753
 10
211.091125
 20
363.836334
 10
210.892532
 20
365.10614
 10
210.626022
 20
366.364166
 10
210.292786
 20
367.606415
 10
209.892151
 20
368.83075
 10
209.42308
 20
370.03421
 10
208.884415
 20
371.212067
 10
208.275681
 20
372.359711
 10
207.597168
 20
373.472687
 10
206.843491
 20
374.556793
  0
LWPOLYLINE
  5
96
330
7B
100
AcDbEntity
  8
0
  6
Continuous
 62
     0
370
    30
100
AcDbPolyline
 90
        6
 70
     0
 43
0.0
 10
210.941956
 20
357.379456
 10
210.944183
 20
357.405792
 10
210.946701
 20
357.430969
 10
210.949265
 20
357.452759
 10
210.951492
 20
357.46936
 10
210.95401
 20
357.485504
  0
LWPOLYLINE
  5
97
330
7B
100
AcDbEntity
  8
0
  6
Continuous
 62
     0
370
    30
100
AcDbPolyline
 90
        6
 70
     0
 43
0.0
 10
167.095901
 20
357.485779
 10
167.098312
 20
357.470428
 10
167.100464
 20
357.45462
 10
167.102966
 20
357.433502
 10
167.105484
 20
357.408844
 10
167.108002
 20
357.379333
  0
LWPOLYLINE
  5
98
330
7B
100
AcDbEntity
  8
0
  6
Continuous
 62
     0
370
    30
100
AcDbPolyline
 90
       70
 70
     0
 43
0.0
 10
175.009628
 20
304.603119
 10
174.352707
 20
304.815491
 10
173.707489
 20
305.060028
 10
173.079208
 20
305.344055
 10
172.475739
 20
305.675232
 10
171.906677
 20
306.060516
 10
171.384216
 20
306.503815
 10
170.9189
 20
307.00354
 10
170.514587
 20
307.550934
 10
170.170731
 20
308.135406
 10
169.879089
 20
308.745483
 10
169.629395
 20
309.372131
 10
169.411774
 20
310.009796
 10
169.219223
 20
310.654755
 10
169.048187
 20
311.305328
 10
168.895477
 20
311.960114
 10
168.758255
 20
312.618011
 10
168.634338
 20
313.278351
 10
168.522186
 20
313.940643
 10
168.420288
 20
314.604492
 10
168.327164
 20
315.269409
 10
168.241837
 20
315.935242
 10
168.163513
 20
316.601807
 10
168.0914
 20
317.268951
 10
168.024734
 20
317.936554
 10
167.962936
 20
318.604523
 10
167.905594
 20
319.272766
 10
167.85228
 20
319.941284
 10
167.802582
 20
320.610016
 10
167.756073
 20
321.2789
 10
167.712448
 20
321.947876
 10
167.671463
 20
322.616974
 10
167.632935
 20
323.286194
 10
167.596634
 20
323.955536
 10
167.562393
 20
324.625
 10
167.53006
 20
325.294586
 10
167.499466
 20
325.964325
 10
167.470459
 20
326.634186
 10
167.442947
 20
327.30423
 10
167.41684
 20
327.974396
 10
167.39209
 20
328.644775
 10
167.368652
 20
329.315308
 10
167.346436
 20
329.986053
 10
167.325378
 20
330.657013
 10
167.305405
 20
331.328186
 10
167.286469
 20
331.999603
 10
167.268555
 20
332.671265
 10
167.251572
 20
333.343201
 10
167.235519
 20
334.015472
 10
167.220322
 20
334.688049
 10
167.205933
 20
335.361023
 10
167.192276
 20
336.034454
 10
167.179276
 20
336.708405
 10
167.16684
 20
337.383026
 10
167.154877
 20
338.05838
 10
167.143433
 20
338.734589
 10
167.132538
 20
339.411743
 10
167.122253
 20
340.089996
 10
167.112656
 20
340.76947
 10
167.10379
 20
341.450287
 10
167.095734
 20
342.132538
 10
167.088531
 20
342.816315
 10
167.082306
 20
343.501587
 10
167.077148
 20
344.18811
 10
167.073013
 20
344.875763
 10
167.069824
 20
345.564301
 10
167.067459
 20
346.253571
 10
167.065735
 20
346.943298
 10
167.064529
 20
347.633331
 10
167.063675
 20
348.323975
  0
LWPOLYLINE
  5
99
330
7B
100
AcDbEntity
  8
0
  6
Continuous
 62
     0
370
    30
100
AcDbPolyline
 90
       12
 70
     0
 43
0.0
 10
167.063705
 20
348.333069
 10
167.063065
 20
349.04538
 10
167.062866
 20
349.757568
 10
167.063339
 20
350.469421
 10
167.064636
 20
351.180695
 10
167.066864
 20
351.890869
 10
167.070099
 20
352.599274
 10
167.074417
 20
353.305328
 10
167.079926
 20
354.006897
 10
167.086685
 20
354.701538
 10
167.09462
 20
355.37796
 10
167.103394
 20
356.036652
  0
LWPOLYLINE
  5
9A
330
7B
100
AcDbEntity
  8
0
  6
Continuous
 62
     0
370
    30
100
AcDbPolyline
 90
       16
 70
     0
 43
0.0
 10
178.268936
 20
380.882294
 10
177.761398
 20
380.588562
 10
177.262268
 20
380.280396
 10
176.771866
 20
379.958344
 10
176.290466
 20
379.622955
 10
175.81839
 20
379.274719
 10
175.35585
 20
378.914124
 10
174.902969
 20
378.541565
 10
174.459946
 20
378.157379
 10
174.02713
 20
377.761841
 10
173.604843
 20
377.355255
 10
173.193283
 20
376.937897
 10
172.792892
 20
376.510193
 10
172.404129
 20
376.072418
 10
172.02803
 20
375.625549
 10
171.669571
 20
375.175903
  0
LWPOLYLINE
  5
9B
330
7B
100
AcDbEntity
  8
0
  6
Continuous
 62
     0
370
    30
100
AcDbPolyline
 90
       13
 70
     0
 43
0.0
 10
167.104935
 20
356.156311
 10
167.107956
 20
356.410522
 10
167.109848
 20
356.605316
 10
167.11084
 20
356.741058
 10
167.11116
 20
356.816956
 10
167.111206
 20
356.888458
 10
167.111038
 20
356.972351
 10
167.11058
 20
357.073151
 10
167.109818
 20
357.19043
 10
167.108948
 20
357.294464
 10
167.108215
 20
357.362823
 10
167.107697
 20
357.400696
 10
167.107483
 20
357.413757
  0
LWPOLYLINE
  5
9C
330
7B
100
AcDbEntity
  8
0
  6
Continuous
 62
     0
370
    30
100
AcDbPolyline
 90
        2
 70
     0
 43
0.0
 10
170.312408
 20
373.208191
 10
170.320114
 20
373.220856
  0
LWPOLYLINE
  5
9D
330
7B
100
AcDbEntity
  8
0
  6
Continuous
 62
     0
370
    30
100
AcDbPolyline
 90
       23
 70
     0
 43
0.0
 10
171.666962
 20
375.172455
 10
171.615875
 20
375.106323
 10
171.563995
 20
375.038574
 10
171.512268
 20
374.97052
 10
171.460403
 20
374.901733
 10
171.409637
 20
374.833862
 10
171.355927
 20
374.761444
 10
171.302429
 20
374.68869
 10
171.24556
 20
374.610657
 10
171.188324
 20
374.531311
 10
171.125595
 20
374.443542
 10
171.064713
 20
374.357452
 10
170.999237
 20
374.263763
 10
170.931564
 20
374.165802
 10
170.859695
 20
374.060486
 10
170.783951
 20
373.947906
 10
170.706161
 20
373.830627
 10
170.624023
 20
373.704865
 10
170.538483
 20
373.571686
 10
170.454025
 20
373.437927
 10
170.378616
 20
373.316437
 10
170.328857
 20
373.235229
 10
170.312408
 20
373.208191
  0
LWPOLYLINE
  5
9E
330
7B
100
AcDbEntity
  8
0
  6
Continuous
 62
     0
370
    30
100
AcDbPolyline
 90
       22
 70
     0
 43
0.0
 10
203.040115
 20
304.602875
 10
201.739807
 20
304.26004
 10
200.422592
 20
303.985687
 10
199.095505
 20
303.76181
 10
197.76178
 20
303.578796
 10
196.423523
 20
303.429932
 10
195.082291
 20
303.310242
 10
193.738846
 20
303.217163
 10
192.393814
 20
303.148865
 10
191.047745
 20
303.103943
 10
189.701096
 20
303.081512
 10
188.354202
 20
303.081146
 10
187.007507
 20
303.103149
 10
185.661453
 20
303.148193
 10
184.316467
 20
303.216949
 10
182.973022
 20
303.310089
 10
181.63176
 20
303.429474
 10
180.293579
 20
303.578369
 10
178.959885
 20
303.761353
 10
177.632614
 20
303.98465
 10
176.315369
 20
304.25885
 10
175.009842
 20
304.602875
  0
LWPOLYLINE
  5
9F
330
7B
100
AcDbEntity
  8
0
  6
Continuous
 62
     0
370
    30
100
AcDbPolyline
 90
       71
 70
     0
 43
0.0
 10
210.986221
 20
348.324066
 10
210.985397
 20
347.64389
 10
210.984253
 20
346.963837
 10
210.98259
 20
346.284058
 10
210.980286
 20
345.604736
 10
210.977188
 20
344.926025
 10
210.973175
 20
344.248199
 10
210.968201
 20
343.571442
 10
210.962204
 20
342.895935
 10
210.955215
 20
342.221832
 10
210.947342
 20
341.549133
 10
210.938675
 20
340.877869
 10
210.929291
 20
340.207947
 10
210.919281
 20
339.539215
 10
210.908691
 20
338.871643
 10
210.897583
 20
338.205078
 10
210.885941
 20
337.539368
 10
210.873795
 20
336.87439
 10
210.861115
 20
336.209991
 10
210.847824
 20
335.546143
 10
210.833847
 20
334.882751
 10
210.819122
 20
334.219727
 10
210.803574
 20
333.557068
 10
210.78714
 20
332.894684
 10
210.769806
 20
332.232605
 10
210.751495
 20
331.570801
 10
210.732193
 20
330.90921
 10
210.711853
 20
330.247864
 10
210.690414
 20
329.5867
 10
210.667816
 20
328.925751
 10
210.643997
 20
328.264984
 10
210.618881
 20
327.60437
 10
210.592392
 20
326.943939
 10
210.564484
 20
326.283661
 10
210.535095
 20
325.623505
 10
210.504105
 20
324.963501
 10
210.471359
 20
324.30365
 10
210.436691
 20
323.64389
 10
210.399948
 20
322.984253
 10
210.360947
 20
322.324707
 10
210.319473
 20
321.665314
 10
210.275314
 20
321.006042
 10
210.228256
 20
320.346863
 10
210.177979
 20
319.687866
 10
210.124054
 20
319.029083
 10
210.06604
 20
318.370575
 10
210.003525
 20
317.712372
 10
209.93605
 20
317.054596
 10
209.863098
 20
316.397247
 10
209.78392
 20
315.74054
 10
209.697739
 20
315.084595
 10
209.603775
 20
314.429535
 10
209.500931
 20
313.775696
 10
209.387756
 20
313.123413
 10
209.262802
 20
312.473145
 10
209.124435
 20
311.825378
 10
208.970566
 20
311.180756
 10
208.798477
 20
310.540405
 10
208.604904
 20
309.905914
 10
208.385864
 20
309.279083
 10
208.134689
 20
308.663177
 10
207.841263
 20
308.064514
 10
207.496002
 20
307.491882
 10
207.091995
 20
306.956116
 10
206.628006
 20
306.46814
 10
206.109451
 20
306.035187
 10
205.5466
 20
305.658478
 10
204.950729
 20
305.334137
 10
204.331009
 20
305.055298
 10
203.694931
 20
304.814545
 10
203.040405
 20
304.603149
  0
LWPOLYLINE
  5
A0
330
7B
100
AcDbEntity
  8
0
  6
Continuous
 62
     0
370
    30
100
AcDbPolyline
 90
       18
 70
     0
 43
0.0
 10
210.986221
 20
348.334137
 10
210.986725
 20
348.797058
 10
210.987015
 20
349.259918
 10
210.987091
 20
349.722687
 10
210.986877
 20
350.185333
 10
210.986359
 20
350.647827
 10
210.985474
 20
351.110016
 10
210.984207
 20
351.571747
 10
210.982529
 20
352.032867
 10
210.980423
 20
352.493256
 10
210.977844
 20
352.952789
 10
210.974792
 20
353.410858
 10
210.971237
 20
353.866821
 10
210.967163
 20
354.320343
 10
210.96254
 20
354.769653
 10
210.957428
 20
355.211151
 10
210.951996
 20
355.63443
 10
210.946945
 20
356.00882
  0
LWPOLYLINE
  5
A1
330
7B
100
AcDbEntity
  8
0
  6
Continuous
 62
     0
370
    30
100
AcDbPolyline
 90
       13
 70
     0
 43
0.0
 10
206.385468
 20
375.169373
 10
205.946274
 20
375.717407
 10
205.472687
 20
376.270233
 10
204.980347
 20
376.808167
 10
204.47052
 20
377.330139
 10
203.943954
 20
377.83548
 10
203.401169
 20
378.323608
 10
202.842819
 20
378.793976
 10
202.269363
 20
379.245911
 10
201.681122
 20
379.678772
 10
201.078537
 20
380.091614
 10
200.462189
 20
380.483459
 10
199.781036
 20
380.882294
  0
LWPOLYLINE
  5
A2
330
7B
100
AcDbEntity
  8
0
  6
Continuous
 62
     0
370
    30
100
AcDbPolyline
 90
       13
 70
     0
 43
0.0
 10
210.942459
 20
357.412994
 10
210.942261
 20
357.401337
 10
210.941772
 20
357.36496
 10
210.941055
 20
357.298187
 10
210.940186
 20
357.195892
 10
210.939407
 20
357.078125
 10
210.938934
 20
356.976746
 10
210.938751
 20
356.891693
 10
210.938797
 20
356.819977
 10
210.939102
 20
356.74585
 10
210.940033
 20
356.613678
 10
210.941879
 20
356.421997
 10
210.945023
 20
356.156616
  0
LWPOLYLINE
  5
A3
330
7B
100
AcDbEntity
  8
0
  6
Continuous
 62
     0
370
    30
100
AcDbPolyline
 90
       31
 70
     0
 43
0.0
 10
207.776245
 20
373.144257
 10
207.768875
 20
373.156494
 10
207.742203
 20
373.200562
 10
207.701141
 20
373.267975
 10
207.647217
 20
373.355621
 10
207.588806
 20
373.449402
 10
207.529327
 20
373.543732
 10
207.469803
 20
373.637024
 10
207.413605
 20
373.72406
 10
207.356781
 20
373.811066
 10
207.302826
 20
373.892822
 10
207.248978
 20
373.973572
 10
207.198074
 20
374.049164
 10
207.147278
 20
374.123871
 10
207.099442
 20
374.193634
 10
207.052856
 20
374.260925
 10
207.004791
 20
374.329803
 10
206.958191
 20
374.396057
 10
206.914459
 20
374.457733
 10
206.870346
 20
374.51944
 10
206.825607
 20
374.581573
 10
206.783478
 20
374.639709
 10
206.743042
 20
374.695068
 10
206.701569
 20
374.751465
 10
206.66037
 20
374.807159
 10
206.620651
 20
374.860474
 10
206.580597
 20
374.91391
 10
206.540253
 20
374.967377
 10
206.500626
 20
375.019562
 10
206.45932
 20
375.073639
 10
206.426102
 20
375.116852
  0
LWPOLYLINE
  5
A4
330
7B
100
AcDbEntity
  8
0
  6
Continuous
 62
     0
370
    30
100
AcDbPolyline
 90
       17
 70
     0
 43
0.0
 10
207.139664
 20
374.131866
 10
207.185226
 20
374.065308
 10
207.232086
 20
373.996216
 10
207.281876
 20
373.922119
 10
207.332672
 20
373.845825
 10
207.38269
 20
373.769897
 10
207.431107
 20
373.695679
 10
207.477386
 20
373.624115
 10
207.522888
 20
373.553009
 10
207.567703
 20
373.48233
 10
207.608337
 20
373.417694
 10
207.649384
 20
373.351776
 10
207.684769
 20
373.294495
 10
207.719223
 20
373.238251
 10
207.747665
 20
373.191528
 10
207.767822
 20
373.158203
 10
207.776245
 20
373.144257
  0
LWPOLYLINE
  5
A5
330
7B
100
AcDbEntity
  8
0
  6
Continuous
 62
     0
370
    30
100
AcDbPolyline
 90
       19
 70
     0
 43
0.0
 10
178.26889
 20
380.882355
 10
179.372498
 20
381.456238
 10
180.508911
 20
381.962677
 10
181.673386
 20
382.401276
 10
182.861267
 20
382.772095
 10
184.068283
 20
383.075012
 10
185.290237
 20
383.310364
 10
186.523209
 20
383.478577
 10
187.763519
 20
383.579742
 10
189.007523
 20
383.614075
 10
190.251572
 20
383.581635
 10
191.49202
 20
383.48233
 10
192.725266
 20
383.31601
 10
193.947586
 20
383.08252
 10
195.155075
 20
382.781525
 10
196.343582
 20
382.41272
 10
197.508728
 20
381.975922
 10
198.645981
 20
381.471344
 10
199.781067
 20
380.882355
  0
ENDBLK
  5
A7
330
7B
100
AcDbEntity
  8
0
100
AcDbBlockEnd
  0
BLOCK
  5
DC
330
A9
100
AcDbEntity
  8
0
100
AcDbBlockBegin
  2
b
 70
     0
 10
0.000015
 20
240.899139
 30
0.0
  3
b
  1

  0
LINE
  5
AA
330
A9
100
AcDbEntity
  8
0
  6
Continuous
 62
     0
370
    30
100
AcDbLine
 10
189.024994
 20
197.930588
 30
0.0
 11
211.224994
 21
197.930588
 31
0.0
  0
LINE
  5
AB
330
A9
100
AcDbEntity
  8
0
  6
Continuous
 62
     0
370
    30
100
AcDbLine
 10
166.824994
 20
197.930588
 30
0.0
 11
189.024994
 21
197.930588
 31
0.0
  0
LINE
  5
AC
330
A9
100
AcDbEntity
  8
0
  6
Continuous
 62
     0
370
    30
100
AcDbLine
 10
129.025115
 20
217.930588
 30
0.0
 11
129.025115
 21
211.42637
 31
0.0
  0
LINE
  5
AD
330
A9
100
AcDbEntity
  8
0
  6
Continuous
 62
     0
370
    30
100
AcDbLine
 10
129.025115
 20
211.42637
 30
0.0
 11
249.024873
 21
211.42637
 31
0.0
  0
LINE
  5
AE
330
A9
100
AcDbEntity
  8
0
  6
Continuous
 62
     0
370
    30
100
AcDbLine
 10
249.024873
 20
217.930588
 30
0.0
 11
129.025115
 21
217.930588
 31
0.0
  0
LINE
  5
AF
330
A9
100
AcDbEntity
  8
0
  6
Continuous
 62
     0
370
    30
100
AcDbLine
 10
129.025115
 20
211.42637
 30
0.0
 11
166.774994
 21
208.123685
 31
0.0
  0
LINE
  5
B0
330
A9
100
AcDbEntity
  8
0
  6
Continuous
 62
     0
370
    30
100
AcDbLine
 10
211.274994
 20
208.123685
 30
0.0
 11
166.774994
 21
208.123685
 31
0.0
  0
LWPOLYLINE
  5
B1
330
A9
100
AcDbEntity
  8
0
  6
Continuous
 62
     0
370
    30
100
AcDbPolyline
 90
       48
 70
     0
 43
0.0
 10
169.16011
 20
195.130585
 10
169.297363
 20
194.679321
 10
169.514282
 20
194.232056
 10
169.809937
 20
193.790649
 10
170.183243
 20
193.356873
 10
170.632614
 20
192.932449
 10
171.156128
 20
192.519073
 10
171.751846
 20
192.118454
 10
172.417419
 20
191.732224
 10
173.149994
 20
191.361877
 10
173.946686
 20
191.008957
 10
174.804428
 20
190.674927
 10
175.719589
 20
190.361053
 10
176.688461
 20
190.068619
 10
177.707275
 20
189.798889
 10
178.771957
 20
189.552948
 10
179.878021
 20
189.33168
 10
181.021011
 20
189.136002
 10
182.196426
 20
188.966797
 10
183.399536
 20
188.824753
 10
184.625397
 20
188.710388
 10
185.869064
 20
188.624207
 10
187.125534
 20
188.566589
 10
188.389679
 20
188.537659
 10
189.656387
 20
188.537567
 10
190.920532
 20
188.566406
 10
192.177017
 20
188.623993
 10
193.420746
 20
188.710083
 10
194.646652
 20
188.824371
 10
195.849823
 20
188.966354
 10
197.025391
 20
189.135422
 10
198.168533
 20
189.330978
 10
199.274673
 20
189.552185
 10
200.339417
 20
189.798111
 10
201.358444
 20
190.067749
 10
202.327484
 20
190.360092
 10
203.242783
 20
190.673904
 10
204.100708
 20
191.007889
 10
204.897629
 20
191.360748
 10
205.630417
 20
191.731033
 10
206.296188
 20
192.117218
 10
206.89209
 20
192.517807
 10
207.415863
 20
192.931137
 10
207.865494
 20
193.355515
 10
208.238998
 20
193.789276
 10
208.534897
 20
194.230652
 10
208.75206
 20
194.677933
 10
208.889877
 20
195.130585
  0
LINE
  5
B2
330
A9
100
AcDbEntity
  8
0
  6
Continuous
 62
     0
370
     0
100
AcDbLine
 10
199.937113
 20
183.871653
 30
0.0
 11
178.112875
 21
183.871653
 31
0.0
  0
LWPOLYLINE
  5
B3
330
A9
100
AcDbEntity
  8
0
  6
Continuous
 62
     0
370
     0
100
AcDbPolyline
 90
        3
 70
     0
 43
0.0
 10
178.112869
 20
183.871658
 10
178.132248
 20
182.753036
 10
178.259842
 20
174.193954
  0
LWPOLYLINE
  5
B4
330
A9
100
AcDbEntity
  8
0
  6
Continuous
 62
     0
370
     0
100
AcDbPolyline
 90
       26
 70
     0
 43
0.0
 10
178.259842
 20
174.193954
 10
178.264709
 20
173.897827
 10
178.270218
 20
173.6017
 10
178.277206
 20
173.305573
 10
178.287201
 20
173.009552
 10
178.302399
 20
172.713959
 10
178.327042
 20
172.420151
 10
178.368622
 20
172.132782
 10
178.438919
 20
171.867294
 10
178.545639
 20
171.656448
 10
178.676697
 20
171.517731
 10
178.816345
 20
171.431015
 10
178.958374
 20
171.374298
 10
179.100784
 20
171.334564
 10
179.243011
 20
171.30452
 10
179.385941
 20
171.280411
 10
179.530777
 20
171.259583
 10
179.67868
 20
171.240524
 10
179.830765
 20
171.222153
 10
179.987747
 20
171.20369
 10
180.149841
 20
171.184723
 10
180.317169
 20
171.164886
 10
180.489563
 20
171.144028
 10
180.666718
 20
171.122131
 10
180.84903
 20
171.098984
 10
181.039917
 20
171.073669
  0
LWPOLYLINE
  5
B5
330
A9
100
AcDbEntity
  8
0
  6
Continuous
 62
     0
370
     0
100
AcDbPolyline
 90
       10
 70
     0
 43
0.0
 10
181.039917
 20
171.073669
 10
182.773605
 20
170.923569
 10
184.530807
 20
170.784683
 10
186.309708
 20
170.673599
 10
188.107025
 20
170.608002
 10
189.912582
 20
170.607391
 10
191.710144
 20
170.672058
 10
193.489426
 20
170.782532
 10
195.246948
 20
170.921066
 10
197.010071
 20
171.073669
  0
LWPOLYLINE
  5
B6
330
A9
100
AcDbEntity
  8
0
  6
Continuous
 62
     0
370
     0
100
AcDbPolyline
 90
       26
 70
     0
 43
0.0
 10
197.010071
 20
171.073669
 10
197.1996
 20
171.098846
 10
197.381958
 20
171.12204
 10
197.559555
 20
171.144012
 10
197.732239
 20
171.164856
 10
197.899704
 20
171.184662
 10
198.061829
 20
171.203629
 10
198.218781
 20
171.222092
 10
198.37085
 20
171.240463
 10
198.518753
 20
171.259521
 10
198.663589
 20
171.280334
 10
198.806503
 20
171.304428
 10
198.94873
 20
171.334442
 10
199.091125
 20
171.374146
 10
199.233154
 20
171.430771
 10
199.372803
 20
171.517334
 10
199.503906
 20
171.655807
 10
199.610733
 20
171.866379
 10
199.681152
 20
172.131699
 10
199.722824
 20
172.419022
 10
199.747513
 20
172.712784
 10
199.762741
 20
173.008347
 10
199.772751
 20
173.304337
 10
199.779739
 20
173.600449
 10
199.785263
 20
173.896545
 10
199.790146
 20
174.193954
  0
LWPOLYLINE
  5
B7
330
A9
100
AcDbEntity
  8
0
  6
Continuous
 62
     0
370
     0
100
AcDbPolyline
 90
        3
 70
     0
 43
0.0
 10
199.790146
 20
174.193954
 10
199.807785
 20
175.312622
 10
199.937119
 20
183.871658
  0
LWPOLYLINE
  5
B8
330
A9
100
AcDbEntity
  8
0
  6
Continuous
 62
     0
370
     0
100
AcDbPolyline
 90
       21
 70
     0
 43
0.0
 10
210.996399
 20
183.871735
 10
210.980774
 20
183.871658
 10
210.92778
 20
183.871643
 10
210.833923
 20
183.871658
 10
210.694717
 20
183.871658
 10
210.503647
 20
183.871658
 10
210.25412
 20
183.871658
 10
209.940292
 20
183.871658
 10
209.557175
 20
183.871658
 10
209.101578
 20
183.871658
 10
208.572311
 20
183.871658
 10
207.970978
 20
183.871658
 10
207.301086
 20
183.871658
 10
206.56781
 20
183.871658
 10
205.77594
 20
183.871658
 10
204.92981
 20
183.871658
 10
204.031845
 20
183.871658
 10
203.083771
 20
183.871658
 10
202.089294
 20
183.871658
 10
201.052963
 20
183.871658
 10
199.937119
 20
183.871658
  0
LWPOLYLINE
  5
B9
330
A9
100
AcDbEntity
  8
0
  6
Continuous
 62
     0
370
     0
100
AcDbPolyline
 90
       26
 70
     0
 43
0.0
 10
199.790146
 20
174.193954
 10
200.836517
 20
174.193802
 10
201.84642
 20
174.193619
 10
202.817291
 20
174.193344
 10
203.745361
 20
174.192932
 10
204.627304
 20
174.192352
 10
205.461472
 20
174.191544
 10
206.245697
 20
174.190475
 10
206.975601
 20
174.189041
 10
207.64537
 20
174.18721
 10
208.24733
 20
174.184937
 10
208.775192
 20
174.182343
 10
209.225143
 20
174.179688
 10
209.599579
 20
174.17717
 10
209.904938
 20
174.174988
 10
210.150528
 20
174.173233
 10
210.346375
 20
174.171997
 10
210.501678
 20
174.17131
 10
210.625076
 20
174.171219
 10
210.722656
 20
174.171555
 10
210.799393
 20
174.172119
 10
210.858932
 20
174.172714
 10
210.903214
 20
174.173218
 10
210.93399
 20
174.173462
 10
210.952179
 20
174.173218
 10
210.958298
 20
174.172226
  0
LWPOLYLINE
  5
BA
330
A9
100
AcDbEntity
  8
0
  6
Continuous
 62
     0
370
     0
100
AcDbPolyline
 90
       26
 70
     0
 43
0.0
 10
197.010071
 20
171.073669
 10
197.700378
 20
171.100189
 10
198.351883
 20
171.115845
 10
198.970535
 20
171.121017
 10
199.556686
 20
171.116364
 10
200.112122
 20
171.103409
 10
200.635635
 20
171.083786
 10
201.115036
 20
171.058945
 10
201.528168
 20
171.031876
 10
201.863617
 20
171.00563
 10
202.124878
 20
170.982346
 10
202.324097
 20
170.962799
 10
202.473572
 20
170.947098
 10
202.584747
 20
170.934967
 10
202.666901
 20
170.925583
 10
202.728256
 20
170.917831
 10
202.774445
 20
170.910812
 10
202.808472
 20
170.903931
 10
202.833054
 20
170.896591
 10
202.849869
 20
170.888229
 10
202.860168
 20
170.878403
 10
202.865112
 20
170.866516
 10
202.86554
 20
170.851776
 10
202.862259
 20
170.833359
 10
202.856064
 20
170.810303
 10
202.848099
 20
170.779663
  0
LWPOLYLINE
  5
BB
330
A9
100
AcDbEntity
  8
0
  6
Continuous
 62
     0
370
     0
100
AcDbPolyline
 90
       36
 70
     0
 43
0.0
 10
202.848099
 20
170.779663
 10
203.106262
 20
170.79628
 10
203.364441
 20
170.812927
 10
203.622604
 20
170.82959
 10
203.880783
 20
170.846298
 10
204.138947
 20
170.863052
 10
204.397095
 20
170.879868
 10
204.655243
 20
170.896744
 10
204.913391
 20
170.913696
 10
205.171539
 20
170.93074
 10
205.429672
 20
170.947876
 10
205.687805
 20
170.965134
 10
205.945938
 20
170.982513
 10
206.204071
 20
171.000031
 10
206.462189
 20
171.0177
 10
206.720291
 20
171.035568
 10
206.978378
 20
171.053757
 10
207.236435
 20
171.072433
 10
207.494431
 20
171.091736
 10
207.752365
 20
171.111816
 10
208.010223
 20
171.132812
 10
208.267975
 20
171.154877
 10
208.525635
 20
171.178146
 10
208.783142
 20
171.20285
 10
209.040466
 20
171.229675
 10
209.29747
 20
171.259506
 10
209.553955
 20
171.293762
 10
209.809235
 20
171.335876
 10
210.062103
 20
171.390747
 10
210.309036
 20
171.469116
 10
210.539139
 20
171.587463
 10
210.72847
 20
171.763367
 10
210.858261
 20
171.986069
 10
210.935196
 20
172.230804
 10
210.973999
 20
172.480896
 10
210.986282
 20
172.732086
  0
LWPOLYLINE
  5
BC
330
A9
100
AcDbEntity
  8
0
  6
Continuous
 62
     0
370
     0
100
AcDbPolyline
 90
        8
 70
     0
 43
0.0
 10
178.364761
 20
161.493057
 10
181.345337
 20
161.346619
 10
184.32811
 20
161.243179
 10
187.31221
 20
161.18573
 10
190.296906
 20
161.181686
 10
193.281158
 20
161.231583
 10
196.26416
 20
161.32872
 10
199.685226
 20
161.493057
  0
LWPOLYLINE
  5
BD
330
A9
100
AcDbEntity
  8
0
  6
Continuous
 62
     0
370
     0
100
AcDbPolyline
 90
       70
 70
     0
 43
0.0
 10
199.685226
 20
161.493057
 10
200.182953
 20
161.590057
 10
200.622757
 20
161.703644
 10
200.990311
 20
161.832001
 10
201.274048
 20
161.972397
 10
201.485855
 20
162.119995
 10
201.64621
 20
162.27124
 10
201.770721
 20
162.424469
 10
201.870361
 20
162.578827
 10
201.952011
 20
162.733871
 10
202.020203
 20
162.889328
 10
202.077377
 20
163.04509
 10
202.125687
 20
163.201065
 10
202.167313
 20
163.357162
 10
202.203995
 20
163.513321
 10
202.236496
 20
163.66954
 10
202.265427
 20
163.82579
 10
202.291397
 20
163.982071
 10
202.315018
 20
164.138367
 10
202.336838
 20
164.294693
 10
202.357117
 20
164.451035
 10
202.376083
 20
164.607391
 10
202.393906
 20
164.763748
 10
202.410797
 20
164.92012
 10
202.426941
 20
165.076477
 10
202.442551
 20
165.232849
 10
202.457733
 20
165.389191
 10
202.472504
 20
165.545486
 10
202.486893
 20
165.701721
 10
202.500916
 20
165.857849
 10
202.514572
 20
166.013855
 10
202.527893
 20
166.169724
 10
202.540863
 20
166.325394
 10
202.553528
 20
166.480881
 10
202.565903
 20
166.636124
 10
202.577957
 20
166.791107
 10
202.589737
 20
166.945816
 10
202.601242
 20
167.10022
 10
202.612473
 20
167.254288
 10
202.623444
 20
167.408005
 10
202.634155
 20
167.56134
 10
202.644623
 20
167.714264
 10
202.654846
 20
167.866745
 10
202.664856
 20
168.018707
 10
202.674622
 20
168.170059
 10
202.684174
 20
168.320724
 10
202.693512
 20
168.470627
 10
202.702637
 20
168.619675
 10
202.711548
 20
168.767776
 10
202.720245
 20
168.914856
 10
202.72876
 20
169.060791
 10
202.737061
 20
169.205276
 10
202.745193
 20
169.348022
 10
202.753128
 20
169.488693
 10
202.760895
 20
169.626648
 10
202.768448
 20
169.761093
 10
202.775772
 20
169.891144
 10
202.782883
 20
170.015564
 10
202.789749
 20
170.13298
 10
202.796341
 20
170.242004
 10
202.802643
 20
170.341248
 10
202.80864
 20
170.429535
 10
202.814362
 20
170.506302
 10
202.819778
 20
170.57135
 10
202.824936
 20
170.625519
 10
202.82988
 20
170.669937
 10
202.834625
 20
170.706009
 10
202.839203
 20
170.735306
 10
202.843674
 20
170.759369
 10
202.848099
 20
170.779663
  0
LWPOLYLINE
  5
BE
330
A9
100
AcDbEntity
  8
0
  6
Continuous
 62
     0
370
     0
100
AcDbPolyline
 90
       26
 70
     0
 43
0.0
 10
181.039917
 20
171.073669
 10
180.350266
 20
171.100113
 10
179.698166
 20
171.115829
 10
179.079391
 20
171.121017
 10
178.493332
 20
171.116348
 10
177.937866
 20
171.103409
 10
177.414352
 20
171.083786
 10
176.934952
 20
171.058945
 10
176.52182
 20
171.031876
 10
176.186371
 20
171.00563
 10
175.92511
 20
170.982346
 10
175.725891
 20
170.962799
 10
175.576416
 20
170.947098
 10
175.46524
 20
170.934967
 10
175.383087
 20
170.925583
 10
175.321732
 20
170.917831
 10
175.275543
 20
170.910812
 10
175.241516
 20
170.903931
 10
175.216934
 20
170.896591
 10
175.200119
 20
170.888229
 10
175.189819
 20
170.878403
 10
175.184875
 20
170.866516
 10
175.184448
 20
170.851776
 10
175.187729
 20
170.833359
 10
175.193924
 20
170.810303
 10
175.201889
 20
170.779663
  0
LWPOLYLINE
  5
BF
330
A9
100
AcDbEntity
  8
0
  6
Continuous
 62
     0
370
     0
100
AcDbPolyline
 90
       70
 70
     0
 43
0.0
 10
175.201889
 20
170.779663
 10
175.206253
 20
170.759628
 10
175.210724
 20
170.735626
 10
175.215317
 20
170.706406
 10
175.220047
 20
170.670425
 10
175.224991
 20
170.626129
 10
175.230148
 20
170.572083
 10
175.235565
 20
170.507172
 10
175.241272
 20
170.430542
 10
175.247269
 20
170.342407
 10
175.253571
 20
170.243301
 10
175.260162
 20
170.134384
 10
175.267014
 20
170.017075
 10
175.274124
 20
169.892731
 10
175.281448
 20
169.762741
 10
175.289001
 20
169.628357
 10
175.296753
 20
169.490433
 10
175.304703
 20
169.349792
 10
175.31282
 20
169.207077
 10
175.321121
 20
169.062607
 10
175.329636
 20
168.916718
 10
175.338333
 20
168.769653
 10
175.347244
 20
168.621552
 10
175.356354
 20
168.472519
 10
175.365692
 20
168.322647
 10
175.375244
 20
168.171982
 10
175.38501
 20
168.02063
 10
175.395004
 20
167.868683
 10
175.405243
 20
167.716217
 10
175.415695
 20
167.563309
 10
175.426407
 20
167.409988
 10
175.437378
 20
167.256271
 10
175.448608
 20
167.102219
 10
175.460098
 20
166.947815
 10
175.471878
 20
166.793121
 10
175.483932
 20
166.638138
 10
175.496292
 20
166.482895
 10
175.508957
 20
166.327423
 10
175.521927
 20
166.171753
 10
175.535233
 20
166.0159
 10
175.548889
 20
165.859894
 10
175.562897
 20
165.703766
 10
175.577286
 20
165.547546
 10
175.592056
 20
165.391251
 10
175.607239
 20
165.234909
 10
175.622833
 20
165.078552
 10
175.638977
 20
164.922195
 10
175.655853
 20
164.765823
 10
175.67366
 20
164.609467
 10
175.692612
 20
164.453125
 10
175.712875
 20
164.296783
 10
175.734665
 20
164.140457
 10
175.75827
 20
163.984161
 10
175.784195
 20
163.827881
 10
175.81308
 20
163.671631
 10
175.845535
 20
163.515427
 10
175.882141
 20
163.359268
 10
175.923691
 20
163.203171
 10
175.971909
 20
163.047195
 10
176.028931
 20
162.891434
 10
176.09697
 20
162.735977
 10
176.178406
 20
162.580933
 10
176.277756
 20
162.426575
 10
176.401871
 20
162.273331
 10
176.56163
 20
162.12204
 10
176.772598
 20
161.974396
 10
177.055206
 20
161.833862
 10
177.421555
 20
161.705307
 10
177.860184
 20
161.591461
 10
178.364761
 20
161.493057
  0
LWPOLYLINE
  5
C0
330
A9
100
AcDbEntity
  8
0
  6
Continuous
 62
     0
370
     0
100
AcDbPolyline
 90
        7
 70
     0
 43
0.0
 10
199.685226
 20
161.493057
 10
200.167877
 20
161.468491
 10
200.629242
 20
161.440704
 10
201.067337
 20
161.411636
 10
201.474121
 20
161.383545
 10
201.845932
 20
161.362183
 10
202.274963
 20
161.367172
  0
LWPOLYLINE
  5
C1
330
A9
100
AcDbEntity
  8
0
  6
Continuous
 62
     0
370
     0
100
AcDbPolyline
 90
        7
 70
     0
 43
0.0
 10
178.364761
 20
161.493057
 10
177.882782
 20
161.46843
 10
177.421646
 20
161.440704
 10
176.983734
 20
161.411728
 10
176.577225
 20
161.383636
 10
176.205627
 20
161.362244
 10
175.775757
 20
161.367096
  0
LWPOLYLINE
  5
C2
330
A9
100
AcDbEntity
  8
0
  6
Continuous
 62
     0
370
     0
100
AcDbPolyline
 90
       26
 70
     0
 43
0.0
 10
167.09169
 20
174.172226
 10
167.097687
 20
174.173218
 10
167.115738
 20
174.173462
 10
167.146378
 20
174.173218
 10
167.190521
 20
174.172729
 10
167.249893
 20
174.172119
 10
167.326416
 20
174.171555
 10
167.423752
 20
174.171219
 10
167.546844
 20
174.17131
 10
167.701767
 20
174.171982
 10
167.897125
 20
174.173218
 10
168.142136
 20
174.174973
 10
168.446793
 20
174.177155
 10
168.82045
 20
174.179657
 10
169.269547
 20
174.182312
 10
169.7966
 20
174.184906
 10
170.397766
 20
174.18718
 10
171.066833
 20
174.189026
 10
171.796112
 20
174.19046
 10
172.579773
 20
174.191544
 10
173.413406
 20
174.192337
 10
174.29483
 20
174.192932
 10
175.222397
 20
174.193329
 10
176.19281
 20
174.193619
 10
177.202286
 20
174.193802
 10
178.259842
 20
174.193954
  0
LINE
  5
C3
330
A9
100
AcDbEntity
  8
0
  6
Continuous
 62
     0
370
     0
100
AcDbLine
 10
178.112875
 20
183.871653
 30
0.0
 11
167.05359
 21
183.871736
 31
0.0
  0
LWPOLYLINE
  5
C4
330
A9
100
AcDbEntity
  8
0
  6
Continuous
 62
     0
370
     0
100
AcDbPolyline
 90
       36
 70
     0
 43
0.0
 10
167.063721
 20
172.730331
 10
167.075806
 20
172.482788
 10
167.114365
 20
172.232742
 10
167.190933
 20
171.987976
 10
167.320206
 20
171.76503
 10
167.509048
 20
171.588699
 10
167.738861
 20
171.46994
 10
167.985657
 20
171.391312
 10
168.238449
 20
171.336304
 10
168.493652
 20
171.294113
 10
168.750076
 20
171.259811
 10
169.007019
 20
171.22995
 10
169.264282
 20
171.20311
 10
169.521744
 20
171.178391
 10
169.779343
 20
171.155106
 10
170.037033
 20
171.133041
 10
170.29483
 20
171.11203
 10
170.552719
 20
171.091949
 10
170.810654
 20
171.072647
 10
171.068649
 20
171.05397
 10
171.326691
 20
171.035782
 10
171.584747
 20
171.017914
 10
171.842804
 20
171.000244
 10
172.100876
 20
170.982727
 10
172.358948
 20
170.965363
 10
172.61702
 20
170.948105
 10
172.875107
 20
170.930954
 10
173.133194
 20
170.913925
 10
173.391281
 20
170.896973
 10
173.649384
 20
170.880096
 10
173.907486
 20
170.863297
 10
174.165588
 20
170.846542
 10
174.423706
 20
170.829834
 10
174.681808
 20
170.813171
 10
174.939926
 20
170.796524
 10
175.201889
 20
170.779663
  0
LINE
  5
C5
330
A9
100
AcDbEntity
  8
0
  6
Continuous
 62
     0
370
    30
100
AcDbLine
 10
166.775118
 20
195.130589
 30
0.0
 11
167.62501
 21
195.130589
 31
0.0
  0
LINE
  5
C6
330
A9
100
AcDbEntity
  8
0
  6
Continuous
 62
     0
370
    30
100
AcDbLine
 10
210.424977
 20
195.130589
 30
0.0
 11
211.274869
 21
195.130589
 31
0.0
  0
LWPOLYLINE
  5
C7
330
A9
100
AcDbEntity
  8
0
  6
Continuous
 62
     0
370
    30
100
AcDbPolyline
 90
       51
 70
     0
 43
0.0
 10
211.274948
 20
195.130585
 10
211.214554
 20
194.612991
 10
211.072998
 20
194.096649
 10
210.853867
 20
193.583374
 10
210.559631
 20
193.075439
 10
210.191193
 20
192.574493
 10
209.747559
 20
192.081451
 10
209.227478
 20
191.597946
 10
208.629745
 20
191.126099
 10
207.954224
 20
190.667969
 10
207.201843
 20
190.225464
 10
206.375641
 20
189.800186
 10
205.478897
 20
189.393692
 10
204.514694
 20
189.007568
 10
203.485977
 20
188.643417
 10
202.395615
 20
188.30304
 10
201.24649
 20
187.988541
 10
200.041611
 20
187.702164
 10
198.784424
 20
187.445831
 10
197.479355
 20
187.221146
 10
196.133118
 20
187.029114
 10
194.752808
 20
186.87056
 10
193.345505
 20
186.746368
 10
191.918091
 20
186.65712
 10
190.477249
 20
186.603226
 10
189.029694
 20
186.585083
 10
187.582123
 20
186.602951
 10
186.14122
 20
186.656586
 10
184.713684
 20
186.745621
 10
183.306244
 20
186.869659
 10
181.925751
 20
187.028107
 10
180.579285
 20
187.220001
 10
179.273911
 20
187.444412
 10
178.016357
 20
187.700348
 10
176.811096
 20
187.986389
 10
175.661636
 20
188.300781
 10
174.570892
 20
188.641083
 10
173.541779
 20
189.005096
 10
172.577133
 20
189.391083
 10
171.679947
 20
189.797455
 10
170.853271
 20
190.222626
 10
170.100403
 20
190.665039
 10
169.424393
 20
191.123108
 10
168.826141
 20
191.594879
 10
168.305557
 20
192.078308
 10
167.861435
 20
192.571243
 10
167.492508
 20
193.072113
 10
167.197784
 20
193.580063
 10
166.978165
 20
194.093399
 10
166.83609
 20
194.609711
 10
166.77504
 20
195.130585
  0
LWPOLYLINE
  5
C8
330
A9
100
AcDbEntity
  8
0
  6
Continuous
 62
     0
370
     0
100
AcDbPolyline
 90
        6
 70
     0
 43
0.0
 10
208.789261
 20
192.704758
 10
209.268494
 20
193.173569
 10
209.672165
 20
193.651428
 10
209.999496
 20
194.136749
 10
210.249924
 20
194.627899
 10
210.424988
 20
195.130585
  0
LWPOLYLINE
  5
C9
330
A9
100
AcDbEntity
  8
0
  6
Continuous
 62
     0
370
     0
100
AcDbPolyline
 90
       40
 70
     0
 43
0.0
 10
169.260727
 20
192.704758
 10
169.697113
 20
192.236954
 10
170.210068
 20
191.779236
 10
170.798355
 20
191.333344
 10
171.460785
 20
190.900986
 10
172.19574
 20
190.483917
 10
173.001038
 20
190.083923
 10
173.874451
 20
189.702774
 10
174.81369
 20
189.342255
 10
175.81575
 20
189.004074
 10
176.876831
 20
188.689926
 10
177.993073
 20
188.401489
 10
179.160614
 20
188.140411
 10
180.374878
 20
187.908218
 10
181.630508
 20
187.706268
 10
182.922043
 20
187.535858
 10
184.243576
 20
187.398102
 10
185.588699
 20
187.293793
 10
186.950974
 20
187.223755
 10
188.32373
 20
187.188492
 10
189.700012
 20
187.188141
 10
191.07283
 20
187.222763
 10
192.435349
 20
187.292191
 10
193.780945
 20
187.395798
 10
195.102997
 20
187.532898
 10
196.395096
 20
187.702713
 10
197.651474
 20
187.904083
 10
198.866577
 20
188.135696
 10
200.035065
 20
188.39624
 10
201.152496
 20
188.684158
 10
202.214783
 20
188.997803
 10
203.217834
 20
189.335556
 10
204.158188
 20
189.695694
 10
205.03302
 20
190.076477
 10
205.839615
 20
190.47612
 10
206.575775
 20
190.892868
 10
207.23967
 20
191.324951
 10
207.829453
 20
191.770599
 10
208.343811
 20
192.228104
 10
208.789261
 20
192.704758
  0
LWPOLYLINE
  5
CA
330
A9
100
AcDbEntity
  8
0
  6
Continuous
 62
     0
370
     0
100
AcDbPolyline
 90
        6
 70
     0
 43
0.0
 10
167.625
 20
195.130585
 10
167.796967
 20
194.635117
 10
168.046265
 20
194.14389
 10
168.372482
 20
193.658493
 10
168.77504
 20
193.180496
 10
169.260727
 20
192.704758
  0
LINE
  5
CB
330
A9
100
AcDbEntity
  8
0
  6
Continuous
 62
     0
370
    30
100
AcDbLine
 10
210.424977
 20
195.130589
 30
0.0
 11
208.889879
 21
195.130589
 31
0.0
  0
LINE
  5
CC
330
A9
100
AcDbEntity
  8
0
  6
Continuous
 62
     0
370
    30
100
AcDbLine
 10
169.160109
 20
195.130589
 30
0.0
 11
167.62501
 21
195.130589
 31
0.0
  0
LWPOLYLINE
  5
CD
330
A9
100
AcDbEntity
  8
0
  6
Continuous
 62
     0
370
    30
100
AcDbPolyline
 90
        5
 70
     0
 43
0.0
 10
210.996323
 20
183.87175
 10
211.045227
 20
186.369888
 10
211.104874
 20
188.896973
 10
211.171585
 20
191.443665
 10
211.273697
 20
195.099075
  0
LWPOLYLINE
  5
CE
330
A9
100
AcDbEntity
  8
0
  6
Continuous
 62
     0
370
    30
100
AcDbPolyline
 90
        5
 70
     0
 43
0.0
 10
166.776291
 20
195.099075
 10
166.848434
 20
192.538788
 10
166.917206
 20
189.986267
 10
166.980301
 20
187.449127
 10
167.053665
 20
183.87175
  0
LWPOLYLINE
  5
CF
330
A9
100
AcDbEntity
  8
0
  6
Continuous
 62
     0
370
    30
100
AcDbPolyline
 90
       63
 70
     0
 43
0.0
 10
175.776398
 20
161.367233
 10
175.038361
 20
161.441071
 10
174.311386
 20
161.525635
 10
173.600479
 20
161.624329
 10
172.913223
 20
161.741196
 10
172.262131
 20
161.880066
 10
171.667145
 20
162.042542
 10
171.138748
 20
162.229065
 10
170.684875
 20
162.435013
 10
170.305084
 20
162.65239
 10
169.988281
 20
162.873856
 10
169.717361
 20
163.09761
 10
169.477509
 20
163.326813
 10
169.267212
 20
163.557266
 10
169.081985
 20
163.78714
 10
168.915527
 20
164.019348
 10
168.765167
 20
164.254074
 10
168.629318
 20
164.489319
 10
168.505875
 20
164.725311
 10
168.392822
 20
164.962982
 10
168.28952
 20
165.200684
 10
168.195755
 20
165.436066
 10
168.110352
 20
165.669113
 10
168.031677
 20
165.901581
 10
167.959366
 20
166.132751
 10
167.89296
 20
166.361908
 10
167.83194
 20
166.588455
 10
167.775711
 20
166.811996
 10
167.72374
 20
167.033005
 10
167.675491
 20
167.25209
 10
167.630707
 20
167.468918
 10
167.589111
 20
167.683029
 10
167.550415
 20
167.894409
 10
167.514191
 20
168.103851
 10
167.480133
 20
168.311783
 10
167.448151
 20
168.518127
 10
167.418121
 20
168.722855
 10
167.389923
 20
168.925888
 10
167.363449
 20
169.127213
 10
167.338593
 20
169.326797
 10
167.315247
 20
169.524597
 10
167.293289
 20
169.720551
 10
167.272675
 20
169.914551
 10
167.253326
 20
170.106522
 10
167.235199
 20
170.296143
 10
167.218216
 20
170.482849
 10
167.202271
 20
170.666046
 10
167.187271
 20
170.845123
 10
167.173141
 20
171.019684
 10
167.159775
 20
171.189423
 10
167.147049
 20
171.354004
 10
167.134995
 20
171.512375
 10
167.123703
 20
171.663193
 10
167.113266
 20
171.805115
 10
167.103745
 20
171.93692
 10
167.09523
 20
172.057983
 10
167.087799
 20
172.167816
 10
167.081512
 20
172.266617
 10
167.076294
 20
172.35675
 10
167.072067
 20
172.440781
 10
167.068771
 20
172.520996
 10
167.066376
 20
172.596848
 10
167.064758
 20
172.666595
  0
LWPOLYLINE
  5
D0
330
A9
100
AcDbEntity
  8
0
  6
Continuous
 62
     0
370
    30
100
AcDbPolyline
 90
       10
 70
     0
 43
0.0
 10
167.064209
 20
172.699265
 10
167.063278
 20
172.768661
 10
167.062881
 20
172.85968
 10
167.063629
 20
172.967072
 10
167.065689
 20
173.091888
 10
167.068893
 20
173.232117
 10
167.073196
 20
173.397141
 10
167.078568
 20
173.599731
 10
167.084824
 20
173.851395
 10
167.091675
 20
174.17218
  0
LWPOLYLINE
  5
D1
330
A9
100
AcDbEntity
  8
0
  6
Continuous
 62
     0
370
    30
100
AcDbPolyline
 90
       16
 70
     0
 43
0.0
 10
167.091675
 20
174.17218
 10
167.098465
 20
174.587067
 10
167.104172
 20
175.065109
 10
167.108337
 20
175.594223
 10
167.110687
 20
176.174271
 10
167.111206
 20
176.803116
 10
167.110352
 20
177.464432
 10
167.108551
 20
178.143478
 10
167.106018
 20
178.83316
 10
167.102615
 20
179.530869
 10
167.098099
 20
180.234848
 10
167.092239
 20
180.943649
 10
167.08493
 20
181.65657
 10
167.076141
 20
182.373489
 10
167.065933
 20
183.094345
 10
167.053436
 20
183.871735
  0
LWPOLYLINE
  5
D2
330
A9
100
AcDbEntity
  8
0
  6
Continuous
 62
     0
370
    30
100
AcDbPolyline
 90
       12
 70
     0
 43
0.0
 10
202.2742
 20
161.367294
 10
199.891586
 20
161.180573
 10
197.486237
 20
161.043304
 10
195.07222
 20
160.943146
 10
192.654739
 20
160.875977
 10
190.235855
 20
160.841415
 10
187.81662
 20
160.841248
 10
185.397751
 20
160.875916
 10
182.980286
 20
160.943192
 10
180.566269
 20
161.043228
 10
178.160858
 20
161.180359
 10
175.775772
 20
161.367294
  0
LWPOLYLINE
  5
D3
330
A9
100
AcDbEntity
  8
0
  6
Continuous
 62
     0
370
    30
100
AcDbPolyline
 90
       62
 70
     0
 43
0.0
 10
210.985138
 20
172.662994
 10
210.983475
 20
172.59169
 10
210.980972
 20
172.514465
 10
210.977524
 20
172.432419
 10
210.973114
 20
172.346298
 10
210.967712
 20
172.25412
 10
210.961197
 20
172.152649
 10
210.953476
 20
172.039352
 10
210.944641
 20
171.914505
 10
210.934784
 20
171.778625
 10
210.923996
 20
171.632538
 10
210.912369
 20
171.477646
 10
210.899994
 20
171.31543
 10
210.886902
 20
171.147034
 10
210.873108
 20
170.97319
 10
210.858536
 20
170.79454
 10
210.843048
 20
170.611435
 10
210.826538
 20
170.424286
 10
210.808914
 20
170.233673
 10
210.790085
 20
170.040237
 10
210.770004
 20
169.844513
 10
210.748581
 20
169.646774
 10
210.725723
 20
169.447067
 10
210.701401
 20
169.245483
 10
210.675491
 20
169.042099
 10
210.647888
 20
168.83696
 10
210.618454
 20
168.630035
 10
210.587051
 20
168.421326
 10
210.553574
 20
168.210968
 10
210.51796
 20
167.999222
 10
210.47995
 20
167.785706
 10
210.439117
 20
167.569473
 10
210.395157
 20
167.350464
 10
210.347809
 20
167.12912
 10
210.296783
 20
166.905685
 10
210.241547
 20
166.679794
 10
210.181503
 20
166.450897
 10
210.116119
 20
166.218903
 10
210.044937
 20
165.984695
 10
209.967499
 20
165.749298
 10
209.883133
 20
165.512863
 10
209.790848
 20
165.274643
 10
209.689072
 20
165.033905
 10
209.576996
 20
164.792099
 10
209.454361
 20
164.551651
 10
209.320084
 20
164.312836
 10
209.171326
 20
164.074646
 10
209.006027
 20
163.837906
 10
208.822388
 20
163.604034
 10
208.614227
 20
163.370346
 10
208.376358
 20
163.136993
 10
208.106583
 20
162.908737
 10
207.793396
 20
162.683746
 10
207.417023
 20
162.462006
 10
206.965347
 20
162.251099
 10
206.436203
 20
162.05928
 10
205.837494
 20
161.892151
 10
205.179901
 20
161.749435
 10
204.483658
 20
161.629593
 10
203.762421
 20
161.528671
 10
203.024414
 20
161.442383
 10
202.274948
 20
161.367355
  0
LWPOLYLINE
  5
D4
330
A9
100
AcDbEntity
  8
0
  6
Continuous
 62
     0
370
    30
100
AcDbPolyline
 90
       10
 70
     0
 43
0.0
 10
210.985672
 20
172.694427
 10
210.986725
 20
172.769974
 10
210.987091
 20
172.859344
 10
210.986343
 20
172.967789
 10
210.984299
 20
173.091522
 10
210.98111
 20
173.231354
 10
210.976837
 20
173.395676
 10
210.971466
 20
173.597733
 10
210.965225
 20
173.849167
 10
210.958313
 20
174.17218
  0
LWPOLYLINE
  5
D5
330
A9
100
AcDbEntity
  8
0
  6
Continuous
 62
     0
370
    30
100
AcDbPolyline
 90
       16
 70
     0
 43
0.0
 10
210.996536
 20
183.871735
 10
210.984818
 20
183.14444
 10
210.974472
 20
182.420792
 10
210.965561
 20
181.700897
 10
210.95813
 20
180.984863
 10
210.952164
 20
180.273041
 10
210.947571
 20
179.566086
 10
210.944107
 20
178.865372
 10
210.941544
 20
178.172577
 10
210.939682
 20
177.49028
 10
210.938782
 20
176.82579
 10
210.939255
 20
176.193054
 10
210.941559
 20
175.609558
 10
210.945694
 20
175.077393
 10
210.951401
 20
174.596359
 10
210.958298
 20
174.17218
  0
ARC
  5
D6
330
A9
100
AcDbEntity
  8
0
  6
Continuous
 62
     0
370
    30
100
AcDbCircle
 10
188.821752
 20
199.316862
 30
0.0
 40
20.50016677559626
100
AcDbArc
 50
348.216931
 51
356.122555
  0
ARC
  5
D7
330
A9
100
AcDbEntity
  8
0
  6
Continuous
 62
     0
370
    30
100
AcDbCircle
 10
189.228235
 20
199.316862
 30
0.0
 40
20.50016677562737
100
AcDbArc
 50
183.877445
 51
191.783069
  0
LINE
  5
D8
330
A9
100
AcDbEntity
  8
0
  6
Continuous
 62
     0
370
    30
100
AcDbLine
 10
249.024873
 20
211.42637
 30
0.0
 11
211.274994
 21
208.123685
 31
0.0
  0
LINE
  5
D9
330
A9
100
AcDbEntity
  8
0
  6
Continuous
 62
     0
370
    30
100
AcDbLine
 10
249.024873
 20
211.42637
 30
0.0
 11
249.024873
 21
217.930588
 31
0.0
  0
LINE
  5
DA
330
A9
100
AcDbEntity
  8
0
  6
Continuous
 62
     0
370
    30
100
AcDbLine
 10
211.224994
 20
208.123685
 30
0.0
 11
211.224994
 21
197.930588
 31
0.0
  0
LINE
  5
DB
330
A9
100
AcDbEntity
  8
0
  6
Continuous
 62
     0
370
    30
100
AcDbLine
 10
166.824994
 20
208.123685
 30
0.0
 11
166.824994
 21
197.930588
 31
0.0
  0
ENDBLK
  5
DD
330
A9
100
AcDbEntity
  8
0
100
AcDbBlockEnd
  0
BLOCK
  5
119
330
DF
100
AcDbEntity
  8
0
100
AcDbBlockBegin
  2
c
 70
     0
 10
260.558868
 20
0.0
 30
0.0
  3
c
  1

  0
LINE
  5
E0
330
DF
100
AcDbEntity
  8
0
  6
Continuous
 62
     0
370
    30
100
AcDbLine
 10
362.909393
 20
339.033162
 30
0.0
 11
352.716296
 21
339.033162
 31
0.0
  0
LINE
  5
E1
330
DF
100
AcDbEntity
  8
0
  6
Continuous
 62
     0
370
    30
100
AcDbLine
 10
362.909393
 20
339.033162
 30
0.0
 11
362.909393
 21
383.433162
 31
0.0
  0
LINE
  5
E2
330
DF
100
AcDbEntity
  8
0
  6
Continuous
 62
     0
370
    30
100
AcDbLine
 10
349.413611
 20
361.233162
 30
0.0
 11
349.413611
 21
421.233041
 31
0.0
  0
LINE
  5
E3
330
DF
100
AcDbEntity
  8
0
  6
Continuous
 62
     0
370
    30
100
AcDbLine
 10
349.413611
 20
301.233283
 30
0.0
 11
349.413611
 21
361.233162
 31
0.0
  0
LINE
  5
E4
330
DF
100
AcDbEntity
  8
0
  6
Continuous
 62
     0
370
    30
100
AcDbLine
 10
342.909393
 20
361.233162
 30
0.0
 11
342.909393
 21
301.233283
 31
0.0
  0
LINE
  5
E5
330
DF
100
AcDbEntity
  8
0
  6
Continuous
 62
     0
370
    30
100
AcDbLine
 10
342.909393
 20
421.233041
 30
0.0
 11
342.909393
 21
361.233162
 31
0.0
  0
LINE
  5
E6
330
DF
100
AcDbEntity
  8
0
  6
Continuous
 62
     0
370
    30
100
AcDbLine
 10
352.716296
 20
383.483162
 30
0.0
 11
352.716297
 21
361.233162
 31
0.0
  0
LINE
  5
E7
330
DF
100
AcDbEntity
  8
0
  6
Continuous
 62
     0
370
    30
100
AcDbLine
 10
352.716297
 20
361.233162
 30
0.0
 11
352.716296
 21
338.983162
 31
0.0
  0
LWPOLYLINE
  5
E8
330
DF
100
AcDbEntity
  8
0
  6
Continuous
 62
     0
370
     0
100
AcDbPolyline
 90
        7
 70
     0
 43
0.0
 10
375.998779
 20
339.008453
 10
376.024719
 20
339.010254
 10
376.10202
 20
339.015503
 10
376.22876
 20
339.023499
 10
376.4021
 20
339.033325
 10
376.618225
 20
339.043854
 10
376.937653
 20
339.055939
  0
LWPOLYLINE
  5
E9
330
DF
100
AcDbEntity
  8
0
  6
Continuous
 62
     0
370
     0
100
AcDbPolyline
 90
       13
 70
     0
 43
0.0
 10
376.937653
 20
339.055939
 10
376.940216
 20
339.13208
 10
376.946564
 20
339.23764
 10
376.958313
 20
339.371399
 10
376.977081
 20
339.532227
 10
377.004669
 20
339.719116
 10
377.042999
 20
339.931152
 10
377.094971
 20
340.167969
 10
377.163879
 20
340.429291
 10
377.253021
 20
340.714783
 10
377.363312
 20
341.024017
 10
377.506958
 20
341.363831
 10
377.716949
 20
341.766998
  0
LWPOLYLINE
  5
EA
330
DF
100
AcDbEntity
  8
0
  6
Continuous
 62
     0
370
     0
100
AcDbPolyline
 90
        7
 70
     0
 43
0.0
 10
377.716949
 20
341.766998
 10
375.797638
 20
341.802704
 10
373.865265
 20
341.838257
 10
371.925781
 20
341.870819
 10
369.981995
 20
341.901245
 10
368.035889
 20
341.930298
 10
365.709381
 20
341.964111
  0
LINE
  5
EB
330
DF
100
AcDbEntity
  8
0
  6
Continuous
 62
     0
370
    30
100
AcDbLine
 10
365.709393
 20
341.964097
 30
0.0
 11
365.709393
 21
338.983592
 31
0.0
  0
LINE
  5
EC
330
DF
100
AcDbEntity
  8
0
  6
Continuous
 62
     0
370
     0
100
AcDbLine
 10
376.968327
 20
383.560024
 30
0.0
 11
376.968327
 21
380.725087
 31
0.0
  0
LWPOLYLINE
  5
ED
330
DF
100
AcDbEntity
  8
0
  6
Continuous
 62
     0
370
     0
100
AcDbPolyline
 90
        3
 70
     0
 43
0.0
 10
376.968323
 20
380.725098
 10
378.465881
 20
380.751587
 10
386.646027
 20
380.874542
  0
LWPOLYLINE
  5
EE
330
DF
100
AcDbEntity
  8
0
  6
Continuous
 62
     0
370
     0
100
AcDbPolyline
 90
       29
 70
     0
 43
0.0
 10
386.646027
 20
380.874542
 10
386.910187
 20
380.878754
 10
387.174316
 20
380.882294
 10
387.438477
 20
380.884186
 10
387.702606
 20
380.882812
 10
387.966553
 20
380.875854
 10
388.229767
 20
380.859375
 10
388.490906
 20
380.826965
 10
388.7453
 20
380.76709
 10
388.979523
 20
380.663574
 10
389.169434
 20
380.505676
 10
389.300934
 20
380.307251
 10
389.38736
 20
380.089935
 10
389.445312
 20
379.865021
 10
389.486694
 20
379.636993
 10
389.517731
 20
379.407288
 10
389.542511
 20
379.17688
 10
389.563171
 20
378.946533
 10
389.581512
 20
378.716919
 10
389.598511
 20
378.488617
 10
389.614899
 20
378.262177
 10
389.631317
 20
378.038086
 10
389.648041
 20
377.816589
 10
389.665375
 20
377.59787
 10
389.683502
 20
377.38208
 10
389.702423
 20
377.169128
 10
389.722198
 20
376.958954
 10
389.743042
 20
376.752289
 10
389.766327
 20
376.544952
  0
LWPOLYLINE
  5
EF
330
DF
100
AcDbEntity
  8
0
  6
Continuous
 62
     0
370
     0
100
AcDbPolyline
 90
        8
 70
     0
 43
0.0
 10
389.766327
 20
376.544952
 10
389.863037
 20
376.86676
 10
389.958344
 20
377.150574
 10
390.046478
 20
377.398071
 10
390.123627
 20
377.603088
 10
390.185303
 20
377.759491
 10
390.226379
 20
377.860443
 10
390.241486
 20
377.896698
  0
LWPOLYLINE
  5
F0
330
DF
100
AcDbEntity
  8
0
  6
Continuous
 62
     0
370
     0
100
AcDbPolyline
 90
        6
 70
     0
 43
0.0
 10
399.346924
 20
308.080444
 10
399.450317
 20
308.040771
 10
399.533569
 20
308.017212
 10
399.597961
 20
308.00296
 10
399.641693
 20
307.995453
 10
399.663269
 20
307.99231
  0
LWPOLYLINE
  5
F1
330
DF
100
AcDbEntity
  8
0
  6
Continuous
 62
     0
370
     0
100
AcDbPolyline
 90
       16
 70
     0
 43
0.0
 10
389.766327
 20
376.544952
 10
389.728271
 20
374.952423
 10
389.719482
 20
373.295654
 10
389.736542
 20
371.586975
 10
389.772247
 20
369.830383
 10
389.816956
 20
368.005157
 10
389.857513
 20
366.113495
 10
389.88797
 20
364.186096
 10
389.908325
 20
362.243652
 10
389.922089
 20
360.295471
 10
389.933655
 20
358.345367
 10
389.945953
 20
356.39444
 10
389.961456
 20
354.443207
 10
389.982758
 20
352.491882
 10
390.013428
 20
350.54068
 10
390.060333
 20
348.560974
  0
LWPOLYLINE
  5
F2
330
DF
100
AcDbEntity
  8
0
  6
Continuous
 62
     0
370
     0
100
AcDbPolyline
 90
       63
 70
     0
 43
0.0
 10
390.060333
 20
348.560974
 10
390.082855
 20
347.878357
 10
390.110443
 20
347.195923
 10
390.144958
 20
346.513733
 10
390.188477
 20
345.832092
 10
390.243134
 20
345.151306
 10
390.310669
 20
344.47168
 10
390.392487
 20
343.79361
 10
390.488678
 20
343.117462
 10
390.598511
 20
342.44339
 10
390.720459
 20
341.771393
 10
390.852631
 20
341.101227
 10
390.993042
 20
340.432739
 10
391.139893
 20
339.765686
 10
391.291626
 20
339.099823
 10
391.447174
 20
338.434875
 10
391.605499
 20
337.770599
 10
391.766052
 20
337.106812
 10
391.928406
 20
336.443481
 10
392.092224
 20
335.780518
 10
392.257263
 20
335.117859
 10
392.423462
 20
334.455475
 10
392.590668
 20
333.793396
 10
392.758789
 20
333.1315
 10
392.927704
 20
332.469849
 10
393.09729
 20
331.80835
 10
393.267426
 20
331.147034
 10
393.43808
 20
330.485809
 10
393.609222
 20
329.824738
 10
393.780792
 20
329.163788
 10
393.952759
 20
328.50296
 10
394.125092
 20
327.842224
 10
394.29776
 20
327.18158
 10
394.470734
 20
326.521027
 10
394.643951
 20
325.860535
 10
394.817413
 20
325.200134
 10
394.991058
 20
324.539795
 10
395.164856
 20
323.879486
 10
395.338745
 20
323.219208
 10
395.512756
 20
322.55899
 10
395.686768
 20
321.898773
 10
395.860809
 20
321.238556
 10
396.034851
 20
320.5784
 10
396.208893
 20
319.918243
 10
396.382904
 20
319.258148
 10
396.556915
 20
318.598114
 10
396.730927
 20
317.938141
 10
396.904877
 20
317.278259
 10
397.078827
 20
316.6185
 10
397.252716
 20
315.958923
 10
397.426544
 20
315.29953
 10
397.600311
 20
314.64035
 10
397.773956
 20
313.98172
 10
397.947357
 20
313.324036
 10
398.120361
 20
312.667755
 10
398.292847
 20
312.01355
 10
398.464386
 20
311.362885
 10
398.634216
 20
310.719025
 10
398.800873
 20
310.088867
 10
398.960938
 20
309.487427
 10
399.108124
 20
308.941406
 10
399.237488
 20
308.470123
 10
399.346924
 20
308.080444
  0
LWPOLYLINE
  5
F3
330
DF
100
AcDbEntity
  8
0
  6
Continuous
 62
     0
370
     0
100
AcDbPolyline
 90
       24
 70
     0
 43
0.0
 10
399.346924
 20
308.080444
 10
399.35849
 20
307.95343
 10
399.371307
 20
307.815247
 10
399.384827
 20
307.669098
 10
399.398773
 20
307.515961
 10
399.413025
 20
307.354889
 10
399.42749
 20
307.184937
 10
399.441772
 20
307.005737
 10
399.455414
 20
306.817108
 10
399.467651
 20
306.619415
 10
399.477081
 20
306.414337
 10
399.482025
 20
306.203888
 10
399.479462
 20
305.990875
 10
399.464844
 20
305.777466
 10
399.428467
 20
305.561646
 10
399.356232
 20
305.347778
 10
399.230286
 20
305.150085
 10
399.041534
 20
304.983063
 10
398.809723
 20
304.855499
 10
398.557129
 20
304.759125
 10
398.294373
 20
304.68692
 10
398.025146
 20
304.636017
 10
397.752228
 20
304.607178
 10
397.470428
 20
304.605896
  0
LWPOLYLINE
  5
F4
330
DF
100
AcDbEntity
  8
0
  6
Continuous
 62
     0
370
     0
100
AcDbPolyline
 90
       10
 70
     0
 43
0.0
 10
397.470428
 20
304.605896
 10
397.18335
 20
304.651703
 10
396.925659
 20
304.757782
 10
396.712738
 20
304.913361
 10
396.533875
 20
305.093262
 10
396.378693
 20
305.288635
 10
396.246033
 20
305.501556
 10
396.132812
 20
305.730042
 10
396.032806
 20
305.968567
 10
395.938232
 20
306.225189
  0
LWPOLYLINE
  5
F5
330
DF
100
AcDbEntity
  8
0
  6
Continuous
 62
     0
370
    30
100
AcDbPolyline
 90
        7
 70
     0
 43
0.0
 10
395.938232
 20
306.225189
 10
395.793793
 20
306.666748
 10
395.664429
 20
307.097626
 10
395.549469
 20
307.500732
 10
395.448486
 20
307.867462
 10
395.3591
 20
308.199921
 10
395.279144
 20
308.502441
  0
LWPOLYLINE
  5
F6
330
DF
100
AcDbEntity
  8
0
  6
Continuous
 62
     0
370
     0
100
AcDbPolyline
 90
       69
 70
     0
 43
0.0
 10
395.279144
 20
308.502441
 10
395.204651
 20
308.784271
 10
395.118073
 20
309.112
 10
395.018036
 20
309.490967
 10
394.904205
 20
309.922424
 10
394.779846
 20
310.393982
 10
394.649658
 20
310.887756
 10
394.516388
 20
311.393341
 10
394.3815
 20
311.904968
 10
394.245575
 20
312.419952
 10
394.108887
 20
312.93689
 10
393.971497
 20
313.455017
 10
393.833435
 20
313.973846
 10
393.694763
 20
314.493164
 10
393.555542
 20
315.012726
 10
393.415741
 20
315.53241
 10
393.275452
 20
316.052185
 10
393.134674
 20
316.57196
 10
392.993378
 20
317.091705
 10
392.851624
 20
317.611389
 10
392.709442
 20
318.131012
 10
392.566803
 20
318.650543
 10
392.423737
 20
319.169983
 10
392.280243
 20
319.689331
 10
392.136383
 20
320.208557
 10
391.992126
 20
320.727722
 10
391.847473
 20
321.246765
 10
391.702423
 20
321.765717
 10
391.556946
 20
322.284546
 10
391.411011
 20
322.803223
 10
391.264587
 20
323.321808
 10
391.117676
 20
323.84024
 10
390.970184
 20
324.35849
 10
390.822083
 20
324.876587
 10
390.673309
 20
325.39447
 10
390.523834
 20
325.91214
 10
390.373596
 20
326.429565
 10
390.222534
 20
326.946747
 10
390.070587
 20
327.463654
 10
389.917725
 20
327.980286
 10
389.763916
 20
328.496582
 10
389.609039
 20
329.012543
 10
389.452972
 20
329.528076
 10
389.295593
 20
330.043213
 10
389.13681
 20
330.557831
 10
388.97644
 20
331.07193
 10
388.814301
 20
331.585388
 10
388.650116
 20
332.098083
 10
388.483612
 20
332.609955
 10
388.314514
 20
333.120819
 10
388.142426
 20
333.630524
 10
387.966522
 20
334.138672
 10
387.785919
 20
334.644775
 10
387.599609
 20
335.148376
 10
387.406494
 20
335.648743
 10
387.204803
 20
336.144745
 10
386.992645
 20
336.635101
 10
386.767487
 20
337.117828
 10
386.525085
 20
337.589294
 10
386.260437
 20
338.044708
 10
385.965637
 20
338.474701
 10
385.631561
 20
338.865601
 10
385.250397
 20
339.199127
 10
384.825256
 20
339.472168
 10
384.364014
 20
339.695618
 10
383.871216
 20
339.876434
 10
383.35553
 20
340.023651
 10
382.829773
 20
340.150024
 10
382.303894
 20
340.269806
  0
LWPOLYLINE
  5
F7
330
DF
100
AcDbEntity
  8
0
  6
Continuous
 62
     0
370
     0
100
AcDbPolyline
 90
        6
 70
     0
 43
0.0
 10
382.303894
 20
340.269806
 10
381.329285
 20
340.511383
 10
380.407196
 20
340.776947
 10
379.513763
 20
341.069336
 10
378.633942
 20
341.391663
 10
377.716949
 20
341.766998
  0
LWPOLYLINE
  5
F8
330
DF
100
AcDbEntity
  8
0
  6
Continuous
 62
     0
370
     0
100
AcDbPolyline
 90
       14
 70
     0
 43
0.0
 10
376.937653
 20
339.055939
 10
377.296661
 20
339.064484
 10
377.692719
 20
339.06781
 10
378.112366
 20
339.064362
 10
378.543701
 20
339.053314
 10
378.974579
 20
339.034485
 10
379.391907
 20
339.008698
 10
379.783051
 20
338.977478
 10
380.1362
 20
338.943176
 10
380.440857
 20
338.9086
 10
380.687927
 20
338.876953
 10
380.870392
 20
338.851318
 10
380.982819
 20
338.834503
 10
381.022461
 20
338.828369
  0
LWPOLYLINE
  5
F9
330
DF
100
AcDbEntity
  8
0
  6
Continuous
 62
     0
370
     0
100
AcDbPolyline
 90
       12
 70
     0
 43
0.0
 10
386.692596
 20
347.536041
 10
386.417816
 20
347.857391
 10
386.106384
 20
348.142822
 10
385.762238
 20
348.387665
 10
385.394775
 20
348.595581
 10
385.0065
 20
348.762177
 10
384.603455
 20
348.888733
 10
384.19104
 20
348.979919
 10
383.773315
 20
349.041656
 10
383.352905
 20
349.079559
 10
382.931488
 20
349.099945
 10
382.503967
 20
349.109589
  0
LWPOLYLINE
  5
FA
330
DF
100
AcDbEntity
  8
0
  6
Continuous
 62
     0
370
     0
100
AcDbPolyline
 90
        9
 70
     0
 43
0.0
 10
382.503967
 20
349.109589
 10
382.492371
 20
348.318237
 10
382.478455
 20
347.536957
 10
382.462494
 20
346.770966
 10
382.445282
 20
346.02713
 10
382.428528
 20
345.315369
 10
382.415558
 20
344.647552
 10
382.412292
 20
344.033966
 10
382.433289
 20
343.388275
  0
LWPOLYLINE
  5
FB
330
DF
100
AcDbEntity
  8
0
  6
Continuous
 62
     0
370
     0
100
AcDbPolyline
 90
        6
 70
     0
 43
0.0
 10
382.433289
 20
343.388275
 10
382.469391
 20
343.000458
 10
382.529663
 20
342.626007
 10
382.622223
 20
342.264557
 10
382.758728
 20
341.915649
 10
382.963257
 20
341.551331
  0
ARC
  5
FC
330
DF
100
AcDbEntity
  8
0
  6
Continuous
 62
     0
370
     0
100
AcDbCircle
 10
382.029332
 20
336.812268
 30
0.0
 40
4.830201928163612
100
AcDbArc
 50
52.368645
 51
78.851613
  0
LWPOLYLINE
  5
FD
330
DF
100
AcDbEntity
  8
0
  6
Continuous
 62
     0
370
     0
100
AcDbPolyline
 90
       13
 70
     0
 43
0.0
 10
384.978546
 20
340.637573
 10
384.990784
 20
341.008636
 10
385.019501
 20
341.444
 10
385.077667
 20
341.924805
 10
385.176392
 20
342.433655
 10
385.324249
 20
342.95517
 10
385.516083
 20
343.498779
 10
385.730164
 20
344.087616
 10
385.947357
 20
344.721771
 10
386.15567
 20
345.391998
 10
386.349884
 20
346.086487
 10
386.526093
 20
346.799652
 10
386.692596
 20
347.536041
  0
LWPOLYLINE
  5
FE
330
DF
100
AcDbEntity
  8
0
  6
Continuous
 62
     0
370
     0
100
AcDbPolyline
 90
       28
 70
     0
 43
0.0
 10
386.692596
 20
347.536041
 10
386.682617
 20
348.915405
 10
386.677185
 20
350.29599
 10
386.673065
 20
351.677277
 10
386.66983
 20
353.058868
 10
386.667633
 20
354.440643
 10
386.666656
 20
355.822418
 10
386.666565
 20
357.203979
 10
386.666992
 20
358.585175
 10
386.667633
 20
359.965698
 10
386.668304
 20
361.345184
 10
386.668732
 20
362.723022
 10
386.668671
 20
364.098022
 10
386.667847
 20
365.468384
 10
386.666321
 20
366.830719
 10
386.664185
 20
368.179993
 10
386.661499
 20
369.508606
 10
386.658539
 20
370.806854
 10
386.655548
 20
372.06424
 10
386.652924
 20
373.27298
 10
386.650848
 20
374.428833
 10
386.649261
 20
375.530731
 10
386.648132
 20
376.576721
 10
386.647339
 20
377.564545
 10
386.64679
 20
378.492645
 10
386.646423
 20
379.356995
 10
386.64621
 20
380.150696
 10
386.646027
 20
380.874542
  0
LWPOLYLINE
  5
FF
330
DF
100
AcDbEntity
  8
0
  6
Continuous
 62
     0
370
     0
100
AcDbPolyline
 90
       27
 70
     0
 43
0.0
 10
376.968323
 20
380.725098
 10
376.968323
 20
380.012146
 10
376.968323
 20
379.22467
 10
376.968323
 20
378.368103
 10
376.968323
 20
377.448486
 10
376.968323
 20
376.469971
 10
376.968323
 20
375.434448
 10
376.968323
 20
374.344513
 10
376.968323
 20
373.203278
 10
376.968323
 20
372.013733
 10
376.968323
 20
370.779968
 10
376.968323
 20
369.50824
 10
376.968323
 20
368.205658
 10
376.968323
 20
366.879669
 10
376.968323
 20
365.536682
 10
376.968323
 20
364.182373
 10
376.968323
 20
362.820862
 10
376.968323
 20
361.455322
 10
376.968292
 20
360.087585
 10
376.96817
 20
358.719299
 10
376.967865
 20
357.352173
 10
376.967377
 20
355.98764
 10
376.966583
 20
354.626068
 10
376.965424
 20
353.268219
 10
376.963776
 20
351.919342
 10
376.961517
 20
350.586243
 10
376.958313
 20
349.239136
  0
LWPOLYLINE
  5
100
330
DF
100
AcDbEntity
  8
0
  6
Continuous
 62
     0
370
     0
100
AcDbPolyline
 90
        4
 70
     0
 43
0.0
 10
376.958313
 20
349.239136
 10
378.717743
 20
349.159271
 10
380.476135
 20
349.121918
 10
382.503967
 20
349.109589
  0
LWPOLYLINE
  5
101
330
DF
100
AcDbEntity
  8
0
  6
Continuous
 62
     0
370
     0
100
AcDbPolyline
 90
       37
 70
     0
 43
0.0
 10
386.692596
 20
347.536041
 10
386.924011
 20
347.710388
 10
387.167816
 20
347.8703
 10
387.421326
 20
348.018372
 10
387.683441
 20
348.154907
 10
387.954742
 20
348.275269
 10
388.235626
 20
348.373566
 10
388.52243
 20
348.446472
 10
388.806366
 20
348.493774
 10
389.066559
 20
348.521454
 10
389.266785
 20
348.53952
 10
389.39328
 20
348.548584
 10
389.473145
 20
348.552765
 10
389.528351
 20
348.554657
 10
389.570648
 20
348.555573
 10
389.605896
 20
348.556061
 10
389.636963
 20
348.556427
 10
389.665222
 20
348.556702
 10
389.691681
 20
348.556946
 10
389.716553
 20
348.557159
 10
389.740112
 20
348.557373
 10
389.762573
 20
348.557587
 10
389.784149
 20
348.55777
 10
389.805084
 20
348.557953
 10
389.825562
 20
348.558136
 10
389.845825
 20
348.558319
 10
389.865875
 20
348.558533
 10
389.885773
 20
348.558746
 10
389.905518
 20
348.55896
 10
389.92511
 20
348.559174
 10
389.94458
 20
348.559418
 10
389.963959
 20
348.559662
 10
389.983246
 20
348.559906
 10
390.002472
 20
348.56015
 10
390.021667
 20
348.560425
 10
390.040771
 20
348.560669
 10
390.060333
 20
348.560974
  0
LWPOLYLINE
  5
102
330
DF
100
AcDbEntity
  8
0
  6
Continuous
 62
     0
370
     0
100
AcDbPolyline
 90
       59
 70
     0
 43
0.0
 10
386.692596
 20
347.536041
 10
386.860809
 20
346.741211
 10
387.024323
 20
345.945312
 10
387.185303
 20
345.148895
 10
387.345795
 20
344.352386
 10
387.507599
 20
343.556152
 10
387.672241
 20
342.760498
 10
387.841125
 20
341.965759
 10
388.015228
 20
341.172119
 10
388.194153
 20
340.379547
 10
388.37735
 20
339.587952
 10
388.564301
 20
338.797241
 10
388.754517
 20
338.007324
 10
388.94754
 20
337.218079
 10
389.142853
 20
336.429443
 10
389.340057
 20
335.641296
 10
389.538696
 20
334.853516
 10
389.738556
 20
334.066101
 10
389.939484
 20
333.278961
 10
390.141357
 20
332.492096
 10
390.344055
 20
331.705475
 10
390.547424
 20
330.919098
 10
390.751312
 20
330.132874
 10
390.955719
 20
329.346832
 10
391.160553
 20
328.560944
 10
391.365784
 20
327.775269
 10
391.571381
 20
326.989716
 10
391.777283
 20
326.204346
 10
391.983429
 20
325.419098
 10
392.189789
 20
324.634033
 10
392.396332
 20
323.849152
 10
392.602997
 20
323.064423
 10
392.809692
 20
322.279877
 10
393.016449
 20
321.495544
 10
393.223145
 20
320.711426
 10
393.42981
 20
319.927551
 10
393.636353
 20
319.144012
 10
393.842804
 20
318.360931
 10
394.049133
 20
317.5784
 10
394.25528
 20
316.796478
 10
394.461212
 20
316.01535
 10
394.66684
 20
315.23526
 10
394.872162
 20
314.456482
 10
395.077057
 20
313.679321
 10
395.281403
 20
312.904144
 10
395.484955
 20
312.13205
 10
395.687317
 20
311.364441
 10
395.888184
 20
310.6026
 10
396.086975
 20
309.848511
 10
396.282806
 20
309.105652
 10
396.473816
 20
308.381165
 10
396.656921
 20
307.686707
 10
396.827759
 20
307.03891
 10
396.981567
 20
306.455902
 10
397.115112
 20
305.949799
 10
397.22821
 20
305.521576
 10
397.323029
 20
305.162903
 10
397.402466
 20
304.862549
 10
397.470428
 20
304.605896
  0
LWPOLYLINE
  5
103
330
DF
100
AcDbEntity
  8
0
  6
Continuous
 62
     0
370
     0
100
AcDbPolyline
 90
       59
 70
     0
 43
0.0
 10
384.978546
 20
340.637573
 10
385.425446
 20
340.237549
 10
385.821289
 20
339.765167
 10
386.170074
 20
339.235352
 10
386.481842
 20
338.667206
 10
386.766144
 20
338.076355
 10
387.029877
 20
337.46991
 10
387.277802
 20
336.852386
 10
387.513397
 20
336.227325
 10
387.739044
 20
335.596741
 10
387.956696
 20
334.962036
 10
388.167908
 20
334.324219
 10
388.374115
 20
333.684113
 10
388.576477
 20
333.042358
 10
388.775513
 20
332.399261
 10
388.971588
 20
331.754974
 10
389.165009
 20
331.10965
 10
389.356201
 20
330.46347
 10
389.545441
 20
329.81662
 10
389.733124
 20
329.16925
 10
389.919403
 20
328.521423
 10
390.10437
 20
327.873199
 10
390.288116
 20
327.224609
 10
390.470764
 20
326.575684
 10
390.652374
 20
325.926453
 10
390.833069
 20
325.276947
 10
391.01297
 20
324.627258
 10
391.192078
 20
323.977356
 10
391.370544
 20
323.327271
 10
391.548431
 20
322.677094
 10
391.725769
 20
322.026794
 10
391.902679
 20
321.376434
 10
392.079224
 20
320.726044
 10
392.255402
 20
320.075653
 10
392.431274
 20
319.425323
 10
392.60675
 20
318.775055
 10
392.78186
 20
318.124969
 10
392.956573
 20
317.475067
 10
393.130859
 20
316.825409
 10
393.304688
 20
316.176117
 10
393.477997
 20
315.527374
 10
393.650787
 20
314.879333
 10
393.822937
 20
314.232178
 10
393.994476
 20
313.586151
 10
394.165131
 20
312.942047
 10
394.334717
 20
312.300903
 10
394.503021
 20
311.663666
 10
394.669769
 20
311.031586
 10
394.834442
 20
310.406952
 10
394.996033
 20
309.794037
 10
395.152557
 20
309.200378
 10
395.300873
 20
308.637909
 10
395.437195
 20
308.121124
 10
395.558014
 20
307.663208
 10
395.661774
 20
307.270264
 10
395.74939
 20
306.938629
 10
395.822998
 20
306.660248
 10
395.88504
 20
306.425903
 10
395.938232
 20
306.225189
  0
LWPOLYLINE
  5
104
330
DF
100
AcDbEntity
  8
0
  6
Continuous
 62
     0
370
     0
100
AcDbPolyline
 90
        7
 70
     0
 43
0.0
 10
382.963257
 20
341.551331
 10
382.740051
 20
341.302338
 10
382.582642
 20
341.069336
 10
382.47522
 20
340.852417
 10
382.399994
 20
340.649658
 10
382.34549
 20
340.45871
 10
382.303894
 20
340.269806
  0
LWPOLYLINE
  5
105
330
DF
100
AcDbEntity
  8
0
  6
Continuous
 62
     0
370
     0
100
AcDbPolyline
 90
       12
 70
     0
 43
0.0
 10
376.958313
 20
349.239136
 10
376.955963
 20
348.361694
 10
376.955719
 20
347.507935
 10
376.960999
 20
346.685089
 10
376.975861
 20
345.899902
 10
377.004364
 20
345.158264
 10
377.051239
 20
344.465057
 10
377.121735
 20
343.823608
 10
377.220428
 20
343.234406
 10
377.348724
 20
342.695404
 10
377.51004
 20
342.209717
 10
377.716949
 20
341.766998
  0
LWPOLYLINE
  5
106
330
DF
100
AcDbEntity
  8
0
  6
Continuous
 62
     0
370
     0
100
AcDbPolyline
 90
        9
 70
     0
 43
0.0
 10
377.716949
 20
341.766998
 10
378.236847
 20
341.96225
 10
378.767853
 20
342.159393
 10
379.31308
 20
342.364441
 10
379.874664
 20
342.575958
 10
380.455994
 20
342.790497
 10
381.062653
 20
343.004028
 10
381.700867
 20
343.206329
 10
382.433289
 20
343.388275
  0
LINE
  5
107
330
DF
100
AcDbEntity
  8
0
  6
Continuous
 62
     0
370
    30
100
AcDbLine
 10
365.709393
 20
341.964097
 30
0.0
 11
365.709393
 21
361.280358
 31
0.0
  0
LWPOLYLINE
  5
108
330
DF
100
AcDbEntity
  8
0
  6
Continuous
 62
     0
370
    30
100
AcDbPolyline
 90
       29
 70
     0
 43
0.0
 10
374.254913
 20
383.542358
 10
374.24057
 20
383.504913
 10
374.197662
 20
383.393066
 10
374.126495
 20
383.20755
 10
374.027283
 20
382.949188
 10
373.900421
 20
382.618835
 10
373.74646
 20
382.217957
 10
373.566071
 20
381.748199
 10
373.359955
 20
381.21109
 10
373.128876
 20
380.608582
 10
372.87381
 20
379.943756
 10
372.596008
 20
379.220123
 10
372.29718
 20
378.441895
 10
371.979065
 20
377.61319
 10
371.642883
 20
376.737396
 10
371.289825
 20
375.817688
 10
370.921021
 20
374.856964
 10
370.537598
 20
373.858154
 10
370.140656
 20
372.824158
 10
369.731323
 20
371.757904
 10
369.311005
 20
370.662994
 10
368.881165
 20
369.543213
 10
368.443329
 20
368.402527
 10
367.99884
 20
367.244507
 10
367.548431
 20
366.071167
 10
367.092773
 20
364.88446
 10
366.633453
 20
363.68808
 10
366.17215
 20
362.486206
 10
365.709381
 20
361.280365
  0
LWPOLYLINE
  5
109
330
DF
100
AcDbEntity
  8
0
  6
Continuous
 62
     0
370
    30
100
AcDbPolyline
 90
        4
 70
     0
 43
0.0
 10
381.022461
 20
338.828369
 10
379.396606
 20
338.933136
 10
377.768158
 20
338.98526
 10
375.998749
 20
339.008423
  0
LINE
  5
10A
330
DF
100
AcDbEntity
  8
0
  6
Continuous
 62
     0
370
    30
100
AcDbLine
 10
376.968327
 20
383.560173
 30
0.0
 11
374.253918
 21
383.542366
 31
0.0
  0
LWPOLYLINE
  5
10B
330
DF
100
AcDbEntity
  8
0
  6
Continuous
 62
     0
370
    30
100
AcDbPolyline
 90
       31
 70
     0
 43
0.0
 10
393.432343
 20
315.470825
 10
393.450653
 20
315.402893
 10
393.497162
 20
315.229919
 10
393.561096
 20
314.99173
 10
393.632874
 20
314.723816
 10
393.709076
 20
314.438843
 10
393.787384
 20
314.145477
 10
393.866486
 20
313.848602
 10
393.945831
 20
313.550262
 10
394.024933
 20
313.252289
 10
394.103607
 20
312.955383
 10
394.18158
 20
312.660797
 10
394.259094
 20
312.367432
 10
394.336304
 20
312.074951
 10
394.413025
 20
311.784088
 10
394.489502
 20
311.49411
 10
394.56604
 20
311.203674
 10
394.642242
 20
310.914673
 10
394.717529
 20
310.629089
 10
394.791473
 20
310.348633
 10
394.863525
 20
310.075378
 10
394.932983
 20
309.812103
 10
394.999695
 20
309.559113
 10
395.06192
 20
309.323303
 10
395.118805
 20
309.107788
 10
395.170563
 20
308.911865
 10
395.217682
 20
308.733521
 10
395.259766
 20
308.574371
 10
395.295654
 20
308.438782
 10
395.327637
 20
308.318237
 10
395.354431
 20
308.217468
  0
LWPOLYLINE
  5
10C
330
DF
100
AcDbEntity
  8
0
  6
Continuous
 62
     0
370
    30
100
AcDbPolyline
 90
       60
 70
     0
 43
0.0
 10
393.417633
 20
315.525482
 10
393.290588
 20
315.990417
 10
393.162933
 20
316.45517
 10
393.034607
 20
316.919769
 10
392.90567
 20
317.384155
 10
392.776154
 20
317.848389
 10
392.646027
 20
318.312469
 10
392.51532
 20
318.776367
 10
392.384033
 20
319.240143
 10
392.252228
 20
319.703735
 10
392.119904
 20
320.167175
 10
391.987061
 20
320.630493
 10
391.853699
 20
321.093628
 10
391.719818
 20
321.556641
 10
391.585388
 20
322.019501
 10
391.450439
 20
322.482178
 10
391.314941
 20
322.944733
 10
391.178894
 20
323.407074
 10
391.042267
 20
323.869293
 10
390.905029
 20
324.331299
 10
390.767181
 20
324.793152
 10
390.628693
 20
325.254791
 10
390.489441
 20
325.716187
 10
390.349396
 20
326.177399
 10
390.208557
 20
326.638306
 10
390.066803
 20
327.098969
 10
389.924072
 20
327.559357
 10
389.780334
 20
328.019379
 10
389.635437
 20
328.479065
 10
389.48941
 20
328.938354
 10
389.342102
 20
329.397278
 10
389.193451
 20
329.855743
 10
389.043427
 20
330.313751
 10
388.891754
 20
330.77124
 10
388.738281
 20
331.228088
 10
388.582764
 20
331.684296
 10
388.425049
 20
332.139771
 10
388.264801
 20
332.59436
 10
388.101227
 20
333.04776
 10
387.933533
 20
333.499603
 10
387.760773
 20
333.949524
 10
387.582153
 20
334.397156
 10
387.396606
 20
334.84198
 10
387.202271
 20
335.28302
 10
386.99704
 20
335.719116
 10
386.777832
 20
336.148315
 10
386.540344
 20
336.567719
 10
386.277802
 20
336.971771
 10
385.981171
 20
337.351379
 10
385.639313
 20
337.690552
 10
385.244965
 20
337.966675
 10
384.812805
 20
338.178925
 10
384.358978
 20
338.341461
 10
383.893677
 20
338.466248
 10
383.421021
 20
338.560577
 10
382.944427
 20
338.631866
 10
382.465851
 20
338.689331
 10
381.986572
 20
338.740265
 10
381.506897
 20
338.787323
 10
381.022461
 20
338.8284
  0
LWPOLYLINE
  5
10D
330
DF
100
AcDbEntity
  8
0
  6
Continuous
 62
     0
370
    30
100
AcDbPolyline
 90
       39
 70
     0
 43
0.0
 10
395.732574
 20
306.81543
 10
395.808502
 20
306.539032
 10
395.885437
 20
306.263123
 10
395.963501
 20
305.987671
 10
396.042877
 20
305.712616
 10
396.124054
 20
305.437836
 10
396.208099
 20
305.163696
 10
396.296478
 20
304.890991
 10
396.390839
 20
304.620331
 10
396.4935
 20
304.352692
 10
396.609344
 20
304.090454
 10
396.747192
 20
303.839233
 10
396.916138
 20
303.608124
 10
397.114471
 20
303.401031
 10
397.344055
 20
303.23056
 10
397.609375
 20
303.124084
 10
397.892517
 20
303.081421
 10
398.178955
 20
303.086182
 10
398.463226
 20
303.12265
 10
398.742767
 20
303.185822
 10
399.014496
 20
303.276764
 10
399.273804
 20
303.398529
 10
399.510223
 20
303.56012
 10
399.705261
 20
303.769196
 10
399.844421
 20
304.019135
 10
399.930847
 20
304.292145
 10
399.978119
 20
304.574768
 10
399.999298
 20
304.860626
 10
400.003113
 20
305.147156
 10
399.994263
 20
305.433777
 10
399.976868
 20
305.719971
 10
399.952972
 20
306.005615
 10
399.923645
 20
306.290771
 10
399.889587
 20
306.575409
 10
399.851471
 20
306.859528
 10
399.809692
 20
307.143158
 10
399.764526
 20
307.42627
 10
399.716064
 20
307.708801
 10
399.664124
 20
307.99234
  0
LWPOLYLINE
  5
10E
330
DF
100
AcDbEntity
  8
0
  6
Continuous
 62
     0
370
    30
100
AcDbPolyline
 90
       23
 70
     0
 43
0.0
 10
395.731323
 20
306.819916
 10
395.739624
 20
306.789581
 10
395.745026
 20
306.769775
 10
395.750092
 20
306.751343
 10
395.7547
 20
306.734497
 10
395.758575
 20
306.720398
 10
395.75058
 20
306.749512
 10
395.73999
 20
306.788208
 10
395.729645
 20
306.82608
 10
395.718414
 20
306.867249
 10
395.705933
 20
306.912994
 10
395.690826
 20
306.968414
 10
395.675201
 20
307.025879
 10
395.658691
 20
307.086548
 10
395.642029
 20
307.147949
 10
395.621613
 20
307.223175
 10
395.598663
 20
307.307892
 10
395.573883
 20
307.399536
 10
395.546051
 20
307.502533
 10
395.516266
 20
307.612976
 10
395.478882
 20
307.751984
 10
395.427887
 20
307.942139
 10
395.374146
 20
308.143585
  0
LWPOLYLINE
  5
10F
330
DF
100
AcDbEntity
  8
0
  6
Continuous
 62
     0
370
    30
100
AcDbPolyline
 90
       44
 70
     0
 43
0.0
 10
399.664124
 20
307.99234
 10
399.306763
 20
309.603821
 10
398.894684
 20
311.202423
 10
398.473572
 20
312.798676
 10
398.052856
 20
314.39502
 10
397.631989
 20
315.991333
 10
397.211151
 20
317.587646
 10
396.790314
 20
319.18396
 10
396.369354
 20
320.780243
 10
395.948517
 20
322.376526
 10
395.528107
 20
323.972961
 10
395.108582
 20
325.569641
 10
394.690521
 20
327.166656
 10
394.274506
 20
328.764252
 10
393.861359
 20
330.362579
 10
393.452118
 20
331.961914
 10
393.047791
 20
333.562469
 10
392.649475
 20
335.164551
 10
392.259399
 20
336.768646
 10
391.881927
 20
338.375763
 10
391.52594
 20
339.987762
 10
391.208038
 20
341.607697
 10
390.951447
 20
343.238342
 10
390.776489
 20
344.87973
 10
390.675629
 20
346.527405
 10
390.621948
 20
348.177368
 10
390.589417
 20
349.827881
 10
390.567993
 20
351.478607
 10
390.552277
 20
353.129395
 10
390.540863
 20
354.780212
 10
390.532471
 20
356.43103
 10
390.526062
 20
358.081879
 10
390.520569
 20
359.732727
 10
390.514679
 20
361.383575
 10
390.507019
 20
363.034424
 10
390.495728
 20
364.685242
 10
390.479034
 20
366.335999
 10
390.456085
 20
367.986694
 10
390.427917
 20
369.637299
 10
390.3992
 20
371.287903
 10
390.371185
 20
372.938538
 10
390.339722
 20
374.589081
 10
390.2995
 20
376.239471
 10
390.241486
 20
377.896698
  0
LWPOLYLINE
  5
110
330
DF
100
AcDbEntity
  8
0
  6
Continuous
 62
     0
370
    30
100
AcDbPolyline
 90
       65
 70
     0
 43
0.0
 10
376.968323
 20
383.560181
 10
377.248138
 20
383.56192
 10
377.527985
 20
383.563629
 10
377.8078
 20
383.565338
 10
378.087616
 20
383.567017
 10
378.367432
 20
383.568665
 10
378.647278
 20
383.570312
 10
378.927094
 20
383.57193
 10
379.206909
 20
383.573517
 10
379.486755
 20
383.575073
 10
379.766571
 20
383.576599
 10
380.046387
 20
383.578125
 10
380.326233
 20
383.57959
 10
380.606049
 20
383.581024
 10
380.885864
 20
383.582397
 10
381.16568
 20
383.583771
 10
381.445526
 20
383.585144
 10
381.725342
 20
383.586456
 10
382.005157
 20
383.587799
 10
382.285004
 20
383.589111
 10
382.564819
 20
383.590454
 10
382.844666
 20
383.591797
 10
383.124481
 20
383.59317
 10
383.404297
 20
383.594543
 10
383.684113
 20
383.595978
 10
383.963959
 20
383.597443
 10
384.243774
 20
383.598907
 10
384.52359
 20
383.600372
 10
384.803436
 20
383.601837
 10
385.083252
 20
383.603271
 10
385.363098
 20
383.604736
 10
385.642914
 20
383.606201
 10
385.922729
 20
383.607758
 10
386.202545
 20
383.609406
 10
386.482361
 20
383.611145
 10
386.762177
 20
383.612732
 10
387.042023
 20
383.613892
 10
387.321869
 20
383.614044
 10
387.601715
 20
383.611694
 10
387.881439
 20
383.60495
 10
388.160919
 20
383.591217
 10
388.439484
 20
383.564758
 10
388.714996
 20
383.516418
 10
388.982513
 20
383.434509
 10
389.227203
 20
383.300598
 10
389.42749
 20
383.106384
 10
389.575653
 20
382.869568
 10
389.684235
 20
382.611786
 10
389.767273
 20
382.344604
 10
389.833374
 20
382.072723
 10
389.888519
 20
381.79837
 10
389.936096
 20
381.522644
 10
389.977631
 20
381.245911
 10
390.01413
 20
380.968445
 10
390.046478
 20
380.690491
 10
390.075439
 20
380.41217
 10
390.101471
 20
380.133545
 10
390.125122
 20
379.854736
 10
390.146667
 20
379.575745
 10
390.16629
 20
379.2966
 10
390.184143
 20
379.017334
 10
390.200409
 20
378.737976
 10
390.215271
 20
378.458527
 10
390.228851
 20
378.179016
 10
390.241486
 20
377.896698
  0
LWPOLYLINE
  5
111
330
DF
100
AcDbEntity
  8
0
  6
Continuous
 62
     0
370
    30
100
AcDbPolyline
 90
        4
 70
     0
 43
0.0
 10
375.998779
 20
339.008423
 10
372.982666
 20
339.01944
 10
369.966522
 20
339.009583
 10
365.709381
 20
338.983154
  0
ARC
  5
112
330
DF
100
AcDbEntity
  8
0
  6
Continuous
 62
     0
370
    30
100
AcDbCircle
 10
361.523112
 20
361.029993
 30
0.0
 40
20.50009542241312
100
AcDbArc
 50
58.265731
 51
86.122521
  0
ARC
  5
113
330
DF
100
AcDbEntity
  8
0
  6
Continuous
 62
     0
370
    30
100
AcDbCircle
 10
361.523119
 20
361.436403
 30
0.0
 40
20.50016677564891
100
AcDbArc
 50
273.877445
 51
281.783069
  0
LINE
  5
114
330
DF
100
AcDbEntity
  8
0
  6
Continuous
 62
     0
370
    30
100
AcDbLine
 10
349.413611
 20
421.233041
 30
0.0
 11
352.716296
 21
383.483162
 31
0.0
  0
LINE
  5
115
330
DF
100
AcDbEntity
  8
0
  6
Continuous
 62
     0
370
    30
100
AcDbLine
 10
349.413611
 20
301.233283
 30
0.0
 11
352.716296
 21
338.983162
 31
0.0
  0
LINE
  5
116
330
DF
100
AcDbEntity
  8
0
  6
Continuous
 62
     0
370
    30
100
AcDbLine
 10
349.413611
 20
421.233041
 30
0.0
 11
342.909393
 21
421.233041
 31
0.0
  0
LINE
  5
117
330
DF
100
AcDbEntity
  8
0
  6
Continuous
 62
     0
370
    30
100
AcDbLine
 10
349.413611
 20
301.233283
 30
0.0
 11
342.909393
 21
301.233283
 31
0.0
  0
LINE
  5
118
330
DF
100
AcDbEntity
  8
0
  6
Continuous
 62
     0
370
    30
100
AcDbLine
 10
352.716296
 20
383.433162
 30
0.0
 11
362.909393
 21
383.433162
 31
0.0
  0
ENDBLK
  5
11A
330
DF
100
AcDbEntity
  8
0
100
AcDbBlockEnd
  0
BLOCK
  5
156
330
11C
100
AcDbEntity
  8
0
100
AcDbBlockBegin
  2
d
 70
     0
 10
69.363895
 20
0.0
 30
0.0
  3
d
  1

  0
LINE
  5
11D
330
11C
100
AcDbEntity
  8
0
  6
Continuous
 62
     0
370
    30
100
AcDbLine
 10
26.395344
 20
383.433162
 30
0.0
 11
26.395344
 21
339.033162
 31
0.0
  0
LINE
  5
11E
330
11C
100
AcDbEntity
  8
0
  6
Continuous
 62
     0
370
    30
100
AcDbLine
 10
26.395344
 20
339.033162
 30
0.0
 11
36.588441
 21
339.033162
 31
0.0
  0
LINE
  5
11F
330
11C
100
AcDbEntity
  8
0
  6
Continuous
 62
     0
370
    30
100
AcDbLine
 10
39.891126
 20
421.233041
 30
0.0
 11
39.891126
 21
361.233162
 31
0.0
  0
LINE
  5
120
330
11C
100
AcDbEntity
  8
0
  6
Continuous
 62
     0
370
    30
100
AcDbLine
 10
39.891126
 20
361.233162
 30
0.0
 11
39.891126
 21
301.233283
 31
0.0
  0
LINE
  5
121
330
11C
100
AcDbEntity
  8
0
  6
Continuous
 62
     0
370
    30
100
AcDbLine
 10
46.395344
 20
301.233283
 30
0.0
 11
46.395344
 21
361.233162
 31
0.0
  0
LINE
  5
122
330
11C
100
AcDbEntity
  8
0
  6
Continuous
 62
     0
370
    30
100
AcDbLine
 10
46.395344
 20
361.233162
 30
0.0
 11
46.395344
 21
421.233041
 31
0.0
  0
LINE
  5
123
330
11C
100
AcDbEntity
  8
0
  6
Continuous
 62
     0
370
    30
100
AcDbLine
 10
36.58844
 20
361.233162
 30
0.0
 11
36.588441
 21
383.483162
 31
0.0
  0
LINE
  5
124
330
11C
100
AcDbEntity
  8
0
  6
Continuous
 62
     0
370
    30
100
AcDbLine
 10
36.588441
 20
338.983162
 30
0.0
 11
36.58844
 21
361.233162
 31
0.0
  0
LWPOLYLINE
  5
125
330
11C
100
AcDbEntity
  8
0
  6
Continuous
 62
     0
370
     0
100
AcDbPolyline
 90
        7
 70
     0
 43
0.0
 10
23.595345
 20
341.964111
 10
21.648455
 20
341.935852
 10
19.702259
 20
341.907013
 10
17.758099
 20
341.876923
 10
15.817753
 20
341.844849
 10
13.884011
 20
341.809723
 10
11.587774
 20
341.766998
  0
LWPOLYLINE
  5
126
330
11C
100
AcDbEntity
  8
0
  6
Continuous
 62
     0
370
     0
100
AcDbPolyline
 90
       13
 70
     0
 43
0.0
 10
11.587774
 20
341.766998
 10
11.782377
 20
341.397095
 10
11.929876
 20
341.054321
 10
12.042315
 20
340.742676
 10
12.133429
 20
340.454987
 10
12.204084
 20
340.191376
 10
12.257504
 20
339.952271
 10
12.296987
 20
339.737915
 10
12.325467
 20
339.548645
 10
12.344994
 20
339.385345
 10
12.357327
 20
339.248993
 10
12.364107
 20
339.140747
 10
12.367082
 20
339.055939
  0
LWPOLYLINE
  5
127
330
11C
100
AcDbEntity
  8
0
  6
Continuous
 62
     0
370
     0
100
AcDbPolyline
 90
        7
 70
     0
 43
0.0
 10
12.367082
 20
339.055939
 10
12.62878
 20
339.046356
 10
12.85448
 20
339.035858
 10
13.038441
 20
339.025726
 10
13.176661
 20
339.017181
 10
13.266056
 20
339.01123
 10
13.305952
 20
339.008453
  0
LINE
  5
128
330
11C
100
AcDbEntity
  8
0
  6
Continuous
 62
     0
370
    30
100
AcDbLine
 10
23.595345
 20
338.983592
 30
0.0
 11
23.595344
 21
341.964097
 31
0.0
  0
LINE
  5
129
330
11C
100
AcDbEntity
  8
0
  6
Continuous
 62
     0
370
     0
100
AcDbLine
 10
12.33641
 20
380.725087
 30
0.0
 11
12.33641
 21
383.560024
 31
0.0
  0
LWPOLYLINE
  5
12A
330
11C
100
AcDbEntity
  8
0
  6
Continuous
 62
     0
370
     0
100
AcDbPolyline
 90
        8
 70
     0
 43
0.0
 10
-0.93674
 20
377.896698
 10
-0.921733
 20
377.860687
 10
-0.880724
 20
377.759918
 10
-0.819113
 20
377.603668
 10
-0.742012
 20
377.398834
 10
-0.653901
 20
377.151398
 10
-0.558632
 20
376.86734
 10
-0.461576
 20
376.544952
  0
LWPOLYLINE
  5
12B
330
11C
100
AcDbEntity
  8
0
  6
Continuous
 62
     0
370
     0
100
AcDbPolyline
 90
       29
 70
     0
 43
0.0
 10
-0.461576
 20
376.544952
 10
-0.439002
 20
376.746429
 10
-0.418095
 20
376.953186
 10
-0.398222
 20
377.163055
 10
-0.379262
 20
377.375824
 10
-0.361153
 20
377.591522
 10
-0.343822
 20
377.81015
 10
-0.327074
 20
378.031555
 10
-0.310649
 20
378.255554
 10
-0.294253
 20
378.481873
 10
-0.27729
 20
378.710114
 10
-0.258997
 20
378.939697
 10
-0.238428
 20
379.170013
 10
-0.213811
 20
379.400421
 10
-0.183018
 20
379.630127
 10
-0.142014
 20
379.858215
 10
-0.084698
 20
380.083252
 10
0.00062
 20
380.300873
 10
0.130477
 20
380.500153
 10
0.318681
 20
380.659576
 10
0.551903
 20
380.764679
 10
0.805944
 20
380.825623
 10
1.06693
 20
380.858643
 10
1.330106
 20
380.875519
 10
1.594027
 20
380.88269
 10
1.858111
 20
380.884186
 10
2.122245
 20
380.882385
 10
2.386375
 20
380.878876
 10
2.658705
 20
380.874542
  0
LWPOLYLINE
  5
12C
330
11C
100
AcDbEntity
  8
0
  6
Continuous
 62
     0
370
     0
100
AcDbPolyline
 90
        3
 70
     0
 43
0.0
 10
2.658705
 20
380.874542
 10
4.15635
 20
380.850861
 10
12.33641
 20
380.725098
  0
LWPOLYLINE
  5
12D
330
11C
100
AcDbEntity
  8
0
  6
Continuous
 62
     0
370
     0
100
AcDbPolyline
 90
       27
 70
     0
 43
0.0
 10
12.346421
 20
349.239136
 10
12.343305
 20
350.546478
 10
12.341019
 20
351.878998
 10
12.339357
 20
353.227509
 10
12.338188
 20
354.585175
 10
12.337389
 20
355.946655
 10
12.336879
 20
357.311096
 10
12.336587
 20
358.678162
 10
12.33645
 20
360.046448
 10
12.336407
 20
361.414215
 10
12.336408
 20
362.779816
 10
12.336411
 20
364.14151
 10
12.33641
 20
365.496094
 10
12.336409
 20
366.839478
 10
12.33641
 20
368.166107
 10
12.33641
 20
369.469482
 10
12.33641
 20
370.742249
 10
12.33641
 20
371.977264
 10
12.33641
 20
373.168213
 10
12.33641
 20
374.310944
 10
12.33641
 20
375.402466
 10
12.33641
 20
376.439667
 10
12.33641
 20
377.419922
 10
12.33641
 20
378.341339
 10
12.33641
 20
379.19989
 10
12.33641
 20
379.989532
 10
12.33641
 20
380.725098
  0
LWPOLYLINE
  5
12E
330
11C
100
AcDbEntity
  8
0
  6
Continuous
 62
     0
370
     0
100
AcDbPolyline
 90
       28
 70
     0
 43
0.0
 10
2.658705
 20
380.874542
 10
2.65854
 20
380.158936
 10
2.658309
 20
379.366058
 10
2.65795
 20
378.502441
 10
2.657403
 20
377.574982
 10
2.656603
 20
376.587799
 10
2.655477
 20
375.54245
 10
2.653919
 20
374.441162
 10
2.651834
 20
373.285889
 10
2.649207
 20
372.077698
 10
2.646234
 20
370.820831
 10
2.643264
 20
369.52298
 10
2.640591
 20
368.194641
 10
2.638426
 20
366.84552
 10
2.636893
 20
365.483307
 10
2.636073
 20
364.113007
 10
2.635993
 20
362.738037
 10
2.636438
 20
361.36026
 10
2.637107
 20
359.980774
 10
2.637754
 20
358.60025
 10
2.638168
 20
357.219055
 10
2.638076
 20
355.837494
 10
2.637112
 20
354.455719
 10
2.634971
 20
353.073975
 10
2.631728
 20
351.692352
 10
2.627571
 20
350.311066
 10
2.622108
 20
348.93045
 10
2.61215
 20
347.536041
  0
LWPOLYLINE
  5
12F
330
11C
100
AcDbEntity
  8
0
  6
Continuous
 62
     0
370
     0
100
AcDbPolyline
 90
       12
 70
     0
 43
0.0
 10
2.61215
 20
347.536041
 10
2.88696
 20
347.857697
 10
3.198597
 20
348.14325
 10
3.543069
 20
348.388031
 10
3.91079
 20
348.596008
 10
4.29935
 20
348.762604
 10
4.702659
 20
348.889099
 10
5.115329
 20
348.980225
 10
5.533315
 20
349.04187
 10
5.953973
 20
349.079681
 10
6.37565
 20
349.100037
 10
6.800766
 20
349.109589
  0
LWPOLYLINE
  5
130
330
11C
100
AcDbEntity
  8
0
  6
Continuous
 62
     0
370
     0
100
AcDbPolyline
 90
        4
 70
     0
 43
0.0
 10
6.800766
 20
349.109589
 10
8.559213
 20
349.11969
 10
10.317401
 20
349.150604
 10
12.346421
 20
349.239136
  0
LWPOLYLINE
  5
131
330
11C
100
AcDbEntity
  8
0
  6
Continuous
 62
     0
370
     0
100
AcDbPolyline
 90
       16
 70
     0
 43
0.0
 10
-0.461576
 20
376.544952
 10
-0.423494
 20
374.952667
 10
-0.414742
 20
373.295654
 10
-0.431796
 20
371.586945
 10
-0.467506
 20
369.830383
 10
-0.512228
 20
368.005127
 10
-0.552778
 20
366.113464
 10
-0.583241
 20
364.186066
 10
-0.60358
 20
362.243622
 10
-0.617361
 20
360.295441
 10
-0.628929
 20
358.345306
 10
-0.641228
 20
356.394379
 10
-0.656731
 20
354.443146
 10
-0.678013
 20
352.491821
 10
-0.708703
 20
350.540619
 10
-0.755584
 20
348.560974
  0
LWPOLYLINE
  5
132
330
11C
100
AcDbEntity
  8
0
  6
Continuous
 62
     0
370
     0
100
AcDbPolyline
 90
       37
 70
     0
 43
0.0
 10
-0.755584
 20
348.560974
 10
-0.736484
 20
348.560699
 10
-0.717355
 20
348.560425
 10
-0.698185
 20
348.56015
 10
-0.678961
 20
348.559906
 10
-0.65967
 20
348.559662
 10
-0.640295
 20
348.559418
 10
-0.620819
 20
348.559204
 10
-0.601223
 20
348.55896
 10
-0.581492
 20
348.558746
 10
-0.561606
 20
348.558533
 10
-0.541548
 20
348.55835
 10
-0.521301
 20
348.558136
 10
-0.500814
 20
348.557953
 10
-0.4799
 20
348.55777
 10
-0.458337
 20
348.557587
 10
-0.4359
 20
348.557373
 10
-0.412367
 20
348.55719
 10
-0.387515
 20
348.556946
 10
-0.361121
 20
348.556702
 10
-0.332901
 20
348.556427
 10
-0.30191
 20
348.556091
 10
-0.266779
 20
348.555573
 10
-0.224693
 20
348.554688
 10
-0.169875
 20
348.552826
 10
-0.090777
 20
348.548706
 10
0.034316
 20
348.539825
 10
0.232811
 20
348.521973
 10
0.492053
 20
348.494568
 10
0.775748
 20
348.447815
 10
1.062616
 20
348.375519
 10
1.343694
 20
348.277802
 10
1.61524
 20
348.157898
 10
1.877517
 20
348.021606
 10
2.131104
 20
347.873596
 10
2.375202
 20
347.71402
 10
2.61215
 20
347.536041
  0
LWPOLYLINE
  5
133
330
11C
100
AcDbEntity
  8
0
  6
Continuous
 62
     0
370
     0
100
AcDbPolyline
 90
        6
 70
     0
 43
0.0
 10
-10.35852
 20
307.99231
 10
-10.346139
 20
307.99411
 10
-10.309551
 20
307.999939
 10
-10.251291
 20
308.01181
 10
-10.173738
 20
308.032166
 10
-10.042193
 20
308.080444
  0
LWPOLYLINE
  5
134
330
11C
100
AcDbEntity
  8
0
  6
Continuous
 62
     0
370
     0
100
AcDbPolyline
 90
       63
 70
     0
 43
0.0
 10
-10.042193
 20
308.080444
 10
-9.933112
 20
308.468933
 10
-9.803854
 20
308.939667
 10
-9.656727
 20
309.485443
 10
-9.496699
 20
310.086761
 10
-9.330054
 20
310.716888
 10
-9.160206
 20
311.360748
 10
-8.988668
 20
312.011414
 10
-8.816193
 20
312.665619
 10
-8.643175
 20
313.321899
 10
-8.469783
 20
313.979614
 10
-8.296138
 20
314.638275
 10
-8.122359
 20
315.297455
 10
-7.948516
 20
315.956879
 10
-7.774621
 20
316.616486
 10
-7.600681
 20
317.276276
 10
-7.426707
 20
317.936188
 10
-7.252707
 20
318.596161
 10
-7.078688
 20
319.256226
 10
-6.904655
 20
319.916351
 10
-6.730613
 20
320.576508
 10
-6.556567
 20
321.236694
 10
-6.382522
 20
321.896912
 10
-6.208488
 20
322.557159
 10
-6.034495
 20
323.217407
 10
-5.860579
 20
323.877716
 10
-5.686778
 20
324.538025
 10
-5.513128
 20
325.198395
 10
-5.339667
 20
325.858826
 10
-5.166431
 20
326.519318
 10
-4.993457
 20
327.179901
 10
-4.820781
 20
327.840576
 10
-4.648438
 20
328.501343
 10
-4.476463
 20
329.162201
 10
-4.304891
 20
329.823181
 10
-4.133756
 20
330.484253
 10
-3.963094
 20
331.145477
 10
-3.79294
 20
331.806854
 10
-3.623351
 20
332.468353
 10
-3.454436
 20
333.130035
 10
-3.286309
 20
333.791931
 10
-3.119089
 20
334.454071
 10
-2.952889
 20
335.116455
 10
-2.787827
 20
335.779114
 10
-2.624017
 20
336.442108
 10
-2.461644
 20
337.105469
 10
-2.301085
 20
337.769287
 10
-2.142753
 20
338.433594
 10
-1.987199
 20
339.098541
 10
-1.835436
 20
339.764404
 10
-1.688587
 20
340.431488
 10
-1.548132
 20
341.100006
 10
-1.415959
 20
341.770203
 10
-1.293983
 20
342.44223
 10
-1.184113
 20
343.116302
 10
-1.087904
 20
343.79248
 10
-1.006069
 20
344.470551
 10
-0.938495
 20
345.150177
 10
-0.883814
 20
345.831024
 10
-0.840273
 20
346.512665
 10
-0.805759
 20
347.194885
 10
-0.778143
 20
347.87735
 10
-0.755584
 20
348.560974
  0
LWPOLYLINE
  5
135
330
11C
100
AcDbEntity
  8
0
  6
Continuous
 62
     0
370
     0
100
AcDbPolyline
 90
       59
 70
     0
 43
0.0
 10
-8.1657
 20
304.605896
 10
-8.098745
 20
304.858734
 10
-8.019485
 20
305.158325
 10
-7.924922
 20
305.516113
 10
-7.812105
 20
305.943298
 10
-7.678832
 20
306.448273
 10
-7.525298
 20
307.030273
 10
-7.354669
 20
307.677307
 10
-7.171707
 20
308.371216
 10
-6.980783
 20
309.095398
 10
-6.784993
 20
309.838043
 10
-6.586226
 20
310.59201
 10
-6.385404
 20
311.35376
 10
-6.183051
 20
312.121307
 10
-5.979523
 20
312.893341
 10
-5.77517
 20
313.668457
 10
-5.570289
 20
314.445618
 10
-5.364987
 20
315.224365
 10
-5.159336
 20
316.004425
 10
-4.953406
 20
316.785553
 10
-4.747267
 20
317.567474
 10
-4.540961
 20
318.350006
 10
-4.334514
 20
319.133087
 10
-4.127953
 20
319.916595
 10
-3.921303
 20
320.70047
 10
-3.714591
 20
321.484589
 10
-3.507852
 20
322.268951
 10
-3.301133
 20
323.053467
 10
-3.094482
 20
323.838196
 10
-2.887948
 20
324.623077
 10
-2.681578
 20
325.408142
 10
-2.47542
 20
326.193359
 10
-2.269521
 20
326.97876
 10
-2.063928
 20
327.764282
 10
-1.858685
 20
328.549988
 10
-1.653838
 20
329.335846
 10
-1.449434
 20
330.121887
 10
-1.245517
 20
330.908112
 10
-1.04215
 20
331.694519
 10
-0.839454
 20
332.48111
 10
-0.637565
 20
333.267975
 10
-0.436617
 20
334.055084
 10
-0.236747
 20
334.842529
 10
-0.03809
 20
335.63028
 10
0.159135
 20
336.418457
 10
0.354496
 20
337.207062
 10
0.547535
 20
337.996277
 10
0.737791
 20
338.786194
 10
0.924803
 20
339.576904
 10
1.108073
 20
340.368469
 10
1.287059
 20
341.161041
 10
1.461217
 20
341.954651
 10
1.630177
 20
342.74939
 10
1.794847
 20
343.545013
 10
1.956691
 20
344.341248
 10
2.117207
 20
345.137756
 10
2.278203
 20
345.934174
 10
2.441665
 20
346.730072
 10
2.61215
 20
347.536041
  0
LWPOLYLINE
  5
136
330
11C
100
AcDbEntity
  8
0
  6
Continuous
 62
     0
370
     0
100
AcDbPolyline
 90
       24
 70
     0
 43
0.0
 10
-10.042193
 20
308.080444
 10
-10.053698
 20
307.953705
 10
-10.066487
 20
307.815674
 10
-10.080018
 20
307.669464
 10
-10.093987
 20
307.516174
 10
-10.108277
 20
307.354919
 10
-10.12275
 20
307.184937
 10
-10.137037
 20
307.005737
 10
-10.150666
 20
306.817139
 10
-10.162903
 20
306.619446
 10
-10.172345
 20
306.414368
 10
-10.177276
 20
306.203888
 10
-10.174719
 20
305.990875
 10
-10.160119
 20
305.777466
 10
-10.123741
 20
305.561646
 10
-10.0515
 20
305.347809
 10
-9.925559
 20
305.150085
 10
-9.736812
 20
304.983093
 10
-9.504987
 20
304.855499
 10
-9.252393
 20
304.759125
 10
-8.989645
 20
304.68692
 10
-8.720426
 20
304.636017
 10
-8.447488
 20
304.607178
 10
-8.1657
 20
304.605896
  0
LWPOLYLINE
  5
137
330
11C
100
AcDbEntity
  8
0
  6
Continuous
 62
     0
370
    30
100
AcDbPolyline
 90
        7
 70
     0
 43
0.0
 10
-5.974418
 20
308.502441
 10
-6.050203
 20
308.215576
 10
-6.138978
 20
307.88501
 10
-6.239364
 20
307.52002
 10
-6.353662
 20
307.118378
 10
-6.482386
 20
306.688202
 10
-6.633503
 20
306.225189
  0
LWPOLYLINE
  5
138
330
11C
100
AcDbEntity
  8
0
  6
Continuous
 62
     0
370
     0
100
AcDbPolyline
 90
       10
 70
     0
 43
0.0
 10
-6.633503
 20
306.225189
 10
-6.723785
 20
305.979584
 10
-6.823291
 20
305.740692
 10
-6.935777
 20
305.511658
 10
-7.067445
 20
305.297913
 10
-7.221614
 20
305.101776
 10
-7.399293
 20
304.921204
 10
-7.610265
 20
304.763916
 10
-7.866076
 20
304.655212
 10
-8.1657
 20
304.605896
  0
LWPOLYLINE
  5
139
330
11C
100
AcDbEntity
  8
0
  6
Continuous
 62
     0
370
     0
100
AcDbPolyline
 90
       59
 70
     0
 43
0.0
 10
-6.633503
 20
306.225189
 10
-6.580773
 20
306.424164
 10
-6.518818
 20
306.658173
 10
-6.445304
 20
306.936157
 10
-6.35781
 20
307.267303
 10
-6.254204
 20
307.659698
 10
-6.133506
 20
308.117126
 10
-5.997311
 20
308.633484
 10
-5.849074
 20
309.195618
 10
-5.692609
 20
309.789062
 10
-5.531054
 20
310.401855
 10
-5.366392
 20
311.026428
 10
-5.199671
 20
311.658447
 10
-5.031378
 20
312.295654
 10
-4.861788
 20
312.936798
 10
-4.691127
 20
313.580872
 10
-4.519621
 20
314.226868
 10
-4.34745
 20
314.874023
 10
-4.174682
 20
315.522064
 10
-4.001362
 20
316.170807
 10
-3.827538
 20
316.820099
 10
-3.653258
 20
317.469727
 10
-3.478556
 20
318.119629
 10
-3.303451
 20
318.769745
 10
-3.127964
 20
319.419983
 10
-2.952112
 20
320.070343
 10
-2.775917
 20
320.720734
 10
-2.59939
 20
321.371124
 10
-2.422491
 20
322.021484
 10
-2.245146
 20
322.671783
 10
-2.067279
 20
323.32196
 10
-1.888818
 20
323.972015
 10
-1.709688
 20
324.621918
 10
-1.529814
 20
325.271637
 10
-1.349117
 20
325.921143
 10
-1.167503
 20
326.570343
 10
-0.984875
 20
327.219299
 10
-0.801133
 20
327.867889
 10
-0.616181
 20
328.516113
 10
-0.429921
 20
329.16394
 10
-0.242254
 20
329.81134
 10
-0.05301
 20
330.458191
 10
0.138145
 20
331.10437
 10
0.331565
 20
331.749695
 10
0.527605
 20
332.393982
 10
0.726617
 20
333.037109
 10
0.928958
 20
333.678864
 10
1.135125
 20
334.31897
 10
1.346302
 20
334.956818
 10
1.563876
 20
335.591553
 10
1.789446
 20
336.222168
 10
2.024964
 20
336.84729
 10
2.272783
 20
337.464874
 10
2.536368
 20
338.071472
 10
2.820454
 20
338.662445
 10
3.131986
 20
339.230835
 10
3.480421
 20
339.761047
 10
3.87584
 20
340.233978
 10
4.326187
 20
340.637573
  0
LWPOLYLINE
  5
13A
330
11C
100
AcDbEntity
  8
0
  6
Continuous
 62
     0
370
     0
100
AcDbPolyline
 90
       13
 70
     0
 43
0.0
 10
4.326187
 20
340.637573
 10
4.313942
 20
341.008636
 10
4.285233
 20
341.444
 10
4.227065
 20
341.924805
 10
4.128345
 20
342.433655
 10
3.980501
 20
342.95517
 10
3.788651
 20
343.498779
 10
3.574577
 20
344.087616
 10
3.357373
 20
344.721741
 10
3.149072
 20
345.391998
 10
2.954889
 20
346.086487
 10
2.778713
 20
346.799683
 10
2.61215
 20
347.536041
  0
LWPOLYLINE
  5
13B
330
11C
100
AcDbEntity
  8
0
  6
Continuous
 62
     0
370
     0
100
AcDbPolyline
 90
       69
 70
     0
 43
0.0
 10
-5.974418
 20
308.502441
 10
-5.900025
 20
308.783813
 10
-5.813381
 20
309.111816
 10
-5.713305
 20
309.490936
 10
-5.599496
 20
309.922333
 10
-5.475129
 20
310.393921
 10
-5.344936
 20
310.887695
 10
-5.211669
 20
311.39328
 10
-5.07678
 20
311.904907
 10
-4.940858
 20
312.419891
 10
-4.804166
 20
312.936829
 10
-4.666766
 20
313.454956
 10
-4.528711
 20
313.973785
 10
-4.390044
 20
314.493103
 10
-4.250808
 20
315.012665
 10
-4.111032
 20
315.532349
 10
-3.970737
 20
316.052124
 10
-3.829941
 20
316.571899
 10
-3.688661
 20
317.091644
 10
-3.546913
 20
317.611328
 10
-3.404712
 20
318.130951
 10
-3.26207
 20
318.650482
 10
-3.119004
 20
319.169922
 10
-2.975526
 20
319.68927
 10
-2.831651
 20
320.208527
 10
-2.687393
 20
320.727661
 10
-2.542748
 20
321.246735
 10
-2.397696
 20
321.765656
 10
-2.252214
 20
322.284485
 10
-2.106282
 20
322.803192
 10
-1.959876
 20
323.321777
 10
-1.812955
 20
323.840179
 10
-1.665468
 20
324.358459
 10
-1.517366
 20
324.876556
 10
-1.368598
 20
325.39444
 10
-1.219113
 20
325.912109
 10
-1.068862
 20
326.429535
 10
-0.917793
 20
326.946716
 10
-0.765858
 20
327.463623
 10
-0.613005
 20
327.980225
 10
-0.459182
 20
328.496552
 10
-0.304302
 20
329.012512
 10
-0.148241
 20
329.528076
 10
0.009128
 20
330.043182
 10
0.16793
 20
330.5578
 10
0.328294
 20
331.071899
 10
0.490426
 20
331.585358
 10
0.654603
 20
332.098083
 10
0.821104
 20
332.609924
 10
0.99021
 20
333.120789
 10
1.162302
 20
333.630524
 10
1.338199
 20
334.138672
 10
1.518826
 20
334.644775
 10
1.705114
 20
335.148346
 10
1.898226
 20
335.648712
 10
2.09993
 20
336.144714
 10
2.312091
 20
336.635071
 10
2.537247
 20
337.117828
 10
2.779642
 20
337.589294
 10
3.044285
 20
338.044708
 10
3.339102
 20
338.474701
 10
3.673172
 20
338.865601
 10
4.054321
 20
339.199127
 10
4.479472
 20
339.472168
 10
4.940715
 20
339.695618
 10
5.433529
 20
339.876434
 10
5.949211
 20
340.023651
 10
6.474952
 20
340.150024
 10
7.000837
 20
340.269806
  0
LWPOLYLINE
  5
13C
330
11C
100
AcDbEntity
  8
0
  6
Continuous
 62
     0
370
     0
100
AcDbPolyline
 90
        7
 70
     0
 43
0.0
 10
7.000837
 20
340.269806
 10
6.960934
 20
340.451904
 10
6.906681
 20
340.643646
 10
6.831698
 20
340.847229
 10
6.724529
 20
341.065125
 10
6.567115
 20
341.299225
 10
6.341483
 20
341.551331
  0
ARC
  5
13D
330
11C
100
AcDbEntity
  8
0
  6
Continuous
 62
     0
370
     0
100
AcDbCircle
 10
7.274707
 20
336.81381
 30
0.0
 40
4.828554562583555
100
AcDbArc
 50
101.143787
 51
127.635955
  0
LWPOLYLINE
  5
13E
330
11C
100
AcDbEntity
  8
0
  6
Continuous
 62
     0
370
     0
100
AcDbPolyline
 90
        6
 70
     0
 43
0.0
 10
11.587774
 20
341.766998
 10
10.717604
 20
341.409821
 10
9.838038
 20
341.085693
 10
8.945679
 20
340.791809
 10
8.025636
 20
340.524902
 10
7.000837
 20
340.269806
  0
LWPOLYLINE
  5
13F
330
11C
100
AcDbEntity
  8
0
  6
Continuous
 62
     0
370
     0
100
AcDbPolyline
 90
       14
 70
     0
 43
0.0
 10
8.282267
 20
338.828369
 10
8.319475
 20
338.834106
 10
8.429552
 20
338.850616
 10
8.609802
 20
338.876007
 10
8.854864
 20
338.907501
 10
9.157779
 20
338.942017
 10
9.509472
 20
338.97641
 10
9.899557
 20
339.007751
 10
10.316231
 20
339.033752
 10
10.746888
 20
339.052826
 10
11.178394
 20
339.064148
 10
11.598598
 20
339.06781
 10
11.995657
 20
339.064667
 10
12.367082
 20
339.055939
  0
LWPOLYLINE
  5
140
330
11C
100
AcDbEntity
  8
0
  6
Continuous
 62
     0
370
     0
100
AcDbPolyline
 90
        6
 70
     0
 43
0.0
 10
6.341483
 20
341.551331
 10
6.528717
 20
341.879028
 10
6.666881
 20
342.219208
 10
6.763499
 20
342.57077
 10
6.827073
 20
342.934906
 10
6.871449
 20
343.388275
  0
LWPOLYLINE
  5
141
330
11C
100
AcDbEntity
  8
0
  6
Continuous
 62
     0
370
     0
100
AcDbPolyline
 90
        9
 70
     0
 43
0.0
 10
6.871449
 20
343.388275
 10
6.891513
 20
343.941498
 10
6.890543
 20
344.546082
 10
6.878635
 20
345.205811
 10
6.862202
 20
345.911438
 10
6.84492
 20
346.650879
 10
6.828705
 20
347.413849
 10
6.814423
 20
348.193085
 10
6.800766
 20
349.109589
  0
LWPOLYLINE
  5
142
330
11C
100
AcDbEntity
  8
0
  6
Continuous
 62
     0
370
     0
100
AcDbPolyline
 90
       12
 70
     0
 43
0.0
 10
11.587774
 20
341.766998
 10
11.791456
 20
342.202118
 10
11.953526
 20
342.686707
 10
12.082348
 20
343.224701
 10
12.181518
 20
343.812805
 10
12.252467
 20
344.453125
 10
12.29969
 20
345.145172
 10
12.328494
 20
345.885712
 10
12.343555
 20
346.669861
 10
12.348987
 20
347.491791
 10
12.348823
 20
348.344727
 10
12.346421
 20
349.239136
  0
LWPOLYLINE
  5
143
330
11C
100
AcDbEntity
  8
0
  6
Continuous
 62
     0
370
     0
100
AcDbPolyline
 90
        9
 70
     0
 43
0.0
 10
6.871449
 20
343.388275
 10
7.550197
 20
343.221802
 10
8.191295
 20
343.021149
 10
8.800278
 20
342.808044
 10
9.383467
 20
342.593384
 10
9.94647
 20
342.3815
 10
10.492945
 20
342.175751
 10
11.02496
 20
341.978119
 10
11.587774
 20
341.766998
  0
LINE
  5
144
330
11C
100
AcDbEntity
  8
0
  6
Continuous
 62
     0
370
    30
100
AcDbLine
 10
23.595344
 20
361.280358
 30
0.0
 11
23.595344
 21
341.964097
 31
0.0
  0
LINE
  5
145
330
11C
100
AcDbEntity
  8
0
  6
Continuous
 62
     0
370
    30
100
AcDbLine
 10
23.595342
 20
361.280359
 30
0.0
 11
15.049836
 21
383.542373
 31
0.0
  0
LWPOLYLINE
  5
146
330
11C
100
AcDbEntity
  8
0
  6
Continuous
 62
     0
370
    30
100
AcDbPolyline
 90
        4
 70
     0
 43
0.0
 10
8.282267
 20
338.828369
 10
9.908134
 20
338.933136
 10
11.536589
 20
338.98526
 10
13.305975
 20
339.008423
  0
LINE
  5
147
330
11C
100
AcDbEntity
  8
0
  6
Continuous
 62
     0
370
    30
100
AcDbLine
 10
12.33641
 20
383.560173
 30
0.0
 11
15.05082
 21
383.542366
 31
0.0
  0
LWPOLYLINE
  5
148
330
11C
100
AcDbEntity
  8
0
  6
Continuous
 62
     0
370
    30
100
AcDbPolyline
 90
       60
 70
     0
 43
0.0
 10
-4.112882
 20
315.525482
 10
-3.985862
 20
315.990417
 10
-3.858189
 20
316.45517
 10
-3.729879
 20
316.919769
 10
-3.600947
 20
317.384155
 10
-3.471408
 20
317.848389
 10
-3.341279
 20
318.312469
 10
-3.210574
 20
318.776367
 10
-3.079309
 20
319.240143
 10
-2.9475
 20
319.703735
 10
-2.815163
 20
320.167175
 10
-2.682312
 20
320.630493
 10
-2.54895
 20
321.093628
 10
-2.41507
 20
321.556641
 10
-2.28066
 20
322.019501
 10
-2.14571
 20
322.482178
 10
-2.010209
 20
322.944733
 10
-1.874148
 20
323.407074
 10
-1.737516
 20
323.869293
 10
-1.600299
 20
324.331299
 10
-1.462458
 20
324.793152
 10
-1.323941
 20
325.254791
 10
-1.184696
 20
325.716187
 10
-1.044672
 20
326.177399
 10
-0.903816
 20
326.638306
 10
-0.762063
 20
327.098969
 10
-0.619343
 20
327.559357
 10
-0.475584
 20
328.019379
 10
-0.330714
 20
328.479065
 10
-0.184662
 20
328.938354
 10
-0.037358
 20
329.397278
 10
0.111272
 20
329.855743
 10
0.261325
 20
330.313751
 10
0.41299
 20
330.77124
 10
0.566469
 20
331.228088
 10
0.721964
 20
331.684296
 10
0.879677
 20
332.139771
 10
1.039934
 20
332.59436
 10
1.203496
 20
333.04776
 10
1.37122
 20
333.499603
 10
1.54396
 20
333.949524
 10
1.722575
 20
334.397156
 10
1.908125
 20
334.84198
 10
2.102464
 20
335.28302
 10
2.307683
 20
335.719116
 10
2.526896
 20
336.148315
 10
2.764392
 20
336.567719
 10
3.026937
 20
336.971771
 10
3.323555
 20
337.351379
 10
3.665416
 20
337.690552
 10
4.059762
 20
337.966675
 10
4.491938
 20
338.178925
 10
4.94575
 20
338.341461
 10
5.411056
 20
338.466248
 10
5.883716
 20
338.560577
 10
6.36032
 20
338.631866
 10
6.838897
 20
338.689331
 10
7.318159
 20
338.740265
 10
7.797847
 20
338.787323
 10
8.282265
 20
338.8284
  0
LWPOLYLINE
  5
149
330
11C
100
AcDbEntity
  8
0
  6
Continuous
 62
     0
370
    30
100
AcDbPolyline
 90
       46
 70
     0
 43
0.0
 10
-4.12933
 20
315.464478
 10
-4.136029
 20
315.439575
 10
-4.158185
 20
315.357239
 10
-4.191655
 20
315.232727
 10
-4.233246
 20
315.07785
 10
-4.279501
 20
314.905365
 10
-4.327434
 20
314.72644
 10
-4.378088
 20
314.537079
 10
-4.429532
 20
314.344543
 10
-4.481539
 20
314.149628
 10
-4.534293
 20
313.951691
 10
-4.586947
 20
313.753906
 10
-4.63977
 20
313.555206
 10
-4.692369
 20
313.357147
 10
-4.744724
 20
313.15976
 10
-4.797043
 20
312.962311
 10
-4.849055
 20
312.765808
 10
-4.900746
 20
312.570343
 10
-4.952358
 20
312.375
 10
-5.003732
 20
312.18045
 10
-5.054818
 20
311.986847
 10
-5.105735
 20
311.793823
 10
-5.156608
 20
311.600861
 10
-5.207497
 20
311.407837
 10
-5.258337
 20
311.214935
 10
-5.309045
 20
311.022583
 10
-5.359514
 20
310.831146
 10
-5.409554
 20
310.641327
 10
-5.459006
 20
310.453796
 10
-5.507727
 20
310.269012
 10
-5.555546
 20
310.087677
 10
-5.602129
 20
309.911072
 10
-5.64749
 20
309.739105
 10
-5.691491
 20
309.572296
 10
-5.733474
 20
309.413177
 10
-5.77319
 20
309.262695
 10
-5.81069
 20
309.120636
 10
-5.846162
 20
308.986298
 10
-5.879288
 20
308.860901
 10
-5.91079
 20
308.741699
 10
-5.939405
 20
308.633453
 10
-5.964865
 20
308.537231
 10
-5.988538
 20
308.447815
 10
-6.009214
 20
308.369812
 10
-6.03138
 20
308.286346
 10
-6.057669
 20
308.187592
  0
LWPOLYLINE
  5
14A
330
11C
100
AcDbEntity
  8
0
  6
Continuous
 62
     0
370
    30
100
AcDbPolyline
 90
       40
 70
     0
 43
0.0
 10
-6.201505
 20
307.656433
 10
-6.279318
 20
307.36499
 10
-6.357683
 20
307.073761
 10
-6.436779
 20
306.782684
 10
-6.516814
 20
306.491882
 10
-6.598006
 20
306.20163
 10
-6.68049
 20
305.911865
 10
-6.764539
 20
305.622498
 10
-6.850863
 20
305.333466
 10
-6.940958
 20
305.045502
 10
-7.036648
 20
304.75943
 10
-7.139974
 20
304.476013
 10
-7.255017
 20
304.197113
 10
-7.389935
 20
303.927399
 10
-7.556245
 20
303.676086
 10
-7.757198
 20
303.451172
 10
-7.990012
 20
303.260254
 10
-8.263711
 20
303.135529
 10
-8.560302
 20
303.08316
 10
-8.861754
 20
303.085236
 10
-9.160973
 20
303.123108
 10
-9.454889
 20
303.190582
 10
-9.739958
 20
303.28891
 10
-10.010283
 20
303.422302
 10
-10.252292
 20
303.601562
 10
-10.443972
 20
303.833496
 10
-10.572811
 20
304.105652
 10
-10.647641
 20
304.397614
 10
-10.684996
 20
304.696869
 10
-10.698231
 20
304.998169
 10
-10.694959
 20
305.299805
 10
-10.68019
 20
305.601227
 10
-10.657583
 20
305.902069
 10
-10.628535
 20
306.202332
 10
-10.594061
 20
306.502014
 10
-10.55487
 20
306.801147
 10
-10.511589
 20
307.099731
 10
-10.464506
 20
307.397736
 10
-10.413754
 20
307.695129
 10
-10.359372
 20
307.99234
  0
LWPOLYLINE
  5
14B
330
11C
100
AcDbEntity
  8
0
  6
Continuous
 62
     0
370
    30
100
AcDbPolyline
 90
       18
 70
     0
 43
0.0
 10
-6.057675
 20
308.187592
 10
-6.116205
 20
307.968109
 10
-6.172958
 20
307.756348
 10
-6.21255
 20
307.609253
 10
-6.245223
 20
307.488098
 10
-6.275194
 20
307.377167
 10
-6.301031
 20
307.281677
 10
-6.325773
 20
307.190399
 10
-6.346285
 20
307.114807
 10
-6.365746
 20
307.043213
 10
-6.382078
 20
306.983185
 10
-6.396867
 20
306.928864
 10
-6.410831
 20
306.877655
 10
-6.424575
 20
306.827301
 10
-6.434391
 20
306.791382
 10
-6.440316
 20
306.769745
 10
-6.445722
 20
306.75
 10
-6.451165
 20
306.730103
  0
LWPOLYLINE
  5
14C
330
11C
100
AcDbEntity
  8
0
  6
Continuous
 62
     0
370
    30
100
AcDbPolyline
 90
       44
 70
     0
 43
0.0
 10
-10.359372
 20
307.99234
 10
-10.002029
 20
309.603821
 10
-9.589935
 20
311.202423
 10
-9.168828
 20
312.798676
 10
-8.74811
 20
314.39502
 10
-8.327254
 20
315.991333
 10
-7.906413
 20
317.587646
 10
-7.485579
 20
319.18396
 10
-7.064622
 20
320.780243
 10
-6.643767
 20
322.376526
 10
-6.223369
 20
323.972961
 10
-5.803857
 20
325.569641
 10
-5.385787
 20
327.166656
 10
-4.969754
 20
328.764252
 10
-4.55662
 20
330.362579
 10
-4.147382
 20
331.961914
 10
-3.743043
 20
333.562469
 10
-3.344734
 20
335.164551
 10
-2.954654
 20
336.768646
 10
-2.577175
 20
338.375763
 10
-2.221201
 20
339.987762
 10
-1.903309
 20
341.607697
 10
-1.64671
 20
343.238342
 10
-1.471744
 20
344.87973
 10
-1.370889
 20
346.527405
 10
-1.317217
 20
348.177368
 10
-1.28469
 20
349.827881
 10
-1.263241
 20
351.478607
 10
-1.247551
 20
353.129395
 10
-1.236128
 20
354.780212
 10
-1.22772
 20
356.43103
 10
-1.221331
 20
358.081879
 10
-1.215845
 20
359.732727
 10
-1.209954
 20
361.383575
 10
-1.202286
 20
363.034424
 10
-1.190997
 20
364.685242
 10
-1.174307
 20
366.335999
 10
-1.151352
 20
367.986694
 10
-1.123167
 20
369.637299
 10
-1.094462
 20
371.287903
 10
-1.066435
 20
372.938538
 10
-1.03499
 20
374.589081
 10
-0.994775
 20
376.239471
 10
-0.93674
 20
377.896698
  0
LWPOLYLINE
  5
14D
330
11C
100
AcDbEntity
  8
0
  6
Continuous
 62
     0
370
    30
100
AcDbPolyline
 90
       65
 70
     0
 43
0.0
 10
12.336411
 20
383.560181
 10
12.056586
 20
383.56192
 10
11.776763
 20
383.563629
 10
11.496939
 20
383.565338
 10
11.217115
 20
383.567017
 10
10.937291
 20
383.568665
 10
10.657467
 20
383.570312
 10
10.377643
 20
383.57193
 10
10.097817
 20
383.573517
 10
9.817993
 20
383.575073
 10
9.538168
 20
383.576599
 10
9.258344
 20
383.578125
 10
8.978518
 20
383.57959
 10
8.698693
 20
383.581024
 10
8.418867
 20
383.582397
 10
8.139042
 20
383.583771
 10
7.859216
 20
383.585144
 10
7.579391
 20
383.586456
 10
7.299564
 20
383.587799
 10
7.019739
 20
383.589111
 10
6.739913
 20
383.590454
 10
6.460087
 20
383.591797
 10
6.180261
 20
383.59317
 10
5.900435
 20
383.594543
 10
5.62061
 20
383.595978
 10
5.340786
 20
383.597443
 10
5.060961
 20
383.598907
 10
4.781136
 20
383.600372
 10
4.501308
 20
383.601837
 10
4.22148
 20
383.603271
 10
3.941652
 20
383.604736
 10
3.661826
 20
383.606201
 10
3.382002
 20
383.607758
 10
3.102183
 20
383.609406
 10
2.822368
 20
383.611145
 10
2.54255
 20
383.612732
 10
2.262715
 20
383.613892
 10
1.982857
 20
383.614044
 10
1.70303
 20
383.611694
 10
1.423312
 20
383.60495
 10
1.143831
 20
383.591217
 10
0.865263
 20
383.564758
 10
0.589734
 20
383.516418
 10
0.322214
 20
383.434509
 10
0.077538
 20
383.300598
 10
-0.122752
 20
383.106384
 10
-0.27092
 20
382.869568
 10
-0.379492
 20
382.611786
 10
-0.462534
 20
382.344604
 10
-0.528629
 20
382.072723
 10
-0.583784
 20
381.79837
 10
-0.631373
 20
381.522644
 10
-0.672906
 20
381.245911
 10
-0.709378
 20
380.968445
 10
-0.741749
 20
380.690491
 10
-0.770697
 20
380.41217
 10
-0.796738
 20
380.133545
 10
-0.820375
 20
379.854736
 10
-0.84192
 20
379.575745
 10
-0.861544
 20
379.2966
 10
-0.87941
 20
379.017334
 10
-0.895686
 20
378.737976
 10
-0.910536
 20
378.458527
 10
-0.924126
 20
378.179016
 10
-0.93674
 20
377.896698
  0
LWPOLYLINE
  5
14E
330
11C
100
AcDbEntity
  8
0
  6
Continuous
 62
     0
370
    30
100
AcDbPolyline
 90
        4
 70
     0
 43
0.0
 10
13.305969
 20
339.008423
 10
16.322079
 20
339.01944
 10
19.33823
 20
339.009583
 10
23.595345
 20
338.983154
  0
ARC
  5
14F
330
11C
100
AcDbEntity
  8
0
  6
Continuous
 62
     0
370
    30
100
AcDbCircle
 10
27.781625
 20
361.029993
 30
0.0
 40
20.50009542241312
100
AcDbArc
 50
93.877479
 51
121.734269
  0
ARC
  5
150
330
11C
100
AcDbEntity
  8
0
  6
Continuous
 62
     0
370
    30
100
AcDbCircle
 10
27.781618
 20
361.436403
 30
0.0
 40
20.50016677564891
100
AcDbArc
 50
258.216931
 51
266.122555
  0
LINE
  5
151
330
11C
100
AcDbEntity
  8
0
  6
Continuous
 62
     0
370
    30
100
AcDbLine
 10
39.891126
 20
421.233041
 30
0.0
 11
36.588441
 21
383.483162
 31
0.0
  0
LINE
  5
152
330
11C
100
AcDbEntity
  8
0
  6
Continuous
 62
     0
370
    30
100
AcDbLine
 10
39.891126
 20
301.233283
 30
0.0
 11
36.588441
 21
338.983162
 31
0.0
  0
LINE
  5
153
330
11C
100
AcDbEntity
  8
0
  6
Continuous
 62
     0
370
    30
100
AcDbLine
 10
39.891126
 20
421.233041
 30
0.0
 11
46.395344
 21
421.233041
 31
0.0
  0
LINE
  5
154
330
11C
100
AcDbEntity
  8
0
  6
Continuous
 62
     0
370
    30
100
AcDbLine
 10
39.891126
 20
301.233283
 30
0.0
 11
46.395344
 21
301.233283
 31
0.0
  0
LINE
  5
155
330
11C
100
AcDbEntity
  8
0
  6
Continuous
 62
     0
370
    30
100
AcDbLine
 10
36.588441
 20
383.433162
 30
0.0
 11
26.395344
 21
383.433162
 31
0.0
  0
ENDBLK
  5
157
330
11C
100
AcDbEntity
  8
0
100
AcDbBlockEnd
  0
ENDSEC
  0
SECTION
  2
ENTITIES
  0
INSERT
  5
A8
330
1F
100
AcDbEntity
  8
0
  6
Continuous
 62
     7
420
 16250871
370
     0
100
AcDbBlockReference
  2
a
 10
126.623024
 20
298.831207
 30
0.0
  0
INSERT
  5
DE
330
1F
100
AcDbEntity
  8
0
  6
Continuous
 62
     7
420
 16250871
370
     0
100
AcDbBlockReference
  2
b
 10
0.000015
 20
240.899139
 30
0.0
  0
INSERT
  5
11B
330
1F
100
AcDbEntity
  8
0
  6
Continuous
 62
     7
420
 16250871
370
     0
100
AcDbBlockReference
  2
c
 10
260.558868
 20
0.0
 30
0.0
  0
INSERT
  5
158
330
1F
100
AcDbEntity
  8
0
  6
Continuous
 62
     7
420
 16250871
370
     0
100
AcDbBlockReference
  2
d
 10
69.363895
 20
0.0
 30
0.0
  0
ENDSEC
  0
SECTION
  2
OBJECTS
  0
DICTIONARY
  5
C
330
0
100
AcDbDictionary
281
     1
  3
ACAD_DETAILVIEWSTYLE
350
190
  3
ACAD_GROUP
350
D
  3
ACAD_LAYOUT
350
1A
  3
ACAD_MATERIAL
350
43
  3
ACAD_MLEADERSTYLE
350
6B
  3
ACAD_MLINESTYLE
350
17
  3
ACAD_PLOTSETTINGS
350
19
  3
ACAD_PLOTSTYLENAME
350
E
  3
ACAD_SCALELIST
350
47
  3
ACAD_SECTIONVIEWSTYLE
350
191
  3
ACAD_TABLESTYLE
350
69
  3
ACAD_VISUALSTYLE
350
2A
  3
ACDB_RECOMPOSE_DATA
350
18D
  3
AcDbVariableDictionary
350
159
  0
SUN
  5
6D
330
29
100
AcDbSun
 90
        1
290
     0
 63
     7
421
 16777215
 40
1.0
291
     1
 91
  2455826
 92
 54000000
292
     0
 70
     2
 71
   256
280
     1
  0
DICTIONARY
  5
190
102
{ACAD_REACTORS
330
C
102
}
330
C
100
AcDbDictionary
281
     1
  0
DICTIONARY
  5
D
102
{ACAD_REACTORS
330
C
102
}
330
C
100
AcDbDictionary
281
     1
  0
DICTIONARY
  5
1A
102
{ACAD_REACTORS
330
C
102
}
330
C
100
AcDbDictionary
281
     1
  3
Layout1
350
1E
  3
Layout2
350
26
  3
Model
350
22
  0
DICTIONARY
  5
43
102
{ACAD_REACTORS
330
C
102
}
330
C
100
AcDbDictionary
281
     1
  3
ByBlock
350
45
  3
ByLayer
350
44
  3
Global
350
46
  0
DICTIONARY
  5
6B
102
{ACAD_REACTORS
330
C
102
}
330
C
100
AcDbDictionary
281
     1
  3
Standard
350
6C
  0
DICTIONARY
  5
17
102
{ACAD_REACTORS
330
C
102
}
330
C
100
AcDbDictionary
281
     1
  3
Standard
350
18
  0
DICTIONARY
  5
19
102
{ACAD_REACTORS
330
C
102
}
330
C
100
AcDbDictionary
281
     1
  0
ACDBDICTIONARYWDFLT
  5
E
102
{ACAD_REACTORS
330
C
102
}
330
C
100
AcDbDictionary
281
     1
  3
Normal
350
F
100
AcDbDictionaryWithDefault
340
F
  0
DICTIONARY
  5
47
102
{ACAD_REACTORS
330
C
102
}
330
C
100
AcDbDictionary
281
     1
  3
A0
350
48
  3
A1
350
49
  3
A2
350
4A
  3
A3
350
4B
  3
A4
350
4C
  3
A5
350
4D
  3
A6
350
4E
  3
A7
350
4F
  3
A8
350
50
  3
A9
350
51
  3
B0
350
52
  3
B1
350
53
  3
B2
350
54
  3
B3
350
55
  3
B4
350
56
  3
B5
350
57
  3
B6
350
58
  3
B7
350
59
  3
B8
350
5A
  3
B9
350
5B
  3
C0
350
5C
  3
C1
350
5D
  3
C2
350
5E
  3
C3
350
5F
  3
C4
350
60
  3
C5
350
61
  3
C6
350
62
  3
C7
350
63
  3
C8
350
64
  3
C9
350
65
  3
D0
350
66
  3
D1
350
67
  3
D2
350
68
  0
DICTIONARY
  5
191
102
{ACAD_REACTORS
330
C
102
}
330
C
100
AcDbDictionary
281
     1
  0
DICTIONARY
  5
69
102
{ACAD_REACTORS
330
C
102
}
330
C
100
AcDbDictionary
281
     1
  3
Standard
350
6A
  0
DICTIONARY
  5
2A
102
{ACAD_REACTORS
330
C
102
}
330
C
100
AcDbDictionary
281
     1
  3
2dWireframe
350
2F
  3
Basic
350
32
  3
Brighten
350
36
  3
ColorChange
350
3A
  3
Conceptual
350
34
  3
Dim
350
35
  3
EdgeColorOff
350
3D
  3
Facepattern
350
39
  3
Flat
350
2B
  3
FlatWithEdges
350
2C
  3
Gouraud
350
2D
  3
GouraudWithEdges
350
2E
  3
Hidden
350
31
  3
JitterOff
350
3B
  3
Linepattern
350
38
  3
OverhangOff
350
3C
  3
Realistic
350
33
  3
Shaded
350
42
  3
Shaded with edges
350
41
  3
Shades of Gray
350
3E
  3
Sketchy
350
3F
  3
Thicken
350
37
  3
Wireframe
350
30
  3
X-Ray
350
40
  0
XRECORD
  5
18D
102
{ACAD_REACTORS
330
C
102
}
330
C
100
AcDbXrecord
280
     1
 90
        1
330
6A
  0
DICTIONARY
  5
159
102
{ACAD_REACTORS
330
C
102
}
330
C
100
AcDbDictionary
281
     1
  3
CANNOSCALE
350
15A
  3
CMLEADERSTYLE
350
18F
  3
CTABLESTYLE
350
18E
  0
LAYOUT
  5
1E
102
{ACAD_REACTORS
330
1A
102
}
330
1A
100
AcDbPlotSettings
  1

  2
none_device
  4

  6

 40
0.0
 41
0.0
 42
0.0
 43
0.0
 44
0.0
 45
0.0
 46
0.0
 47
0.0
 48
0.0
 49
0.0
140
0.0
141
0.0
142
1.0
143
1.0
 70
   688
 72
     1
 73
     0
 74
     5
  7

 75
    16
 76
     0
 77
     2
 78
   300
147
1.0
148
0.0
149
0.0
100
AcDbLayout
  1
Layout1
 70
     1
 71
     1
 10
0.0
 20
0.0
 11
420.0
 21
297.0
 12
0.0
 22
0.0
 32
0.0
 14
1.000000E+20
 24
1.000000E+20
 34
1.000000E+20
 15
-1.000000E+20
 25
-1.000000E+20
 35
-1.000000E+20
146
0.0
 13
0.0
 23
0.0
 33
0.0
 16
1.0
 26
0.0
 36
0.0
 17
0.0
 27
1.0
 37
0.0
 76
     0
330
1B
  0
LAYOUT
  5
26
102
{ACAD_REACTORS
330
1A
102
}
330
1A
100
AcDbPlotSettings
  1

  2
none_device
  4

  6

 40
0.0
 41
0.0
 42
0.0
 43
0.0
 44
0.0
 45
0.0
 46
0.0
 47
0.0
 48
0.0
 49
0.0
140
0.0
141
0.0
142
1.0
143
1.0
 70
   688
 72
     1
 73
     0
 74
     5
  7

 75
    16
 76
     0
 77
     2
 78
   300
147
1.0
148
0.0
149
0.0
100
AcDbLayout
  1
Layout2
 70
     1
 71
     2
 10
0.0
 20
0.0
 11
0.0
 21
0.0
 12
0.0
 22
0.0
 32
0.0
 14
0.0
 24
0.0
 34
0.0
 15
0.0
 25
0.0
 35
0.0
146
0.0
 13
0.0
 23
0.0
 33
0.0
 16
1.0
 26
0.0
 36
0.0
 17
0.0
 27
1.0
 37
0.0
 76
     0
330
23
  0
LAYOUT
  5
22
102
{ACAD_REACTORS
330
1A
102
}
330
1A
100
AcDbPlotSettings
  1

  2
none_device
  4
Letter_(8.50_x_11.00_Inches)
  6

 40
6.35
 41
6.35
 42
6.350005
 43
6.350005
 44
215.9
 45
279.4
 46
0.0
 47
0.0
 48
0.0
 49
0.0
140
0.0
141
0.0
142
1.0
143
1.0
 70
  1712
 72
     1
 73
     0
 74
     0
  7

 75
     0
 76
     0
 77
     2
 78
   300
147
1.0
148
0.0
149
0.0
100
AcDbLayout
  1
Model
 70
     1
 71
     0
 10
0.0
 20
0.0
 11
420.0
 21
297.0
 12
0.0
 22
0.0
 32
0.0
 14
1.000000E+20
 24
1.000000E+20
 34
1.000000E+20
 15
-1.000000E+20
 25
-1.000000E+20
 35
-1.000000E+20
146
0.0
 13
0.0
 23
0.0
 33
0.0
 16
1.0
 26
0.0
 36
0.0
 17
0.0
 27
1.0
 37
0.0
 76
     0
330
1F
331
29
  0
MATERIAL
  5
45
102
{ACAD_REACTORS
330
43
102
}
330
43
100
AcDbMaterial
  1
ByBlock
 72
     1
 94
      127
  0
MATERIAL
  5
44
102
{ACAD_REACTORS
330
43
102
}
330
43
100
AcDbMaterial
  1
ByLayer
 72
     1
 94
      127
  0
MATERIAL
  5
46
102
{ACAD_REACTORS
330
43
102
}
330
43
100
AcDbMaterial
  1
Global
 72
     1
 94
      127
  0
MLEADERSTYLE
  5
6C
102
{ACAD_REACTORS
330
6B
102
}
330
6B
100
AcDbMLeaderStyle
179
     2
170
     2
171
     1
172
     0
 90
        2
 40
0.0
 41
0.0
173
     1
 91
-1056964608
340
14
 92
       -2
290
     1
 42
2.0
291
     1
 43
8.0
  3
Standard
341
0
 44
4.0
300

342
11
174
     1
178
     6
175
     1
176
     0
 93
-1056964608
 45
4.0
292
     0
297
     0
 46
4.0
343
0
 94
-1056964608
 47
1.0
 49
1.0
140
1.0
293
     1
141
0.0
294
     1
177
     0
142
1.0
295
     0
296
     0
143
3.75
271
     0
272
     9
273
     9
  0
MLINESTYLE
  5
18
102
{ACAD_REACTORS
330
17
102
}
330
17
100
AcDbMlineStyle
  2
Standard
 70
     0
  3

 62
   256
 51
90.0
 52
90.0
 71
     2
 49
0.5
 62
   256
  6
BYLAYER
 49
-0.5
 62
   256
  6
BYLAYER
  0
ACDBPLACEHOLDER
  5
F
102
{ACAD_REACTORS
330
E
102
}
330
E
  0
SCALE
  5
48
102
{ACAD_REACTORS
330
47
102
}
330
47
100
AcDbScale
 70
     0
300
1:1
140
1.0
141
1.0
290
     1
  0
SCALE
  5
49
102
{ACAD_REACTORS
330
47
102
}
330
47
100
AcDbScale
 70
     0
300
1:2
140
1.0
141
2.0
290
     0
  0
SCALE
  5
4A
102
{ACAD_REACTORS
330
47
102
}
330
47
100
AcDbScale
 70
     0
300
1:4
140
1.0
141
4.0
290
     0
  0
SCALE
  5
4B
102
{ACAD_REACTORS
330
47
102
}
330
47
100
AcDbScale
 70
     0
300
1:5
140
1.0
141
5.0
290
     0
  0
SCALE
  5
4C
102
{ACAD_REACTORS
330
47
102
}
330
47
100
AcDbScale
 70
     0
300
1:8
140
1.0
141
8.0
290
     0
  0
SCALE
  5
4D
102
{ACAD_REACTORS
330
47
102
}
330
47
100
AcDbScale
 70
     0
300
1:10
140
1.0
141
10.0
290
     0
  0
SCALE
  5
4E
102
{ACAD_REACTORS
330
47
102
}
330
47
100
AcDbScale
 70
     0
300
1:16
140
1.0
141
16.0
290
     0
  0
SCALE
  5
4F
102
{ACAD_REACTORS
330
47
102
}
330
47
100
AcDbScale
 70
     0
300
1:20
140
1.0
141
20.0
290
     0
  0
SCALE
  5
50
102
{ACAD_REACTORS
330
47
102
}
330
47
100
AcDbScale
 70
     0
300
1:30
140
1.0
141
30.0
290
     0
  0
SCALE
  5
51
102
{ACAD_REACTORS
330
47
102
}
330
47
100
AcDbScale
 70
     0
300
1:40
140
1.0
141
40.0
290
     0
  0
SCALE
  5
52
102
{ACAD_REACTORS
330
47
102
}
330
47
100
AcDbScale
 70
     0
300
1:50
140
1.0
141
50.0
290
     0
  0
SCALE
  5
53
102
{ACAD_REACTORS
330
47
102
}
330
47
100
AcDbScale
 70
     0
300
1:100
140
1.0
141
100.0
290
     0
  0
SCALE
  5
54
102
{ACAD_REACTORS
330
47
102
}
330
47
100
AcDbScale
 70
     0
300
2:1
140
2.0
141
1.0
290
     0
  0
SCALE
  5
55
102
{ACAD_REACTORS
330
47
102
}
330
47
100
AcDbScale
 70
     0
300
4:1
140
4.0
141
1.0
290
     0
  0
SCALE
  5
56
102
{ACAD_REACTORS
330
47
102
}
330
47
100
AcDbScale
 70
     0
300
8:1
140
8.0
141
1.0
290
     0
  0
SCALE
  5
57
102
{ACAD_REACTORS
330
47
102
}
330
47
100
AcDbScale
 70
     0
300
10:1
140
10.0
141
1.0
290
     0
  0
SCALE
  5
58
102
{ACAD_REACTORS
330
47
102
}
330
47
100
AcDbScale
 70
     0
300
100:1
140
100.0
141
1.0
290
     0
  0
SCALE
  5
59
102
{ACAD_REACTORS
330
47
102
}
330
47
100
AcDbScale
 70
     0
300
1/128" = 1'-0"
140
0.007812
141
12.0
290
     0
  0
SCALE
  5
5A
102
{ACAD_REACTORS
330
47
102
}
330
47
100
AcDbScale
 70
     0
300
1/64" = 1'-0"
140
0.015625
141
12.0
290
     0
  0
SCALE
  5
5B
102
{ACAD_REACTORS
330
47
102
}
330
47
100
AcDbScale
 70
     0
300
1/32" = 1'-0"
140
0.03125
141
12.0
290
     0
  0
SCALE
  5
5C
102
{ACAD_REACTORS
330
47
102
}
330
47
100
AcDbScale
 70
     0
300
1/16" = 1'-0"
140
0.0625
141
12.0
290
     0
  0
SCALE
  5
5D
102
{ACAD_REACTORS
330
47
102
}
330
47
100
AcDbScale
 70
     0
300
3/32" = 1'-0"
140
0.09375
141
12.0
290
     0
  0
SCALE
  5
5E
102
{ACAD_REACTORS
330
47
102
}
330
47
100
AcDbScale
 70
     0
300
1/8" = 1'-0"
140
0.125
141
12.0
290
     0
  0
SCALE
  5
5F
102
{ACAD_REACTORS
330
47
102
}
330
47
100
AcDbScale
 70
     0
300
3/16" = 1'-0"
140
0.1875
141
12.0
290
     0
  0
SCALE
  5
60
102
{ACAD_REACTORS
330
47
102
}
330
47
100
AcDbScale
 70
     0
300
1/4" = 1'-0"
140
0.25
141
12.0
290
     0
  0
SCALE
  5
61
102
{ACAD_REACTORS
330
47
102
}
330
47
100
AcDbScale
 70
     0
300
3/8" = 1'-0"
140
0.375
141
12.0
290
     0
  0
SCALE
  5
62
102
{ACAD_REACTORS
330
47
102
}
330
47
100
AcDbScale
 70
     0
300
1/2" = 1'-0"
140
0.5
141
12.0
290
     0
  0
SCALE
  5
63
102
{ACAD_REACTORS
330
47
102
}
330
47
100
AcDbScale
 70
     0
300
3/4" = 1'-0"
140
0.75
141
12.0
290
     0
  0
SCALE
  5
64
102
{ACAD_REACTORS
330
47
102
}
330
47
100
AcDbScale
 70
     0
300
1" = 1'-0"
140
1.0
141
12.0
290
     0
  0
SCALE
  5
65
102
{ACAD_REACTORS
330
47
102
}
330
47
100
AcDbScale
 70
     0
300
1-1/2" = 1'-0"
140
1.5
141
12.0
290
     0
  0
SCALE
  5
66
102
{ACAD_REACTORS
330
47
102
}
330
47
100
AcDbScale
 70
     0
300
3" = 1'-0"
140
3.0
141
12.0
290
     0
  0
SCALE
  5
67
102
{ACAD_REACTORS
330
47
102
}
330
47
100
AcDbScale
 70
     0
300
6" = 1'-0"
140
6.0
141
12.0
290
     0
  0
SCALE
  5
68
102
{ACAD_REACTORS
330
47
102
}
330
47
100
AcDbScale
 70
     0
300
1'-0" = 1'-0"
140
12.0
141
12.0
290
     0
  0
TABLESTYLE
  5
6A
102
{ACAD_REACTORS
330
69
102
}
102
{ACAD_XDICTIONARY
360
18B
102
}
330
69
100
AcDbTableStyle
  3
Standard
 70
     0
 71
     0
 40
0.06
 41
0.06
280
     0
281
     0
  7
Standard
140
4.5
170
     2
 62
     0
 63
   257
283
     0
 90
        4
 91
        0
  1

274
    -2
284
     1
 64
     0
275
    -2
285
     1
 65
     0
276
    -2
286
     1
 66
     0
277
    -2
287
     1
 67
     0
278
    -2
288
     1
 68
     0
279
    -2
289
     1
 69
     0
  7
Standard
140
6.0
170
     5
 62
     0
 63
   257
283
     0
 90
        4
 91
        0
  1

274
    -2
284
     1
 64
     0
275
    -2
285
     1
 65
     0
276
    -2
286
     1
 66
     0
277
    -2
287
     1
 67
     0
278
    -2
288
     1
 68
     0
279
    -2
289
     1
 69
     0
  7
Standard
140
4.5
170
     5
 62
     0
 63
   257
283
     0
 90
        4
 91
        0
  1

274
    -2
284
     1
 64
     0
275
    -2
285
     1
 65
     0
276
    -2
286
     1
 66
     0
277
    -2
287
     1
 67
     0
278
    -2
288
     1
 68
     0
279
    -2
289
     1
 69
     0
  0
VISUALSTYLE
  5
2F
102
{ACAD_REACTORS
330
2A
102
}
102
{ACAD_XDICTIONARY
360
163
102
}
330
2A
100
AcDbVisualStyle
  2
2dWireframe
 70
     4
177
     2
291
     0
 71
     0
176
     1
 72
     2
176
     1
 73
     0
176
     1
 90
        0
176
     1
 40
0.6
176
     1
 41
30.0
176
     1
 62
     5
 63
     7
421
 16777215
176
     1
 74
     1
176
     1
 91
        4
176
     1
 64
     7
176
     1
 65
   257
176
     1
 75
     1
176
     1
175
     1
176
     1
 42
1.0
176
     1
 92
        0
176
     1
 66
   257
176
     1
 43
1.0
176
     1
 76
     1
176
     1
 77
     6
176
     1
 78
     2
176
     1
 67
     7
176
     1
 79
     5
176
     1
170
     0
176
     1
171
     0
176
     1
290
     0
176
     1
 93
        1
176
     1
 44
0.0
176
     1
173
     0
176
     1
  0
VISUALSTYLE
  5
32
102
{ACAD_REACTORS
330
2A
102
}
102
{ACAD_XDICTIONARY
360
169
102
}
330
2A
100
AcDbVisualStyle
  2
Basic
 70
     7
177
     2
291
     1
 71
     1
176
     1
 72
     0
176
     1
 73
     1
176
     1
 90
        0
176
     1
 40
0.6
176
     1
 41
30.0
176
     1
 62
     5
 63
     7
421
 16777215
176
     1
 74
     0
176
     1
 91
        4
176
     1
 64
     7
176
     1
 65
   257
176
     1
 75
     1
176
     1
175
     1
176
     1
 42
1.0
176
     1
 92
        8
176
     1
 66
     7
176
     1
 43
1.0
176
     1
 76
     1
176
     1
 77
     6
176
     1
 78
     2
176
     1
 67
     7
176
     1
 79
     5
176
     1
170
     0
176
     1
171
     0
176
     1
290
     0
176
     1
 93
        1
176
     1
 44
0.0
176
     1
173
     0
176
     1
  0
VISUALSTYLE
  5
36
102
{ACAD_REACTORS
330
2A
102
}
102
{ACAD_XDICTIONARY
360
171
102
}
330
2A
100
AcDbVisualStyle
  2
Brighten
 70
    12
177
     2
291
     1
 71
     2
176
     1
 72
     2
176
     1
 73
     0
176
     1
 90
        0
176
     1
 40
0.6
176
     1
 41
30.0
176
     1
 62
     5
 63
     7
421
 16777215
176
     1
 74
     1
176
     1
 91
        4
176
     1
 64
     7
176
     1
 65
   257
176
     1
 75
     1
176
     1
175
     1
176
     1
 42
1.0
176
     1
 92
        8
176
     1
 66
     7
176
     1
 43
1.0
176
     1
 76
     1
176
     1
 77
     6
176
     1
 78
     2
176
     1
 67
     7
176
     1
 79
     5
176
     1
170
     0
176
     1
171
     0
176
     1
290
     0
176
     1
 93
        1
176
     1
 44
50.0
176
     1
173
     0
176
     1
  0
VISUALSTYLE
  5
3A
102
{ACAD_REACTORS
330
2A
102
}
102
{ACAD_XDICTIONARY
360
179
102
}
330
2A
100
AcDbVisualStyle
  2
ColorChange
 70
    16
177
     2
291
     1
 71
     2
176
     1
 72
     2
176
     1
 73
     3
176
     1
 90
        0
176
     1
 40
0.6
176
     1
 41
30.0
176
     1
 62
     5
 63
     8
421
  8421504
176
     1
 74
     1
176
     1
 91
        4
176
     1
 64
     7
176
     1
 65
   257
176
     1
 75
     1
176
     1
175
     1
176
     1
 42
1.0
176
     1
 92
        8
176
     1
 66
     8
424
  8421504
176
     1
 43
1.0
176
     1
 76
     1
176
     1
 77
     6
176
     1
 78
     2
176
     1
 67
     7
176
     1
 79
     5
176
     1
170
     0
176
     1
171
     0
176
     1
290
     0
176
     1
 93
        1
176
     1
 44
0.0
176
     1
173
     0
176
     1
  0
VISUALSTYLE
  5
34
102
{ACAD_REACTORS
330
2A
102
}
102
{ACAD_XDICTIONARY
360
16D
102
}
330
2A
100
AcDbVisualStyle
  2
Conceptual
 70
     9
177
     2
291
     0
 71
     3
176
     1
 72
     2
176
     1
 73
     0
176
     1
 90
        0
176
     1
 40
0.6
176
     1
 41
30.0
176
     1
 62
     5
 63
     7
421
 16777215
176
     1
 74
     2
176
     1
 91
        2
176
     1
 64
     7
176
     1
 65
   257
176
     1
 75
     1
176
     1
175
     1
176
     1
 42
179.0
176
     1
 92
        8
176
     1
 66
     7
176
     1
 43
1.0
176
     1
 76
     1
176
     1
 77
     6
176
     1
 78
     2
176
     1
 67
     7
176
     1
 79
     3
176
     1
170
     0
176
     1
171
     0
176
     1
290
     0
176
     1
 93
        1
176
     1
 44
0.0
176
     1
173
     0
176
     1
  0
VISUALSTYLE
  5
35
102
{ACAD_REACTORS
330
2A
102
}
102
{ACAD_XDICTIONARY
360
16F
102
}
330
2A
100
AcDbVisualStyle
  2
Dim
 70
    11
177
     2
291
     1
 71
     2
176
     1
 72
     2
176
     1
 73
     0
176
     1
 90
        0
176
     1
 40
0.6
176
     1
 41
30.0
176
     1
 62
     5
 63
     7
421
 16777215
176
     1
 74
     1
176
     1
 91
        4
176
     1
 64
     7
176
     1
 65
   257
176
     1
 75
     1
176
     1
175
     1
176
     1
 42
1.0
176
     1
 92
        8
176
     1
 66
     7
176
     1
 43
1.0
176
     1
 76
     1
176
     1
 77
     6
176
     1
 78
     2
176
     1
 67
     7
176
     1
 79
     5
176
     1
170
     0
176
     1
171
     0
176
     1
290
     0
176
     1
 93
        1
176
     1
 44
-50.0
176
     1
173
     0
176
     1
  0
VISUALSTYLE
  5
3D
102
{ACAD_REACTORS
330
2A
102
}
102
{ACAD_XDICTIONARY
360
17F
102
}
330
2A
100
AcDbVisualStyle
  2
EdgeColorOff
 70
    22
177
     2
291
     1
 71
     2
176
     0
 72
     2
176
     0
 73
     0
176
     0
 90
        0
176
     0
 40
0.6
176
     0
 41
30.0
176
     0
 62
     5
 63
     7
421
 16777215
176
     0
 74
     1
176
     0
 91
        4
176
     0
 64
     7
176
     0
 65
   257
176
     0
 75
     1
176
     0
175
     1
176
     0
 42
1.0
176
     0
 92
        8
176
     2
 66
     7
176
     0
 43
1.0
176
     0
 76
     1
176
     0
 77
     6
176
     0
 78
     2
176
     0
 67
     7
176
     0
 79
     5
176
     0
170
     0
176
     0
171
     0
176
     0
290
     0
176
     0
 93
        1
176
     0
 44
0.0
176
     0
173
     0
176
     0
  0
VISUALSTYLE
  5
39
102
{ACAD_REACTORS
330
2A
102
}
102
{ACAD_XDICTIONARY
360
177
102
}
330
2A
100
AcDbVisualStyle
  2
Facepattern
 70
    15
177
     2
291
     1
 71
     2
176
     1
 72
     2
176
     1
 73
     0
176
     1
 90
        0
176
     1
 40
0.6
176
     1
 41
30.0
176
     1
 62
     5
 63
     7
421
 16777215
176
     1
 74
     1
176
     1
 91
        4
176
     1
 64
     7
176
     1
 65
   257
176
     1
 75
     1
176
     1
175
     1
176
     1
 42
1.0
176
     1
 92
        8
176
     1
 66
     7
176
     1
 43
1.0
176
     1
 76
     1
176
     1
 77
     6
176
     1
 78
     2
176
     1
 67
     7
176
     1
 79
     5
176
     1
170
     0
176
     1
171
     0
176
     1
290
     0
176
     1
 93
        1
176
     1
 44
0.0
176
     1
173
     0
176
     1
  0
VISUALSTYLE
  5
2B
102
{ACAD_REACTORS
330
2A
102
}
102
{ACAD_XDICTIONARY
360
15B
102
}
330
2A
100
AcDbVisualStyle
  2
Flat
 70
     0
177
     2
291
     1
 71
     2
176
     1
 72
     1
176
     1
 73
     1
176
     1
 90
        2
176
     1
 40
0.6
176
     1
 41
30.0
176
     1
 62
     5
 63
     7
421
 16777215
176
     1
 74
     0
176
     1
 91
        0
176
     1
 64
     7
176
     1
 65
   257
176
     1
 75
     1
176
     1
175
     1
176
     1
 42
1.0
176
     1
 92
        8
176
     1
 66
     7
176
     1
 43
1.0
176
     1
 76
     1
176
     1
 77
     6
176
     1
 78
     2
176
     1
 67
     7
176
     1
 79
     5
176
     1
170
     0
176
     1
171
     0
176
     1
290
     0
176
     1
 93
       13
176
     1
 44
0.0
176
     1
173
     0
176
     1
  0
VISUALSTYLE
  5
2C
102
{ACAD_REACTORS
330
2A
102
}
102
{ACAD_XDICTIONARY
360
15D
102
}
330
2A
100
AcDbVisualStyle
  2
FlatWithEdges
 70
     1
177
     2
291
     1
 71
     2
176
     1
 72
     1
176
     1
 73
     1
176
     1
 90
        2
176
     1
 40
0.6
176
     1
 41
30.0
176
     1
 62
     5
 63
     7
421
 16777215
176
     1
 74
     1
176
     1
 91
        0
176
     1
 64
     7
176
     1
 65
   257
176
     1
 75
     1
176
     1
175
     1
176
     1
 42
1.0
176
     1
 92
        0
176
     1
 66
   257
176
     1
 43
1.0
176
     1
 76
     1
176
     1
 77
     6
176
     1
 78
     2
176
     1
 67
     7
176
     1
 79
     5
176
     1
170
     0
176
     1
171
     0
176
     1
290
     0
176
     1
 93
       13
176
     1
 44
0.0
176
     1
173
     0
176
     1
  0
VISUALSTYLE
  5
2D
102
{ACAD_REACTORS
330
2A
102
}
102
{ACAD_XDICTIONARY
360
15F
102
}
330
2A
100
AcDbVisualStyle
  2
Gouraud
 70
     2
177
     2
291
     1
 71
     2
176
     1
 72
     2
176
     1
 73
     1
176
     1
 90
        2
176
     1
 40
0.6
176
     1
 41
30.0
176
     1
 62
     5
 63
     7
421
 16777215
176
     1
 74
     0
176
     1
 91
        0
176
     1
 64
     7
176
     1
 65
   257
176
     1
 75
     1
176
     1
175
     1
176
     1
 42
1.0
176
     1
 92
        0
176
     1
 66
     7
176
     1
 43
1.0
176
     1
 76
     1
176
     1
 77
     6
176
     1
 78
     2
176
     1
 67
     7
176
     1
 79
     5
176
     1
170
     0
176
     1
171
     0
176
     1
290
     0
176
     1
 93
       13
176
     1
 44
0.0
176
     1
173
     0
176
     1
  0
VISUALSTYLE
  5
2E
102
{ACAD_REACTORS
330
2A
102
}
102
{ACAD_XDICTIONARY
360
161
102
}
330
2A
100
AcDbVisualStyle
  2
GouraudWithEdges
 70
     3
177
     2
291
     1
 71
     2
176
     1
 72
     2
176
     1
 73
     1
176
     1
 90
        2
176
     1
 40
0.6
176
     1
 41
30.0
176
     1
 62
     5
 63
     7
421
 16777215
176
     1
 74
     1
176
     1
 91
        0
176
     1
 64
     7
176
     1
 65
   257
176
     1
 75
     1
176
     1
175
     1
176
     1
 42
1.0
176
     1
 92
        0
176
     1
 66
   257
176
     1
 43
1.0
176
     1
 76
     1
176
     1
 77
     6
176
     1
 78
     2
176
     1
 67
     7
176
     1
 79
     5
176
     1
170
     0
176
     1
171
     0
176
     1
290
     0
176
     1
 93
       13
176
     1
 44
0.0
176
     1
173
     0
176
     1
  0
VISUALSTYLE
  5
31
102
{ACAD_REACTORS
330
2A
102
}
102
{ACAD_XDICTIONARY
360
167
102
}
330
2A
100
AcDbVisualStyle
  2
Hidden
 70
     6
177
     2
291
     0
 71
     1
176
     1
 72
     2
176
     1
 73
     2
176
     1
 90
        0
176
     1
 40
0.6
176
     1
 41
30.0
176
     1
 62
     5
 63
     7
421
 16777215
176
     1
 74
     2
176
     1
 91
        2
176
     1
 64
     7
176
     1
 65
   257
176
     1
 75
     2
176
     1
175
     1
176
     1
 42
40.0
176
     1
 92
        0
176
     1
 66
   257
176
     1
 43
1.0
176
     1
 76
     1
176
     1
 77
     6
176
     1
 78
     2
176
     1
 67
     7
176
     1
 79
     3
176
     1
170
     0
176
     1
171
     0
176
     1
290
     0
176
     1
 93
        1
176
     1
 44
0.0
176
     1
173
     0
176
     1
  0
VISUALSTYLE
  5
3B
102
{ACAD_REACTORS
330
2A
102
}
102
{ACAD_XDICTIONARY
360
17B
102
}
330
2A
100
AcDbVisualStyle
  2
JitterOff
 70
    20
177
     2
291
     1
 71
     2
176
     0
 72
     2
176
     0
 73
     0
176
     0
 90
        0
176
     0
 40
0.6
176
     0
 41
30.0
176
     0
 62
     5
 63
     7
421
 16777215
176
     0
 74
     1
176
     0
 91
        4
176
     0
 64
     7
176
     0
 65
   257
176
     0
 75
     1
176
     0
175
     1
176
     0
 42
1.0
176
     0
 92
       10
176
     2
 66
     7
176
     0
 43
1.0
176
     0
 76
     1
176
     0
 77
     6
176
     0
 78
     2
176
     0
 67
     7
176
     0
 79
     5
176
     0
170
     0
176
     0
171
     0
176
     0
290
     0
176
     0
 93
        1
176
     0
 44
0.0
176
     0
173
     0
176
     0
  0
VISUALSTYLE
  5
38
102
{ACAD_REACTORS
330
2A
102
}
102
{ACAD_XDICTIONARY
360
175
102
}
330
2A
100
AcDbVisualStyle
  2
Linepattern
 70
    14
177
     2
291
     1
 71
     2
176
     1
 72
     2
176
     1
 73
     0
176
     1
 90
        0
176
     1
 40
0.6
176
     1
 41
30.0
176
     1
 62
     5
 63
     7
421
 16777215
176
     1
 74
     1
176
     1
 91
        4
176
     1
 64
     7
176
     1
 65
   257
176
     1
 75
     7
176
     1
175
     7
176
     1
 42
1.0
176
     1
 92
        8
176
     1
 66
     7
176
     1
 43
1.0
176
     1
 76
     1
176
     1
 77
     6
176
     1
 78
     2
176
     1
 67
     7
176
     1
 79
     5
176
     1
170
     0
176
     1
171
     0
176
     1
290
     0
176
     1
 93
        1
176
     1
 44
0.0
176
     1
173
     0
176
     1
  0
VISUALSTYLE
  5
3C
102
{ACAD_REACTORS
330
2A
102
}
102
{ACAD_XDICTIONARY
360
17D
102
}
330
2A
100
AcDbVisualStyle
  2
OverhangOff
 70
    21
177
     2
291
     1
 71
     2
176
     0
 72
     2
176
     0
 73
     0
176
     0
 90
        0
176
     0
 40
0.6
176
     0
 41
30.0
176
     0
 62
     5
 63
     7
421
 16777215
176
     0
 74
     1
176
     0
 91
        4
176
     0
 64
     7
176
     0
 65
   257
176
     0
 75
     1
176
     0
175
     1
176
     0
 42
1.0
176
     0
 92
        9
176
     2
 66
     7
176
     0
 43
1.0
176
     0
 76
     1
176
     0
 77
     6
176
     0
 78
     2
176
     0
 67
     7
176
     0
 79
     5
176
     0
170
     0
176
     0
171
     0
176
     0
290
     0
176
     0
 93
        1
176
     0
 44
0.0
176
     0
173
     0
176
     0
  0
VISUALSTYLE
  5
33
102
{ACAD_REACTORS
330
2A
102
}
102
{ACAD_XDICTIONARY
360
16B
102
}
330
2A
100
AcDbVisualStyle
  2
Realistic
 70
     8
177
     2
291
     0
 71
     2
176
     1
 72
     3
176
     1
 73
     0
176
     1
 90
        2
176
     1
 40
0.6
176
     1
 41
30.0
176
     1
 62
     5
 63
     7
421
 16777215
176
     1
 74
     0
176
     1
 91
        0
176
     1
 64
     7
176
     1
 65
   257
176
     1
 75
     1
176
     1
175
     1
176
     1
 42
1.0
176
     1
 92
        8
176
     1
 66
   257
176
     1
 43
1.0
176
     1
 76
     1
176
     1
 77
     6
176
     1
 78
     2
176
     1
 67
     7
176
     1
 79
     3
176
     1
170
     0
176
     1
171
     0
176
     1
290
     0
176
     1
 93
       13
176
     1
 44
0.0
176
     1
173
     0
176
     1
  0
VISUALSTYLE
  5
42
102
{ACAD_REACTORS
330
2A
102
}
102
{ACAD_XDICTIONARY
360
189
102
}
330
2A
100
AcDbVisualStyle
  2
Shaded
 70
    27
177
     2
291
     0
 71
     2
176
     1
 72
     2
176
     1
 73
     1
176
     1
 90
        2
176
     1
 40
0.6
176
     1
 41
30.0
176
     1
 62
     5
 63
     7
421
 16777215
176
     1
 74
     0
176
     1
 91
        4
176
     1
 64
     7
176
     1
 65
   257
176
     1
 75
     1
176
     1
175
     1
176
     1
 42
1.0
176
     1
 92
        8
176
     1
 66
   257
176
     1
 43
1.0
176
     1
 76
     1
176
     1
 77
     6
176
     1
 78
     2
176
     1
 67
     8
425
  7895160
176
     1
 79
     3
176
     1
170
     0
176
     1
171
     0
176
     1
290
     0
176
     1
 93
        5
176
     1
 44
0.0
176
     1
173
     0
176
     1
  0
VISUALSTYLE
  5
41
102
{ACAD_REACTORS
330
2A
102
}
102
{ACAD_XDICTIONARY
360
187
102
}
330
2A
100
AcDbVisualStyle
  2
Shaded with edges
 70
    26
177
     2
291
     0
 71
     2
176
     1
 72
     2
176
     1
 73
     1
176
     1
 90
        2
176
     1
 40
0.6
176
     1
 41
30.0
176
     1
 62
     5
 63
     7
421
 16777215
176
     1
 74
     1
176
     1
 91
       10
176
     1
 64
     7
176
     1
 65
   257
176
     1
 75
     2
176
     1
175
     1
176
     1
 42
1.0
176
     1
 92
        8
176
     1
 66
   257
176
     1
 43
1.0
176
     1
 76
     1
176
     1
 77
     6
176
     1
 78
     2
176
     1
 67
     7
176
     1
 79
     3
176
     1
170
     0
176
     1
171
     0
176
     1
290
     0
176
     1
 93
        5
176
     1
 44
0.0
176
     1
173
     0
176
     1
  0
VISUALSTYLE
  5
3E
102
{ACAD_REACTORS
330
2A
102
}
102
{ACAD_XDICTIONARY
360
181
102
}
330
2A
100
AcDbVisualStyle
  2
Shades of Gray
 70
    23
177
     2
291
     0
 71
     2
176
     1
 72
     2
176
     1
 73
     3
176
     1
 90
        0
176
     1
 40
0.6
176
     1
 41
30.0
176
     1
 62
     5
 63
     7
421
 16777215
176
     1
 74
     2
176
     1
 91
        2
176
     1
 64
     7
176
     1
 65
     7
176
     1
 75
     1
176
     1
175
     1
176
     1
 42
40.0
176
     1
 92
        8
176
     1
 66
     7
176
     1
 43
1.0
176
     1
 76
     1
176
     1
 77
     6
176
     1
 78
     2
176
     1
 67
     7
176
     1
 79
     3
176
     1
170
     0
176
     1
171
     0
176
     1
290
     0
176
     1
 93
        1
176
     1
 44
0.0
176
     1
173
     0
176
     1
  0
VISUALSTYLE
  5
3F
102
{ACAD_REACTORS
330
2A
102
}
102
{ACAD_XDICTIONARY
360
183
102
}
330
2A
100
AcDbVisualStyle
  2
Sketchy
 70
    24
177
     2
291
     0
 71
     1
176
     1
 72
     2
176
     1
 73
     2
176
     1
 90
        0
176
     1
 40
0.6
176
     1
 41
30.0
176
     1
 62
     5
 63
     7
421
 16777215
176
     1
 74
     2
176
     1
 91
        2
176
     1
 64
     7
176
     1
 65
     7
176
     1
 75
     1
176
     1
175
     1
176
     1
 42
40.0
176
     1
 92
       11
176
     1
 66
     7
176
     1
 43
1.0
176
     1
 76
     1
176
     1
 77
     6
176
     1
 78
     2
176
     1
 67
     7
176
     1
 79
     6
176
     1
170
     0
176
     1
171
     0
176
     1
290
     0
176
     1
 93
        1
176
     1
 44
0.0
176
     1
173
     0
176
     1
  0
VISUALSTYLE
  5
37
102
{ACAD_REACTORS
330
2A
102
}
102
{ACAD_XDICTIONARY
360
173
102
}
330
2A
100
AcDbVisualStyle
  2
Thicken
 70
    13
177
     2
291
     1
 71
     2
176
     1
 72
     2
176
     1
 73
     0
176
     1
 90
        0
176
     1
 40
0.6
176
     1
 41
30.0
176
     1
 62
     5
 63
     7
421
 16777215
176
     1
 74
     1
176
     1
 91
        4
176
     1
 64
     7
176
     1
 65
   257
176
     1
 75
     1
176
     1
175
     1
176
     1
 42
1.0
176
     1
 92
       12
176
     1
 66
     7
176
     1
 43
1.0
176
     1
 76
     1
176
     1
 77
     6
176
     1
 78
     2
176
     1
 67
     7
176
     1
 79
     5
176
     1
170
     0
176
     1
171
     0
176
     1
290
     0
176
     1
 93
        1
176
     1
 44
0.0
176
     1
173
     0
176
     1
  0
VISUALSTYLE
  5
30
102
{ACAD_REACTORS
330
2A
102
}
102
{ACAD_XDICTIONARY
360
165
102
}
330
2A
100
AcDbVisualStyle
  2
Wireframe
 70
     5
177
     2
291
     0
 71
     0
176
     1
 72
     2
176
     1
 73
     0
176
     1
 90
        0
176
     1
 40
0.6
176
     1
 41
30.0
176
     1
 62
     5
 63
     7
421
 16777215
176
     1
 74
     1
176
     1
 91
        4
176
     1
 64
     7
176
     1
 65
   257
176
     1
 75
     1
176
     1
175
     1
176
     1
 42
1.0
176
     1
 92
        0
176
     1
 66
   257
176
     1
 43
1.0
176
     1
 76
     1
176
     1
 77
     6
176
     1
 78
     2
176
     1
 67
     7
176
     1
 79
     3
176
     1
170
     0
176
     1
171
     0
176
     1
290
     0
176
     1
 93
        1
176
     1
 44
0.0
176
     1
173
     0
176
     1
  0
VISUALSTYLE
  5
40
102
{ACAD_REACTORS
330
2A
102
}
102
{ACAD_XDICTIONARY
360
185
102
}
330
2A
100
AcDbVisualStyle
  2
X-Ray
 70
    25
177
     2
291
     0
 71
     2
176
     1
 72
     2
176
     1
 73
     1
176
     1
 90
        1
176
     1
 40
0.5
176
     1
 41
30.0
176
     1
 62
     5
 63
     7
421
 16777215
176
     1
 74
     1
176
     1
 91
        0
176
     1
 64
     7
176
     1
 65
   257
176
     1
 75
     1
176
     1
175
     1
176
     1
 42
1.0
176
     1
 92
        8
176
     1
 66
     7
176
     1
 43
1.0
176
     1
 76
     1
176
     1
 77
     6
176
     1
 78
     2
176
     1
 67
     7
176
     1
 79
     3
176
     1
170
     0
176
     1
171
     0
176
     1
290
     0
176
     1
 93
       13
176
     1
 44
0.0
176
     1
173
     0
176
     1
  0
DICTIONARYVAR
  5
15A
102
{ACAD_REACTORS
330
159
102
}
330
159
100
DictionaryVariables
280
     0
  1
1:1
  0
DICTIONARYVAR
  5
18F
102
{ACAD_REACTORS
330
159
102
}
330
159
100
DictionaryVariables
280
     0
  1
Standard
  0
DICTIONARYVAR
  5
18E
102
{ACAD_REACTORS
330
159
102
}
330
159
100
DictionaryVariables
280
     0
  1
Standard
  0
DICTIONARY
  5
18B
330
6A
100
AcDbDictionary
280
     1
281
     1
  3
ACAD_ROUNDTRIP_2008_TABLESTYLE_CELLSTYLEMAP
360
18C
  0
DICTIONARY
  5
163
330
2F
100
AcDbDictionary
280
     1
281
     1
  3
ACAD_XREC_ROUNDTRIP
360
164
  0
DICTIONARY
  5
169
330
32
100
AcDbDictionary
280
     1
281
     1
  3
ACAD_XREC_ROUNDTRIP
360
16A
  0
DICTIONARY
  5
171
330
36
100
AcDbDictionary
280
     1
281
     1
  3
ACAD_XREC_ROUNDTRIP
360
172
  0
DICTIONARY
  5
179
330
3A
100
AcDbDictionary
280
     1
281
     1
  3
ACAD_XREC_ROUNDTRIP
360
17A
  0
DICTIONARY
  5
16D
330
34
100
AcDbDictionary
280
     1
281
     1
  3
ACAD_XREC_ROUNDTRIP
360
16E
  0
DICTIONARY
  5
16F
330
35
100
AcDbDictionary
280
     1
281
     1
  3
ACAD_XREC_ROUNDTRIP
360
170
  0
DICTIONARY
  5
17F
330
3D
100
AcDbDictionary
280
     1
281
     1
  3
ACAD_XREC_ROUNDTRIP
360
180
  0
DICTIONARY
  5
177
330
39
100
AcDbDictionary
280
     1
281
     1
  3
ACAD_XREC_ROUNDTRIP
360
178
  0
DICTIONARY
  5
15B
330
2B
100
AcDbDictionary
280
     1
281
     1
  3
ACAD_XREC_ROUNDTRIP
360
15C
  0
DICTIONARY
  5
15D
330
2C
100
AcDbDictionary
280
     1
281
     1
  3
ACAD_XREC_ROUNDTRIP
360
15E
  0
DICTIONARY
  5
15F
330
2D
100
AcDbDictionary
280
     1
281
     1
  3
ACAD_XREC_ROUNDTRIP
360
160
  0
DICTIONARY
  5
161
330
2E
100
AcDbDictionary
280
     1
281
     1
  3
ACAD_XREC_ROUNDTRIP
360
162
  0
DICTIONARY
  5
167
330
31
100
AcDbDictionary
280
     1
281
     1
  3
ACAD_XREC_ROUNDTRIP
360
168
  0
DICTIONARY
  5
17B
330
3B
100
AcDbDictionary
280
     1
281
     1
  3
ACAD_XREC_ROUNDTRIP
360
17C
  0
DICTIONARY
  5
175
330
38
100
AcDbDictionary
280
     1
281
     1
  3
ACAD_XREC_ROUNDTRIP
360
176
  0
DICTIONARY
  5
17D
330
3C
100
AcDbDictionary
280
     1
281
     1
  3
ACAD_XREC_ROUNDTRIP
360
17E
  0
DICTIONARY
  5
16B
330
33
100
AcDbDictionary
280
     1
281
     1
  3
ACAD_XREC_ROUNDTRIP
360
16C
  0
DICTIONARY
  5
189
330
42
100
AcDbDictionary
280
     1
281
     1
  3
ACAD_XREC_ROUNDTRIP
360
18A
  0
DICTIONARY
  5
187
330
41
100
AcDbDictionary
280
     1
281
     1
  3
ACAD_XREC_ROUNDTRIP
360
188
  0
DICTIONARY
  5
181
330
3E
100
AcDbDictionary
280
     1
281
     1
  3
ACAD_XREC_ROUNDTRIP
360
182
  0
DICTIONARY
  5
183
330
3F
100
AcDbDictionary
280
     1
281
     1
  3
ACAD_XREC_ROUNDTRIP
360
184
  0
DICTIONARY
  5
173
330
37
100
AcDbDictionary
280
     1
281
     1
  3
ACAD_XREC_ROUNDTRIP
360
174
  0
DICTIONARY
  5
165
330
30
100
AcDbDictionary
280
     1
281
     1
  3
ACAD_XREC_ROUNDTRIP
360
166
  0
DICTIONARY
  5
185
330
40
100
AcDbDictionary
280
     1
281
     1
  3
ACAD_XREC_ROUNDTRIP
360
186
  0
CELLSTYLEMAP
  5
18C
102
{ACAD_REACTORS
330
18B
102
}
330
18B
100
AcDbCellStyleMap
 90
        3
300
CELLSTYLE
  1
TABLEFORMAT_BEGIN
 90
        5
170
     1
 91
        0
 92
    32768
 62
   257
 93
        1
300
CONTENTFORMAT
  1
CONTENTFORMAT_BEGIN
 90
        0
 91
        0
 92
        4
 93
        0
300

 40
0.0
140
1.0
 94
        5
 62
     0
340
11
144
6.0
309
CONTENTFORMAT_END
171
     1
301
MARGIN
  1
CELLMARGIN_BEGIN
 40
1.5
 40
1.5
 40
1.5
 40
1.5
 40
1.5
 40
1.5
309
CELLMARGIN_END
 94
        6
 95
        1
302
GRIDFORMAT
  1
GRIDFORMAT_BEGIN
 90
        0
 91
        1
 62
     0
 92
       -2
340
14
 93
        0
 40
0.045
309
GRIDFORMAT_END
 95
        2
302
GRIDFORMAT
  1
GRIDFORMAT_BEGIN
 90
        0
 91
        1
 62
     0
 92
       -2
340
14
 93
        0
 40
0.045
309
GRIDFORMAT_END
 95
        4
302
GRIDFORMAT
  1
GRIDFORMAT_BEGIN
 90
        0
 91
        1
 62
     0
 92
       -2
340
14
 93
        0
 40
0.045
309
GRIDFORMAT_END
 95
        8
302
GRIDFORMAT
  1
GRIDFORMAT_BEGIN
 90
        0
 91
        1
 62
     0
 92
       -2
340
14
 93
        0
 40
0.045
309
GRIDFORMAT_END
 95
       16
302
GRIDFORMAT
  1
GRIDFORMAT_BEGIN
 90
        0
 91
        1
 62
     0
 92
       -2
340
14
 93
        0
 40
0.045
309
GRIDFORMAT_END
 95
       32
302
GRIDFORMAT
  1
GRIDFORMAT_BEGIN
 90
        0
 91
        1
 62
     0
 92
       -2
340
14
 93
        0
 40
0.045
309
GRIDFORMAT_END
309
TABLEFORMAT_END
  1
CELLSTYLE_BEGIN
 90
        1
 91
        1
300
_TITLE
309
CELLSTYLE_END
300
CELLSTYLE
  1
TABLEFORMAT_BEGIN
 90
        5
170
     1
 91
        0
 92
        0
 62
   257
 93
        1
300
CONTENTFORMAT
  1
CONTENTFORMAT_BEGIN
 90
        0
 91
        0
 92
        4
 93
        0
300

 40
0.0
140
1.0
 94
        5
 62
     0
340
11
144
4.5
309
CONTENTFORMAT_END
171
     1
301
MARGIN
  1
CELLMARGIN_BEGIN
 40
1.5
 40
1.5
 40
1.5
 40
1.5
 40
1.5
 40
1.5
309
CELLMARGIN_END
 94
        6
 95
        1
302
GRIDFORMAT
  1
GRIDFORMAT_BEGIN
 90
        0
 91
        1
 62
     0
 92
       -2
340
14
 93
        0
 40
0.045
309
GRIDFORMAT_END
 95
        2
302
GRIDFORMAT
  1
GRIDFORMAT_BEGIN
 90
        0
 91
        1
 62
     0
 92
       -2
340
14
 93
        0
 40
0.045
309
GRIDFORMAT_END
 95
        4
302
GRIDFORMAT
  1
GRIDFORMAT_BEGIN
 90
        0
 91
        1
 62
     0
 92
       -2
340
14
 93
        0
 40
0.045
309
GRIDFORMAT_END
 95
        8
302
GRIDFORMAT
  1
GRIDFORMAT_BEGIN
 90
        0
 91
        1
 62
     0
 92
       -2
340
14
 93
        0
 40
0.045
309
GRIDFORMAT_END
 95
       16
302
GRIDFORMAT
  1
GRIDFORMAT_BEGIN
 90
        0
 91
        1
 62
     0
 92
       -2
340
14
 93
        0
 40
0.045
309
GRIDFORMAT_END
 95
       32
302
GRIDFORMAT
  1
GRIDFORMAT_BEGIN
 90
        0
 91
        1
 62
     0
 92
       -2
340
14
 93
        0
 40
0.045
309
GRIDFORMAT_END
309
TABLEFORMAT_END
  1
CELLSTYLE_BEGIN
 90
        2
 91
        1
300
_HEADER
309
CELLSTYLE_END
300
CELLSTYLE
  1
TABLEFORMAT_BEGIN
 90
        5
170
     1
 91
        0
 92
        0
 62
   257
 93
        1
300
CONTENTFORMAT
  1
CONTENTFORMAT_BEGIN
 90
        0
 91
        0
 92
        4
 93
        0
300

 40
0.0
140
1.0
 94
        2
 62
     0
340
11
144
4.5
309
CONTENTFORMAT_END
171
     1
301
MARGIN
  1
CELLMARGIN_BEGIN
 40
1.5
 40
1.5
 40
1.5
 40
1.5
 40
1.5
 40
1.5
309
CELLMARGIN_END
 94
        6
 95
        1
302
GRIDFORMAT
  1
GRIDFORMAT_BEGIN
 90
        0
 91
        1
 62
     0
 92
       -2
340
14
 93
        0
 40
0.045
309
GRIDFORMAT_END
 95
        2
302
GRIDFORMAT
  1
GRIDFORMAT_BEGIN
 90
        0
 91
        1
 62
     0
 92
       -2
340
14
 93
        0
 40
0.045
309
GRIDFORMAT_END
 95
        4
302
GRIDFORMAT
  1
GRIDFORMAT_BEGIN
 90
        0
 91
        1
 62
     0
 92
       -2
340
14
 93
        0
 40
0.045
309
GRIDFORMAT_END
 95
        8
302
GRIDFORMAT
  1
GRIDFORMAT_BEGIN
 90
        0
 91
        1
 62
     0
 92
       -2
340
14
 93
        0
 40
0.045
309
GRIDFORMAT_END
 95
       16
302
GRIDFORMAT
  1
GRIDFORMAT_BEGIN
 90
        0
 91
        1
 62
     0
 92
       -2
340
14
 93
        0
 40
0.045
309
GRIDFORMAT_END
 95
       32
302
GRIDFORMAT
  1
GRIDFORMAT_BEGIN
 90
        0
 91
        1
 62
     0
 92
       -2
340
14
 93
        0
 40
0.045
309
GRIDFORMAT_END
309
TABLEFORMAT_END
  1
CELLSTYLE_BEGIN
 90
        3
 91
        2
300
_DATA
309
CELLSTYLE_END
  0
XRECORD
  5
164
102
{ACAD_REACTORS
330
163
102
}
330
163
100
AcDbXrecord
280
     1
102
RTVSPost2010Prop28
280
     1
102
RTVSPost2010PropOp28
 70
     1
102
RTVSPost2010Prop29
280
     1
102
RTVSPost2010PropOp29
 70
     1
102
RTVSPost2010Prop30
280
     0
102
RTVSPost2010PropOp30
 70
     1
102
RTVSPost2010Prop31
280
     0
102
RTVSPost2010PropOp31
 70
     1
102
RTVSPost2010Prop32
280
     0
102
RTVSPost2010PropOp32
 70
     1
102
RTVSPost2010Prop33
280
     0
102
RTVSPost2010PropOp33
 70
     1
102
RTVSPost2010Prop34
280
     0
102
RTVSPost2010PropOp34
 70
     1
102
RTVSPost2010Prop35
280
     0
102
RTVSPost2010PropOp35
 70
     1
102
RTVSPost2010Prop36
280
     0
102
RTVSPost2010PropOp36
 70
     1
102
RTVSPost2010Prop37
 90
       50
102
RTVSPost2010PropOp37
 70
     1
102
RTVSPost2010Prop38
140
0.0
102
RTVSPost2010PropOp38
 70
     1
102
RTVSPost2010Prop39
140
1.0
102
RTVSPost2010PropOp39
 70
     1
102
RTVSPost2010Prop40
 90
        0
102
RTVSPost2010PropOp40
 70
     1
102
RTVSPost2010Prop41ColorIndex
 90
       18
102
RTVSPost2010Prop41ColorRGB
 90
        0
102
RTVSPost2010PropOp41
 70
     1
102
RTVSPost2010Prop42
 90
       50
102
RTVSPost2010PropOp42
 70
     1
102
RTVSPost2010Prop43
 90
        3
102
RTVSPost2010PropOp43
 70
     1
102
RTVSPost2010Prop44ColorIndex
 90
        5
102
RTVSPost2010Prop44ColorRGB
 90
      255
102
RTVSPost2010PropOp44
 70
     1
102
RTVSPost2010Prop45
280
     0
102
RTVSPost2010PropOp45
 70
     1
102
RTVSPost2010Prop46
 90
       50
102
RTVSPost2010PropOp46
 70
     1
102
RTVSPost2010Prop47
 90
       50
102
RTVSPost2010PropOp47
 70
     1
102
RTVSPost2010Prop48
 90
       50
102
RTVSPost2010PropOp48
 70
     1
102
RTVSPost2010Prop49
280
     0
102
RTVSPost2010PropOp49
 70
     1
102
RTVSPost2010Prop50
 90
       50
102
RTVSPost2010PropOp50
 70
     1
102
RTVSPost2010Prop51ColorIndex
 90
      256
102
RTVSPost2010Prop51ColorRGB
 90
-16777216
102
RTVSPost2010PropOp51
 70
     0
102
RTVSPost2010Prop52
140
1.0
102
RTVSPost2010PropOp52
 70
     0
102
RTVSPost2010Prop53
 90
        2
102
RTVSPost2010PropOp53
 70
     1
102
RTVSPost2010Prop54
  1
strokes_ogs.tif
102
RTVSPost2010PropOp54
 70
     1
102
RTVSPost2010Prop55
280
     0
102
RTVSPost2010PropOp55
 70
     1
102
RTVSPost2010Prop56
140
1.0
102
RTVSPost2010PropOp56
 70
     1
102
RTVSPost2010Prop57
140
1.0
102
RTVSPost2010PropOp57
 70
     1
  0
XRECORD
  5
16A
102
{ACAD_REACTORS
330
169
102
}
330
169
100
AcDbXrecord
280
     1
102
RTVSPost2010Prop28
280
     0
102
RTVSPost2010PropOp28
 70
     1
102
RTVSPost2010Prop29
280
     1
102
RTVSPost2010PropOp29
 70
     1
102
RTVSPost2010Prop30
280
     1
102
RTVSPost2010PropOp30
 70
     1
102
RTVSPost2010Prop31
280
     0
102
RTVSPost2010PropOp31
 70
     1
102
RTVSPost2010Prop32
280
     0
102
RTVSPost2010PropOp32
 70
     1
102
RTVSPost2010Prop33
280
     0
102
RTVSPost2010PropOp33
 70
     1
102
RTVSPost2010Prop34
280
     0
102
RTVSPost2010PropOp34
 70
     1
102
RTVSPost2010Prop35
280
     0
102
RTVSPost2010PropOp35
 70
     1
102
RTVSPost2010Prop36
280
     0
102
RTVSPost2010PropOp36
 70
     1
102
RTVSPost2010Prop37
 90
       50
102
RTVSPost2010PropOp37
 70
     1
102
RTVSPost2010Prop38
140
0.0
102
RTVSPost2010PropOp38
 70
     1
102
RTVSPost2010Prop39
140
1.0
102
RTVSPost2010PropOp39
 70
     1
102
RTVSPost2010Prop40
 90
        0
102
RTVSPost2010PropOp40
 70
     1
102
RTVSPost2010Prop41ColorIndex
 90
       18
102
RTVSPost2010Prop41ColorRGB
 90
        0
102
RTVSPost2010PropOp41
 70
     1
102
RTVSPost2010Prop42
 90
       50
102
RTVSPost2010PropOp42
 70
     1
102
RTVSPost2010Prop43
 90
        3
102
RTVSPost2010PropOp43
 70
     1
102
RTVSPost2010Prop44ColorIndex
 90
        5
102
RTVSPost2010Prop44ColorRGB
 90
      255
102
RTVSPost2010PropOp44
 70
     1
102
RTVSPost2010Prop45
280
     0
102
RTVSPost2010PropOp45
 70
     1
102
RTVSPost2010Prop46
 90
       50
102
RTVSPost2010PropOp46
 70
     1
102
RTVSPost2010Prop47
 90
       50
102
RTVSPost2010PropOp47
 70
     1
102
RTVSPost2010Prop48
 90
       50
102
RTVSPost2010PropOp48
 70
     1
102
RTVSPost2010Prop49
280
     0
102
RTVSPost2010PropOp49
 70
     1
102
RTVSPost2010Prop50
 90
       50
102
RTVSPost2010PropOp50
 70
     1
102
RTVSPost2010Prop51ColorIndex
 90
      256
102
RTVSPost2010Prop51ColorRGB
 90
-16777216
102
RTVSPost2010PropOp51
 70
     0
102
RTVSPost2010Prop52
140
1.0
102
RTVSPost2010PropOp52
 70
     0
102
RTVSPost2010Prop53
 90
        2
102
RTVSPost2010PropOp53
 70
     1
102
RTVSPost2010Prop54
  1
strokes_ogs.tif
102
RTVSPost2010PropOp54
 70
     1
102
RTVSPost2010Prop55
280
     0
102
RTVSPost2010PropOp55
 70
     1
102
RTVSPost2010Prop56
140
1.0
102
RTVSPost2010PropOp56
 70
     1
102
RTVSPost2010Prop57
140
1.0
102
RTVSPost2010PropOp57
 70
     1
  0
XRECORD
  5
172
102
{ACAD_REACTORS
330
171
102
}
330
171
100
AcDbXrecord
280
     1
102
RTVSPost2010Prop28
280
     0
102
RTVSPost2010PropOp28
 70
     1
102
RTVSPost2010Prop29
280
     1
102
RTVSPost2010PropOp29
 70
     1
102
RTVSPost2010Prop30
280
     1
102
RTVSPost2010PropOp30
 70
     1
102
RTVSPost2010Prop31
280
     0
102
RTVSPost2010PropOp31
 70
     1
102
RTVSPost2010Prop32
280
     0
102
RTVSPost2010PropOp32
 70
     1
102
RTVSPost2010Prop33
280
     0
102
RTVSPost2010PropOp33
 70
     1
102
RTVSPost2010Prop34
280
     0
102
RTVSPost2010PropOp34
 70
     1
102
RTVSPost2010Prop35
280
     0
102
RTVSPost2010PropOp35
 70
     1
102
RTVSPost2010Prop36
280
     0
102
RTVSPost2010PropOp36
 70
     1
102
RTVSPost2010Prop37
 90
       50
102
RTVSPost2010PropOp37
 70
     1
102
RTVSPost2010Prop38
140
0.0
102
RTVSPost2010PropOp38
 70
     1
102
RTVSPost2010Prop39
140
1.0
102
RTVSPost2010PropOp39
 70
     1
102
RTVSPost2010Prop40
 90
        0
102
RTVSPost2010PropOp40
 70
     1
102
RTVSPost2010Prop41ColorIndex
 90
       18
102
RTVSPost2010Prop41ColorRGB
 90
        0
102
RTVSPost2010PropOp41
 70
     1
102
RTVSPost2010Prop42
 90
       50
102
RTVSPost2010PropOp42
 70
     1
102
RTVSPost2010Prop43
 90
        3
102
RTVSPost2010PropOp43
 70
     1
102
RTVSPost2010Prop44ColorIndex
 90
        5
102
RTVSPost2010Prop44ColorRGB
 90
      255
102
RTVSPost2010PropOp44
 70
     1
102
RTVSPost2010Prop45
280
     0
102
RTVSPost2010PropOp45
 70
     1
102
RTVSPost2010Prop46
 90
       50
102
RTVSPost2010PropOp46
 70
     1
102
RTVSPost2010Prop47
 90
       50
102
RTVSPost2010PropOp47
 70
     1
102
RTVSPost2010Prop48
 90
       50
102
RTVSPost2010PropOp48
 70
     1
102
RTVSPost2010Prop49
280
     0
102
RTVSPost2010PropOp49
 70
     1
102
RTVSPost2010Prop50
 90
       50
102
RTVSPost2010PropOp50
 70
     1
102
RTVSPost2010Prop51ColorIndex
 90
      256
102
RTVSPost2010Prop51ColorRGB
 90
-16777216
102
RTVSPost2010PropOp51
 70
     0
102
RTVSPost2010Prop52
140
1.0
102
RTVSPost2010PropOp52
 70
     0
102
RTVSPost2010Prop53
 90
        2
102
RTVSPost2010PropOp53
 70
     1
102
RTVSPost2010Prop54
  1
strokes_ogs.tif
102
RTVSPost2010PropOp54
 70
     1
102
RTVSPost2010Prop55
280
     0
102
RTVSPost2010PropOp55
 70
     1
102
RTVSPost2010Prop56
140
1.0
102
RTVSPost2010PropOp56
 70
     1
102
RTVSPost2010Prop57
140
1.0
102
RTVSPost2010PropOp57
 70
     1
  0
XRECORD
  5
17A
102
{ACAD_REACTORS
330
179
102
}
330
179
100
AcDbXrecord
280
     1
102
RTVSPost2010Prop28
280
     0
102
RTVSPost2010PropOp28
 70
     1
102
RTVSPost2010Prop29
280
     1
102
RTVSPost2010PropOp29
 70
     1
102
RTVSPost2010Prop30
280
     1
102
RTVSPost2010PropOp30
 70
     1
102
RTVSPost2010Prop31
280
     0
102
RTVSPost2010PropOp31
 70
     1
102
RTVSPost2010Prop32
280
     0
102
RTVSPost2010PropOp32
 70
     1
102
RTVSPost2010Prop33
280
     0
102
RTVSPost2010PropOp33
 70
     1
102
RTVSPost2010Prop34
280
     0
102
RTVSPost2010PropOp34
 70
     1
102
RTVSPost2010Prop35
280
     0
102
RTVSPost2010PropOp35
 70
     1
102
RTVSPost2010Prop36
280
     0
102
RTVSPost2010PropOp36
 70
     1
102
RTVSPost2010Prop37
 90
       50
102
RTVSPost2010PropOp37
 70
     1
102
RTVSPost2010Prop38
140
0.0
102
RTVSPost2010PropOp38
 70
     1
102
RTVSPost2010Prop39
140
1.0
102
RTVSPost2010PropOp39
 70
     1
102
RTVSPost2010Prop40
 90
        0
102
RTVSPost2010PropOp40
 70
     1
102
RTVSPost2010Prop41ColorIndex
 90
       18
102
RTVSPost2010Prop41ColorRGB
 90
        0
102
RTVSPost2010PropOp41
 70
     1
102
RTVSPost2010Prop42
 90
       50
102
RTVSPost2010PropOp42
 70
     1
102
RTVSPost2010Prop43
 90
        3
102
RTVSPost2010PropOp43
 70
     1
102
RTVSPost2010Prop44ColorIndex
 90
        5
102
RTVSPost2010Prop44ColorRGB
 90
      255
102
RTVSPost2010PropOp44
 70
     1
102
RTVSPost2010Prop45
280
     0
102
RTVSPost2010PropOp45
 70
     1
102
RTVSPost2010Prop46
 90
       50
102
RTVSPost2010PropOp46
 70
     1
102
RTVSPost2010Prop47
 90
       50
102
RTVSPost2010PropOp47
 70
     1
102
RTVSPost2010Prop48
 90
       50
102
RTVSPost2010PropOp48
 70
     1
102
RTVSPost2010Prop49
280
     0
102
RTVSPost2010PropOp49
 70
     1
102
RTVSPost2010Prop50
 90
       50
102
RTVSPost2010PropOp50
 70
     1
102
RTVSPost2010Prop51ColorIndex
 90
      256
102
RTVSPost2010Prop51ColorRGB
 90
-16777216
102
RTVSPost2010PropOp51
 70
     0
102
RTVSPost2010Prop52
140
1.0
102
RTVSPost2010PropOp52
 70
     0
102
RTVSPost2010Prop53
 90
        2
102
RTVSPost2010PropOp53
 70
     1
102
RTVSPost2010Prop54
  1
strokes_ogs.tif
102
RTVSPost2010PropOp54
 70
     1
102
RTVSPost2010Prop55
280
     0
102
RTVSPost2010PropOp55
 70
     1
102
RTVSPost2010Prop56
140
1.0
102
RTVSPost2010PropOp56
 70
     1
102
RTVSPost2010Prop57
140
1.0
102
RTVSPost2010PropOp57
 70
     1
  0
XRECORD
  5
16E
102
{ACAD_REACTORS
330
16D
102
}
330
16D
100
AcDbXrecord
280
     1
102
RTVSPost2010Prop28
280
     0
102
RTVSPost2010PropOp28
 70
     1
102
RTVSPost2010Prop29
280
     1
102
RTVSPost2010PropOp29
 70
     1
102
RTVSPost2010Prop30
280
     1
102
RTVSPost2010PropOp30
 70
     1
102
RTVSPost2010Prop31
280
     0
102
RTVSPost2010PropOp31
 70
     1
102
RTVSPost2010Prop32
280
     0
102
RTVSPost2010PropOp32
 70
     1
102
RTVSPost2010Prop33
280
     0
102
RTVSPost2010PropOp33
 70
     1
102
RTVSPost2010Prop34
280
     0
102
RTVSPost2010PropOp34
 70
     1
102
RTVSPost2010Prop35
280
     0
102
RTVSPost2010PropOp35
 70
     1
102
RTVSPost2010Prop36
280
     0
102
RTVSPost2010PropOp36
 70
     1
102
RTVSPost2010Prop37
 90
       50
102
RTVSPost2010PropOp37
 70
     1
102
RTVSPost2010Prop38
140
0.0
102
RTVSPost2010PropOp38
 70
     1
102
RTVSPost2010Prop39
140
1.0
102
RTVSPost2010PropOp39
 70
     1
102
RTVSPost2010Prop40
 90
        0
102
RTVSPost2010PropOp40
 70
     1
102
RTVSPost2010Prop41ColorIndex
 90
       18
102
RTVSPost2010Prop41ColorRGB
 90
        0
102
RTVSPost2010PropOp41
 70
     1
102
RTVSPost2010Prop42
 90
       50
102
RTVSPost2010PropOp42
 70
     1
102
RTVSPost2010Prop43
 90
        3
102
RTVSPost2010PropOp43
 70
     1
102
RTVSPost2010Prop44ColorIndex
 90
        5
102
RTVSPost2010Prop44ColorRGB
 90
      255
102
RTVSPost2010PropOp44
 70
     1
102
RTVSPost2010Prop45
280
     0
102
RTVSPost2010PropOp45
 70
     1
102
RTVSPost2010Prop46
 90
       50
102
RTVSPost2010PropOp46
 70
     1
102
RTVSPost2010Prop47
 90
       50
102
RTVSPost2010PropOp47
 70
     1
102
RTVSPost2010Prop48
 90
       50
102
RTVSPost2010PropOp48
 70
     1
102
RTVSPost2010Prop49
280
     0
102
RTVSPost2010PropOp49
 70
     1
102
RTVSPost2010Prop50
 90
       50
102
RTVSPost2010PropOp50
 70
     1
102
RTVSPost2010Prop51ColorIndex
 90
      256
102
RTVSPost2010Prop51ColorRGB
 90
-16777216
102
RTVSPost2010PropOp51
 70
     0
102
RTVSPost2010Prop52
140
1.0
102
RTVSPost2010PropOp52
 70
     0
102
RTVSPost2010Prop53
 90
        2
102
RTVSPost2010PropOp53
 70
     1
102
RTVSPost2010Prop54
  1
strokes_ogs.tif
102
RTVSPost2010PropOp54
 70
     1
102
RTVSPost2010Prop55
280
     0
102
RTVSPost2010PropOp55
 70
     1
102
RTVSPost2010Prop56
140
1.0
102
RTVSPost2010PropOp56
 70
     1
102
RTVSPost2010Prop57
140
1.0
102
RTVSPost2010PropOp57
 70
     1
  0
XRECORD
  5
170
102
{ACAD_REACTORS
330
16F
102
}
330
16F
100
AcDbXrecord
280
     1
102
RTVSPost2010Prop28
280
     0
102
RTVSPost2010PropOp28
 70
     1
102
RTVSPost2010Prop29
280
     1
102
RTVSPost2010PropOp29
 70
     1
102
RTVSPost2010Prop30
280
     1
102
RTVSPost2010PropOp30
 70
     1
102
RTVSPost2010Prop31
280
     0
102
RTVSPost2010PropOp31
 70
     1
102
RTVSPost2010Prop32
280
     0
102
RTVSPost2010PropOp32
 70
     1
102
RTVSPost2010Prop33
280
     0
102
RTVSPost2010PropOp33
 70
     1
102
RTVSPost2010Prop34
280
     0
102
RTVSPost2010PropOp34
 70
     1
102
RTVSPost2010Prop35
280
     0
102
RTVSPost2010PropOp35
 70
     1
102
RTVSPost2010Prop36
280
     0
102
RTVSPost2010PropOp36
 70
     1
102
RTVSPost2010Prop37
 90
       50
102
RTVSPost2010PropOp37
 70
     1
102
RTVSPost2010Prop38
140
0.0
102
RTVSPost2010PropOp38
 70
     1
102
RTVSPost2010Prop39
140
1.0
102
RTVSPost2010PropOp39
 70
     1
102
RTVSPost2010Prop40
 90
        0
102
RTVSPost2010PropOp40
 70
     1
102
RTVSPost2010Prop41ColorIndex
 90
       18
102
RTVSPost2010Prop41ColorRGB
 90
        0
102
RTVSPost2010PropOp41
 70
     1
102
RTVSPost2010Prop42
 90
       50
102
RTVSPost2010PropOp42
 70
     1
102
RTVSPost2010Prop43
 90
        3
102
RTVSPost2010PropOp43
 70
     1
102
RTVSPost2010Prop44ColorIndex
 90
        5
102
RTVSPost2010Prop44ColorRGB
 90
      255
102
RTVSPost2010PropOp44
 70
     1
102
RTVSPost2010Prop45
280
     0
102
RTVSPost2010PropOp45
 70
     1
102
RTVSPost2010Prop46
 90
       50
102
RTVSPost2010PropOp46
 70
     1
102
RTVSPost2010Prop47
 90
       50
102
RTVSPost2010PropOp47
 70
     1
102
RTVSPost2010Prop48
 90
       50
102
RTVSPost2010PropOp48
 70
     1
102
RTVSPost2010Prop49
280
     0
102
RTVSPost2010PropOp49
 70
     1
102
RTVSPost2010Prop50
 90
       50
102
RTVSPost2010PropOp50
 70
     1
102
RTVSPost2010Prop51ColorIndex
 90
      256
102
RTVSPost2010Prop51ColorRGB
 90
-16777216
102
RTVSPost2010PropOp51
 70
     0
102
RTVSPost2010Prop52
140
1.0
102
RTVSPost2010PropOp52
 70
     0
102
RTVSPost2010Prop53
 90
        2
102
RTVSPost2010PropOp53
 70
     1
102
RTVSPost2010Prop54
  1
strokes_ogs.tif
102
RTVSPost2010PropOp54
 70
     1
102
RTVSPost2010Prop55
280
     0
102
RTVSPost2010PropOp55
 70
     1
102
RTVSPost2010Prop56
140
1.0
102
RTVSPost2010PropOp56
 70
     1
102
RTVSPost2010Prop57
140
1.0
102
RTVSPost2010PropOp57
 70
     1
  0
XRECORD
  5
180
102
{ACAD_REACTORS
330
17F
102
}
330
17F
100
AcDbXrecord
280
     1
102
RTVSPost2010Prop28
280
     0
102
RTVSPost2010PropOp28
 70
     0
102
RTVSPost2010Prop29
280
     1
102
RTVSPost2010PropOp29
 70
     0
102
RTVSPost2010Prop30
280
     1
102
RTVSPost2010PropOp30
 70
     0
102
RTVSPost2010Prop31
280
     0
102
RTVSPost2010PropOp31
 70
     0
102
RTVSPost2010Prop32
280
     0
102
RTVSPost2010PropOp32
 70
     0
102
RTVSPost2010Prop33
280
     0
102
RTVSPost2010PropOp33
 70
     0
102
RTVSPost2010Prop34
280
     0
102
RTVSPost2010PropOp34
 70
     0
102
RTVSPost2010Prop35
280
     0
102
RTVSPost2010PropOp35
 70
     0
102
RTVSPost2010Prop36
280
     0
102
RTVSPost2010PropOp36
 70
     0
102
RTVSPost2010Prop37
 90
       50
102
RTVSPost2010PropOp37
 70
     0
102
RTVSPost2010Prop38
140
0.0
102
RTVSPost2010PropOp38
 70
     0
102
RTVSPost2010Prop39
140
1.0
102
RTVSPost2010PropOp39
 70
     0
102
RTVSPost2010Prop40
 90
        0
102
RTVSPost2010PropOp40
 70
     0
102
RTVSPost2010Prop41ColorIndex
 90
       18
102
RTVSPost2010Prop41ColorRGB
 90
        0
102
RTVSPost2010PropOp41
 70
     0
102
RTVSPost2010Prop42
 90
       50
102
RTVSPost2010PropOp42
 70
     0
102
RTVSPost2010Prop43
 90
        3
102
RTVSPost2010PropOp43
 70
     0
102
RTVSPost2010Prop44ColorIndex
 90
        5
102
RTVSPost2010Prop44ColorRGB
 90
      255
102
RTVSPost2010PropOp44
 70
     0
102
RTVSPost2010Prop45
280
     0
102
RTVSPost2010PropOp45
 70
     0
102
RTVSPost2010Prop46
 90
       50
102
RTVSPost2010PropOp46
 70
     0
102
RTVSPost2010Prop47
 90
       50
102
RTVSPost2010PropOp47
 70
     0
102
RTVSPost2010Prop48
 90
       50
102
RTVSPost2010PropOp48
 70
     0
102
RTVSPost2010Prop49
280
     0
102
RTVSPost2010PropOp49
 70
     0
102
RTVSPost2010Prop50
 90
       50
102
RTVSPost2010PropOp50
 70
     0
102
RTVSPost2010Prop51ColorIndex
 90
      256
102
RTVSPost2010Prop51ColorRGB
 90
-16777216
102
RTVSPost2010PropOp51
 70
     0
102
RTVSPost2010Prop52
140
1.0
102
RTVSPost2010PropOp52
 70
     0
102
RTVSPost2010Prop53
 90
        2
102
RTVSPost2010PropOp53
 70
     0
102
RTVSPost2010Prop54
  1
strokes_ogs.tif
102
RTVSPost2010PropOp54
 70
     0
102
RTVSPost2010Prop55
280
     0
102
RTVSPost2010PropOp55
 70
     0
102
RTVSPost2010Prop56
140
1.0
102
RTVSPost2010PropOp56
 70
     0
102
RTVSPost2010Prop57
140
1.0
102
RTVSPost2010PropOp57
 70
     0
  0
XRECORD
  5
178
102
{ACAD_REACTORS
330
177
102
}
330
177
100
AcDbXrecord
280
     1
102
RTVSPost2010Prop28
280
     0
102
RTVSPost2010PropOp28
 70
     1
102
RTVSPost2010Prop29
280
     1
102
RTVSPost2010PropOp29
 70
     1
102
RTVSPost2010Prop30
280
     1
102
RTVSPost2010PropOp30
 70
     1
102
RTVSPost2010Prop31
280
     0
102
RTVSPost2010PropOp31
 70
     1
102
RTVSPost2010Prop32
280
     0
102
RTVSPost2010PropOp32
 70
     1
102
RTVSPost2010Prop33
280
     0
102
RTVSPost2010PropOp33
 70
     1
102
RTVSPost2010Prop34
280
     0
102
RTVSPost2010PropOp34
 70
     1
102
RTVSPost2010Prop35
280
     0
102
RTVSPost2010PropOp35
 70
     1
102
RTVSPost2010Prop36
280
     0
102
RTVSPost2010PropOp36
 70
     1
102
RTVSPost2010Prop37
 90
       50
102
RTVSPost2010PropOp37
 70
     1
102
RTVSPost2010Prop38
140
0.0
102
RTVSPost2010PropOp38
 70
     1
102
RTVSPost2010Prop39
140
1.0
102
RTVSPost2010PropOp39
 70
     1
102
RTVSPost2010Prop40
 90
        0
102
RTVSPost2010PropOp40
 70
     1
102
RTVSPost2010Prop41ColorIndex
 90
       18
102
RTVSPost2010Prop41ColorRGB
 90
        0
102
RTVSPost2010PropOp41
 70
     1
102
RTVSPost2010Prop42
 90
       50
102
RTVSPost2010PropOp42
 70
     1
102
RTVSPost2010Prop43
 90
        3
102
RTVSPost2010PropOp43
 70
     1
102
RTVSPost2010Prop44ColorIndex
 90
        5
102
RTVSPost2010Prop44ColorRGB
 90
      255
102
RTVSPost2010PropOp44
 70
     1
102
RTVSPost2010Prop45
280
     0
102
RTVSPost2010PropOp45
 70
     1
102
RTVSPost2010Prop46
 90
       50
102
RTVSPost2010PropOp46
 70
     1
102
RTVSPost2010Prop47
 90
       50
102
RTVSPost2010PropOp47
 70
     1
102
RTVSPost2010Prop48
 90
       50
102
RTVSPost2010PropOp48
 70
     1
102
RTVSPost2010Prop49
280
     0
102
RTVSPost2010PropOp49
 70
     1
102
RTVSPost2010Prop50
 90
       50
102
RTVSPost2010PropOp50
 70
     1
102
RTVSPost2010Prop51ColorIndex
 90
      256
102
RTVSPost2010Prop51ColorRGB
 90
-16777216
102
RTVSPost2010PropOp51
 70
     0
102
RTVSPost2010Prop52
140
1.0
102
RTVSPost2010PropOp52
 70
     0
102
RTVSPost2010Prop53
 90
        2
102
RTVSPost2010PropOp53
 70
     1
102
RTVSPost2010Prop54
  1
strokes_ogs.tif
102
RTVSPost2010PropOp54
 70
     1
102
RTVSPost2010Prop55
280
     0
102
RTVSPost2010PropOp55
 70
     1
102
RTVSPost2010Prop56
140
1.0
102
RTVSPost2010PropOp56
 70
     1
102
RTVSPost2010Prop57
140
1.0
102
RTVSPost2010PropOp57
 70
     1
  0
XRECORD
  5
15C
102
{ACAD_REACTORS
330
15B
102
}
330
15B
100
AcDbXrecord
280
     1
102
RTVSPost2010Prop28
280
     0
102
RTVSPost2010PropOp28
 70
     1
102
RTVSPost2010Prop29
280
     1
102
RTVSPost2010PropOp29
 70
     1
102
RTVSPost2010Prop30
280
     1
102
RTVSPost2010PropOp30
 70
     1
102
RTVSPost2010Prop31
280
     0
102
RTVSPost2010PropOp31
 70
     1
102
RTVSPost2010Prop32
280
     0
102
RTVSPost2010PropOp32
 70
     1
102
RTVSPost2010Prop33
280
     0
102
RTVSPost2010PropOp33
 70
     1
102
RTVSPost2010Prop34
280
     0
102
RTVSPost2010PropOp34
 70
     1
102
RTVSPost2010Prop35
280
     0
102
RTVSPost2010PropOp35
 70
     1
102
RTVSPost2010Prop36
280
     0
102
RTVSPost2010PropOp36
 70
     1
102
RTVSPost2010Prop37
 90
       50
102
RTVSPost2010PropOp37
 70
     1
102
RTVSPost2010Prop38
140
0.0
102
RTVSPost2010PropOp38
 70
     1
102
RTVSPost2010Prop39
140
1.0
102
RTVSPost2010PropOp39
 70
     1
102
RTVSPost2010Prop40
 90
        0
102
RTVSPost2010PropOp40
 70
     1
102
RTVSPost2010Prop41ColorIndex
 90
       18
102
RTVSPost2010Prop41ColorRGB
 90
        0
102
RTVSPost2010PropOp41
 70
     1
102
RTVSPost2010Prop42
 90
       50
102
RTVSPost2010PropOp42
 70
     1
102
RTVSPost2010Prop43
 90
        3
102
RTVSPost2010PropOp43
 70
     1
102
RTVSPost2010Prop44ColorIndex
 90
        5
102
RTVSPost2010Prop44ColorRGB
 90
      255
102
RTVSPost2010PropOp44
 70
     1
102
RTVSPost2010Prop45
280
     0
102
RTVSPost2010PropOp45
 70
     1
102
RTVSPost2010Prop46
 90
       50
102
RTVSPost2010PropOp46
 70
     1
102
RTVSPost2010Prop47
 90
       50
102
RTVSPost2010PropOp47
 70
     1
102
RTVSPost2010Prop48
 90
       50
102
RTVSPost2010PropOp48
 70
     1
102
RTVSPost2010Prop49
280
     0
102
RTVSPost2010PropOp49
 70
     1
102
RTVSPost2010Prop50
 90
       50
102
RTVSPost2010PropOp50
 70
     1
102
RTVSPost2010Prop51ColorIndex
 90
      256
102
RTVSPost2010Prop51ColorRGB
 90
-16777216
102
RTVSPost2010PropOp51
 70
     0
102
RTVSPost2010Prop52
140
1.0
102
RTVSPost2010PropOp52
 70
     0
102
RTVSPost2010Prop53
 90
        2
102
RTVSPost2010PropOp53
 70
     1
102
RTVSPost2010Prop54
  1
strokes_ogs.tif
102
RTVSPost2010PropOp54
 70
     1
102
RTVSPost2010Prop55
280
     0
102
RTVSPost2010PropOp55
 70
     1
102
RTVSPost2010Prop56
140
1.0
102
RTVSPost2010PropOp56
 70
     1
102
RTVSPost2010Prop57
140
1.0
102
RTVSPost2010PropOp57
 70
     1
  0
XRECORD
  5
15E
102
{ACAD_REACTORS
330
15D
102
}
330
15D
100
AcDbXrecord
280
     1
102
RTVSPost2010Prop28
280
     0
102
RTVSPost2010PropOp28
 70
     1
102
RTVSPost2010Prop29
280
     1
102
RTVSPost2010PropOp29
 70
     1
102
RTVSPost2010Prop30
280
     1
102
RTVSPost2010PropOp30
 70
     1
102
RTVSPost2010Prop31
280
     0
102
RTVSPost2010PropOp31
 70
     1
102
RTVSPost2010Prop32
280
     0
102
RTVSPost2010PropOp32
 70
     1
102
RTVSPost2010Prop33
280
     0
102
RTVSPost2010PropOp33
 70
     1
102
RTVSPost2010Prop34
280
     0
102
RTVSPost2010PropOp34
 70
     1
102
RTVSPost2010Prop35
280
     0
102
RTVSPost2010PropOp35
 70
     1
102
RTVSPost2010Prop36
280
     0
102
RTVSPost2010PropOp36
 70
     1
102
RTVSPost2010Prop37
 90
       50
102
RTVSPost2010PropOp37
 70
     1
102
RTVSPost2010Prop38
140
0.0
102
RTVSPost2010PropOp38
 70
     1
102
RTVSPost2010Prop39
140
1.0
102
RTVSPost2010PropOp39
 70
     1
102
RTVSPost2010Prop40
 90
        0
102
RTVSPost2010PropOp40
 70
     1
102
RTVSPost2010Prop41ColorIndex
 90
       18
102
RTVSPost2010Prop41ColorRGB
 90
        0
102
RTVSPost2010PropOp41
 70
     1
102
RTVSPost2010Prop42
 90
       50
102
RTVSPost2010PropOp42
 70
     1
102
RTVSPost2010Prop43
 90
        3
102
RTVSPost2010PropOp43
 70
     1
102
RTVSPost2010Prop44ColorIndex
 90
        5
102
RTVSPost2010Prop44ColorRGB
 90
      255
102
RTVSPost2010PropOp44
 70
     1
102
RTVSPost2010Prop45
280
     0
102
RTVSPost2010PropOp45
 70
     1
102
RTVSPost2010Prop46
 90
       50
102
RTVSPost2010PropOp46
 70
     1
102
RTVSPost2010Prop47
 90
       50
102
RTVSPost2010PropOp47
 70
     1
102
RTVSPost2010Prop48
 90
       50
102
RTVSPost2010PropOp48
 70
     1
102
RTVSPost2010Prop49
280
     0
102
RTVSPost2010PropOp49
 70
     1
102
RTVSPost2010Prop50
 90
       50
102
RTVSPost2010PropOp50
 70
     1
102
RTVSPost2010Prop51ColorIndex
 90
      256
102
RTVSPost2010Prop51ColorRGB
 90
-16777216
102
RTVSPost2010PropOp51
 70
     0
102
RTVSPost2010Prop52
140
1.0
102
RTVSPost2010PropOp52
 70
     0
102
RTVSPost2010Prop53
 90
        2
102
RTVSPost2010PropOp53
 70
     1
102
RTVSPost2010Prop54
  1
strokes_ogs.tif
102
RTVSPost2010PropOp54
 70
     1
102
RTVSPost2010Prop55
280
     0
102
RTVSPost2010PropOp55
 70
     1
102
RTVSPost2010Prop56
140
1.0
102
RTVSPost2010PropOp56
 70
     1
102
RTVSPost2010Prop57
140
1.0
102
RTVSPost2010PropOp57
 70
     1
  0
XRECORD
  5
160
102
{ACAD_REACTORS
330
15F
102
}
330
15F
100
AcDbXrecord
280
     1
102
RTVSPost2010Prop28
280
     0
102
RTVSPost2010PropOp28
 70
     1
102
RTVSPost2010Prop29
280
     1
102
RTVSPost2010PropOp29
 70
     1
102
RTVSPost2010Prop30
280
     1
102
RTVSPost2010PropOp30
 70
     1
102
RTVSPost2010Prop31
280
     0
102
RTVSPost2010PropOp31
 70
     1
102
RTVSPost2010Prop32
280
     0
102
RTVSPost2010PropOp32
 70
     1
102
RTVSPost2010Prop33
280
     0
102
RTVSPost2010PropOp33
 70
     1
102
RTVSPost2010Prop34
280
     0
102
RTVSPost2010PropOp34
 70
     1
102
RTVSPost2010Prop35
280
     0
102
RTVSPost2010PropOp35
 70
     1
102
RTVSPost2010Prop36
280
     0
102
RTVSPost2010PropOp36
 70
     1
102
RTVSPost2010Prop37
 90
       50
102
RTVSPost2010PropOp37
 70
     1
102
RTVSPost2010Prop38
140
0.0
102
RTVSPost2010PropOp38
 70
     1
102
RTVSPost2010Prop39
140
1.0
102
RTVSPost2010PropOp39
 70
     1
102
RTVSPost2010Prop40
 90
        0
102
RTVSPost2010PropOp40
 70
     1
102
RTVSPost2010Prop41ColorIndex
 90
       18
102
RTVSPost2010Prop41ColorRGB
 90
        0
102
RTVSPost2010PropOp41
 70
     1
102
RTVSPost2010Prop42
 90
       50
102
RTVSPost2010PropOp42
 70
     1
102
RTVSPost2010Prop43
 90
        3
102
RTVSPost2010PropOp43
 70
     1
102
RTVSPost2010Prop44ColorIndex
 90
        5
102
RTVSPost2010Prop44ColorRGB
 90
      255
102
RTVSPost2010PropOp44
 70
     1
102
RTVSPost2010Prop45
280
     0
102
RTVSPost2010PropOp45
 70
     1
102
RTVSPost2010Prop46
 90
       50
102
RTVSPost2010PropOp46
 70
     1
102
RTVSPost2010Prop47
 90
       50
102
RTVSPost2010PropOp47
 70
     1
102
RTVSPost2010Prop48
 90
       50
102
RTVSPost2010PropOp48
 70
     1
102
RTVSPost2010Prop49
280
     0
102
RTVSPost2010PropOp49
 70
     1
102
RTVSPost2010Prop50
 90
       50
102
RTVSPost2010PropOp50
 70
     1
102
RTVSPost2010Prop51ColorIndex
 90
      256
102
RTVSPost2010Prop51ColorRGB
 90
-16777216
102
RTVSPost2010PropOp51
 70
     0
102
RTVSPost2010Prop52
140
1.0
102
RTVSPost2010PropOp52
 70
     0
102
RTVSPost2010Prop53
 90
        2
102
RTVSPost2010PropOp53
 70
     1
102
RTVSPost2010Prop54
  1
strokes_ogs.tif
102
RTVSPost2010PropOp54
 70
     1
102
RTVSPost2010Prop55
280
     0
102
RTVSPost2010PropOp55
 70
     1
102
RTVSPost2010Prop56
140
1.0
102
RTVSPost2010PropOp56
 70
     1
102
RTVSPost2010Prop57
140
1.0
102
RTVSPost2010PropOp57
 70
     1
  0
XRECORD
  5
162
102
{ACAD_REACTORS
330
161
102
}
330
161
100
AcDbXrecord
280
     1
102
RTVSPost2010Prop28
280
     0
102
RTVSPost2010PropOp28
 70
     1
102
RTVSPost2010Prop29
280
     1
102
RTVSPost2010PropOp29
 70
     1
102
RTVSPost2010Prop30
280
     1
102
RTVSPost2010PropOp30
 70
     1
102
RTVSPost2010Prop31
280
     0
102
RTVSPost2010PropOp31
 70
     1
102
RTVSPost2010Prop32
280
     0
102
RTVSPost2010PropOp32
 70
     1
102
RTVSPost2010Prop33
280
     0
102
RTVSPost2010PropOp33
 70
     1
102
RTVSPost2010Prop34
280
     0
102
RTVSPost2010PropOp34
 70
     1
102
RTVSPost2010Prop35
280
     0
102
RTVSPost2010PropOp35
 70
     1
102
RTVSPost2010Prop36
280
     0
102
RTVSPost2010PropOp36
 70
     1
102
RTVSPost2010Prop37
 90
       50
102
RTVSPost2010PropOp37
 70
     1
102
RTVSPost2010Prop38
140
0.0
102
RTVSPost2010PropOp38
 70
     1
102
RTVSPost2010Prop39
140
1.0
102
RTVSPost2010PropOp39
 70
     1
102
RTVSPost2010Prop40
 90
        0
102
RTVSPost2010PropOp40
 70
     1
102
RTVSPost2010Prop41ColorIndex
 90
       18
102
RTVSPost2010Prop41ColorRGB
 90
        0
102
RTVSPost2010PropOp41
 70
     1
102
RTVSPost2010Prop42
 90
       50
102
RTVSPost2010PropOp42
 70
     1
102
RTVSPost2010Prop43
 90
        3
102
RTVSPost2010PropOp43
 70
     1
102
RTVSPost2010Prop44ColorIndex
 90
        5
102
RTVSPost2010Prop44ColorRGB
 90
      255
102
RTVSPost2010PropOp44
 70
     1
102
RTVSPost2010Prop45
280
     0
102
RTVSPost2010PropOp45
 70
     1
102
RTVSPost2010Prop46
 90
       50
102
RTVSPost2010PropOp46
 70
     1
102
RTVSPost2010Prop47
 90
       50
102
RTVSPost2010PropOp47
 70
     1
102
RTVSPost2010Prop48
 90
       50
102
RTVSPost2010PropOp48
 70
     1
102
RTVSPost2010Prop49
280
     0
102
RTVSPost2010PropOp49
 70
     1
102
RTVSPost2010Prop50
 90
       50
102
RTVSPost2010PropOp50
 70
     1
102
RTVSPost2010Prop51ColorIndex
 90
      256
102
RTVSPost2010Prop51ColorRGB
 90
-16777216
102
RTVSPost2010PropOp51
 70
     0
102
RTVSPost2010Prop52
140
1.0
102
RTVSPost2010PropOp52
 70
     0
102
RTVSPost2010Prop53
 90
        2
102
RTVSPost2010PropOp53
 70
     1
102
RTVSPost2010Prop54
  1
strokes_ogs.tif
102
RTVSPost2010PropOp54
 70
     1
102
RTVSPost2010Prop55
280
     0
102
RTVSPost2010PropOp55
 70
     1
102
RTVSPost2010Prop56
140
1.0
102
RTVSPost2010PropOp56
 70
     1
102
RTVSPost2010Prop57
140
1.0
102
RTVSPost2010PropOp57
 70
     1
  0
XRECORD
  5
168
102
{ACAD_REACTORS
330
167
102
}
330
167
100
AcDbXrecord
280
     1
102
RTVSPost2010Prop28
280
     0
102
RTVSPost2010PropOp28
 70
     1
102
RTVSPost2010Prop29
280
     1
102
RTVSPost2010PropOp29
 70
     1
102
RTVSPost2010Prop30
280
     1
102
RTVSPost2010PropOp30
 70
     1
102
RTVSPost2010Prop31
280
     0
102
RTVSPost2010PropOp31
 70
     1
102
RTVSPost2010Prop32
280
     0
102
RTVSPost2010PropOp32
 70
     1
102
RTVSPost2010Prop33
280
     0
102
RTVSPost2010PropOp33
 70
     1
102
RTVSPost2010Prop34
280
     0
102
RTVSPost2010PropOp34
 70
     1
102
RTVSPost2010Prop35
280
     0
102
RTVSPost2010PropOp35
 70
     1
102
RTVSPost2010Prop36
280
     0
102
RTVSPost2010PropOp36
 70
     1
102
RTVSPost2010Prop37
 90
       50
102
RTVSPost2010PropOp37
 70
     1
102
RTVSPost2010Prop38
140
0.0
102
RTVSPost2010PropOp38
 70
     1
102
RTVSPost2010Prop39
140
1.0
102
RTVSPost2010PropOp39
 70
     1
102
RTVSPost2010Prop40
 90
        0
102
RTVSPost2010PropOp40
 70
     1
102
RTVSPost2010Prop41ColorIndex
 90
       18
102
RTVSPost2010Prop41ColorRGB
 90
        0
102
RTVSPost2010PropOp41
 70
     1
102
RTVSPost2010Prop42
 90
       50
102
RTVSPost2010PropOp42
 70
     1
102
RTVSPost2010Prop43
 90
        3
102
RTVSPost2010PropOp43
 70
     1
102
RTVSPost2010Prop44ColorIndex
 90
        5
102
RTVSPost2010Prop44ColorRGB
 90
      255
102
RTVSPost2010PropOp44
 70
     1
102
RTVSPost2010Prop45
280
     0
102
RTVSPost2010PropOp45
 70
     1
102
RTVSPost2010Prop46
 90
       50
102
RTVSPost2010PropOp46
 70
     1
102
RTVSPost2010Prop47
 90
       50
102
RTVSPost2010PropOp47
 70
     1
102
RTVSPost2010Prop48
 90
       50
102
RTVSPost2010PropOp48
 70
     1
102
RTVSPost2010Prop49
280
     0
102
RTVSPost2010PropOp49
 70
     1
102
RTVSPost2010Prop50
 90
       50
102
RTVSPost2010PropOp50
 70
     1
102
RTVSPost2010Prop51ColorIndex
 90
      256
102
RTVSPost2010Prop51ColorRGB
 90
-16777216
102
RTVSPost2010PropOp51
 70
     0
102
RTVSPost2010Prop52
140
1.0
102
RTVSPost2010PropOp52
 70
     0
102
RTVSPost2010Prop53
 90
        2
102
RTVSPost2010PropOp53
 70
     1
102
RTVSPost2010Prop54
  1
strokes_ogs.tif
102
RTVSPost2010PropOp54
 70
     1
102
RTVSPost2010Prop55
280
     0
102
RTVSPost2010PropOp55
 70
     1
102
RTVSPost2010Prop56
140
1.0
102
RTVSPost2010PropOp56
 70
     1
102
RTVSPost2010Prop57
140
1.0
102
RTVSPost2010PropOp57
 70
     1
  0
XRECORD
  5
17C
102
{ACAD_REACTORS
330
17B
102
}
330
17B
100
AcDbXrecord
280
     1
102
RTVSPost2010Prop28
280
     0
102
RTVSPost2010PropOp28
 70
     0
102
RTVSPost2010Prop29
280
     1
102
RTVSPost2010PropOp29
 70
     0
102
RTVSPost2010Prop30
280
     1
102
RTVSPost2010PropOp30
 70
     0
102
RTVSPost2010Prop31
280
     0
102
RTVSPost2010PropOp31
 70
     0
102
RTVSPost2010Prop32
280
     0
102
RTVSPost2010PropOp32
 70
     0
102
RTVSPost2010Prop33
280
     0
102
RTVSPost2010PropOp33
 70
     0
102
RTVSPost2010Prop34
280
     0
102
RTVSPost2010PropOp34
 70
     0
102
RTVSPost2010Prop35
280
     0
102
RTVSPost2010PropOp35
 70
     0
102
RTVSPost2010Prop36
280
     0
102
RTVSPost2010PropOp36
 70
     0
102
RTVSPost2010Prop37
 90
       50
102
RTVSPost2010PropOp37
 70
     0
102
RTVSPost2010Prop38
140
0.0
102
RTVSPost2010PropOp38
 70
     0
102
RTVSPost2010Prop39
140
1.0
102
RTVSPost2010PropOp39
 70
     0
102
RTVSPost2010Prop40
 90
        0
102
RTVSPost2010PropOp40
 70
     0
102
RTVSPost2010Prop41ColorIndex
 90
       18
102
RTVSPost2010Prop41ColorRGB
 90
        0
102
RTVSPost2010PropOp41
 70
     0
102
RTVSPost2010Prop42
 90
       50
102
RTVSPost2010PropOp42
 70
     0
102
RTVSPost2010Prop43
 90
        3
102
RTVSPost2010PropOp43
 70
     0
102
RTVSPost2010Prop44ColorIndex
 90
        5
102
RTVSPost2010Prop44ColorRGB
 90
      255
102
RTVSPost2010PropOp44
 70
     0
102
RTVSPost2010Prop45
280
     0
102
RTVSPost2010PropOp45
 70
     0
102
RTVSPost2010Prop46
 90
       50
102
RTVSPost2010PropOp46
 70
     0
102
RTVSPost2010Prop47
 90
       50
102
RTVSPost2010PropOp47
 70
     0
102
RTVSPost2010Prop48
 90
       50
102
RTVSPost2010PropOp48
 70
     0
102
RTVSPost2010Prop49
280
     0
102
RTVSPost2010PropOp49
 70
     0
102
RTVSPost2010Prop50
 90
       50
102
RTVSPost2010PropOp50
 70
     0
102
RTVSPost2010Prop51ColorIndex
 90
      256
102
RTVSPost2010Prop51ColorRGB
 90
-16777216
102
RTVSPost2010PropOp51
 70
     0
102
RTVSPost2010Prop52
140
1.0
102
RTVSPost2010PropOp52
 70
     0
102
RTVSPost2010Prop53
 90
        2
102
RTVSPost2010PropOp53
 70
     0
102
RTVSPost2010Prop54
  1
strokes_ogs.tif
102
RTVSPost2010PropOp54
 70
     0
102
RTVSPost2010Prop55
280
     0
102
RTVSPost2010PropOp55
 70
     0
102
RTVSPost2010Prop56
140
1.0
102
RTVSPost2010PropOp56
 70
     0
102
RTVSPost2010Prop57
140
1.0
102
RTVSPost2010PropOp57
 70
     0
  0
XRECORD
  5
176
102
{ACAD_REACTORS
330
175
102
}
330
175
100
AcDbXrecord
280
     1
102
RTVSPost2010Prop28
280
     0
102
RTVSPost2010PropOp28
 70
     1
102
RTVSPost2010Prop29
280
     1
102
RTVSPost2010PropOp29
 70
     1
102
RTVSPost2010Prop30
280
     1
102
RTVSPost2010PropOp30
 70
     1
102
RTVSPost2010Prop31
280
     0
102
RTVSPost2010PropOp31
 70
     1
102
RTVSPost2010Prop32
280
     0
102
RTVSPost2010PropOp32
 70
     1
102
RTVSPost2010Prop33
280
     0
102
RTVSPost2010PropOp33
 70
     1
102
RTVSPost2010Prop34
280
     0
102
RTVSPost2010PropOp34
 70
     1
102
RTVSPost2010Prop35
280
     0
102
RTVSPost2010PropOp35
 70
     1
102
RTVSPost2010Prop36
280
     0
102
RTVSPost2010PropOp36
 70
     1
102
RTVSPost2010Prop37
 90
       50
102
RTVSPost2010PropOp37
 70
     1
102
RTVSPost2010Prop38
140
0.0
102
RTVSPost2010PropOp38
 70
     1
102
RTVSPost2010Prop39
140
1.0
102
RTVSPost2010PropOp39
 70
     1
102
RTVSPost2010Prop40
 90
        0
102
RTVSPost2010PropOp40
 70
     1
102
RTVSPost2010Prop41ColorIndex
 90
       18
102
RTVSPost2010Prop41ColorRGB
 90
        0
102
RTVSPost2010PropOp41
 70
     1
102
RTVSPost2010Prop42
 90
       50
102
RTVSPost2010PropOp42
 70
     1
102
RTVSPost2010Prop43
 90
        3
102
RTVSPost2010PropOp43
 70
     1
102
RTVSPost2010Prop44ColorIndex
 90
        5
102
RTVSPost2010Prop44ColorRGB
 90
      255
102
RTVSPost2010PropOp44
 70
     1
102
RTVSPost2010Prop45
280
     0
102
RTVSPost2010PropOp45
 70
     1
102
RTVSPost2010Prop46
 90
       50
102
RTVSPost2010PropOp46
 70
     1
102
RTVSPost2010Prop47
 90
       50
102
RTVSPost2010PropOp47
 70
     1
102
RTVSPost2010Prop48
 90
       50
102
RTVSPost2010PropOp48
 70
     1
102
RTVSPost2010Prop49
280
     0
102
RTVSPost2010PropOp49
 70
     1
102
RTVSPost2010Prop50
 90
       50
102
RTVSPost2010PropOp50
 70
     1
102
RTVSPost2010Prop51ColorIndex
 90
      256
102
RTVSPost2010Prop51ColorRGB
 90
-16777216
102
RTVSPost2010PropOp51
 70
     0
102
RTVSPost2010Prop52
140
1.0
102
RTVSPost2010PropOp52
 70
     0
102
RTVSPost2010Prop53
 90
        2
102
RTVSPost2010PropOp53
 70
     1
102
RTVSPost2010Prop54
  1
strokes_ogs.tif
102
RTVSPost2010PropOp54
 70
     1
102
RTVSPost2010Prop55
280
     0
102
RTVSPost2010PropOp55
 70
     1
102
RTVSPost2010Prop56
140
1.0
102
RTVSPost2010PropOp56
 70
     1
102
RTVSPost2010Prop57
140
1.0
102
RTVSPost2010PropOp57
 70
     1
  0
XRECORD
  5
17E
102
{ACAD_REACTORS
330
17D
102
}
330
17D
100
AcDbXrecord
280
     1
102
RTVSPost2010Prop28
280
     0
102
RTVSPost2010PropOp28
 70
     0
102
RTVSPost2010Prop29
280
     1
102
RTVSPost2010PropOp29
 70
     0
102
RTVSPost2010Prop30
280
     1
102
RTVSPost2010PropOp30
 70
     0
102
RTVSPost2010Prop31
280
     0
102
RTVSPost2010PropOp31
 70
     0
102
RTVSPost2010Prop32
280
     0
102
RTVSPost2010PropOp32
 70
     0
102
RTVSPost2010Prop33
280
     0
102
RTVSPost2010PropOp33
 70
     0
102
RTVSPost2010Prop34
280
     0
102
RTVSPost2010PropOp34
 70
     0
102
RTVSPost2010Prop35
280
     0
102
RTVSPost2010PropOp35
 70
     0
102
RTVSPost2010Prop36
280
     0
102
RTVSPost2010PropOp36
 70
     0
102
RTVSPost2010Prop37
 90
       50
102
RTVSPost2010PropOp37
 70
     0
102
RTVSPost2010Prop38
140
0.0
102
RTVSPost2010PropOp38
 70
     0
102
RTVSPost2010Prop39
140
1.0
102
RTVSPost2010PropOp39
 70
     0
102
RTVSPost2010Prop40
 90
        0
102
RTVSPost2010PropOp40
 70
     0
102
RTVSPost2010Prop41ColorIndex
 90
       18
102
RTVSPost2010Prop41ColorRGB
 90
        0
102
RTVSPost2010PropOp41
 70
     0
102
RTVSPost2010Prop42
 90
       50
102
RTVSPost2010PropOp42
 70
     0
102
RTVSPost2010Prop43
 90
        3
102
RTVSPost2010PropOp43
 70
     0
102
RTVSPost2010Prop44ColorIndex
 90
        5
102
RTVSPost2010Prop44ColorRGB
 90
      255
102
RTVSPost2010PropOp44
 70
     0
102
RTVSPost2010Prop45
280
     0
102
RTVSPost2010PropOp45
 70
     0
102
RTVSPost2010Prop46
 90
       50
102
RTVSPost2010PropOp46
 70
     0
102
RTVSPost2010Prop47
 90
       50
102
RTVSPost2010PropOp47
 70
     0
102
RTVSPost2010Prop48
 90
       50
102
RTVSPost2010PropOp48
 70
     0
102
RTVSPost2010Prop49
280
     0
102
RTVSPost2010PropOp49
 70
     0
102
RTVSPost2010Prop50
 90
       50
102
RTVSPost2010PropOp50
 70
     0
102
RTVSPost2010Prop51ColorIndex
 90
      256
102
RTVSPost2010Prop51ColorRGB
 90
-16777216
102
RTVSPost2010PropOp51
 70
     0
102
RTVSPost2010Prop52
140
1.0
102
RTVSPost2010PropOp52
 70
     0
102
RTVSPost2010Prop53
 90
        2
102
RTVSPost2010PropOp53
 70
     0
102
RTVSPost2010Prop54
  1
strokes_ogs.tif
102
RTVSPost2010PropOp54
 70
     0
102
RTVSPost2010Prop55
280
     0
102
RTVSPost2010PropOp55
 70
     0
102
RTVSPost2010Prop56
140
1.0
102
RTVSPost2010PropOp56
 70
     0
102
RTVSPost2010Prop57
140
1.0
102
RTVSPost2010PropOp57
 70
     0
  0
XRECORD
  5
16C
102
{ACAD_REACTORS
330
16B
102
}
330
16B
100
AcDbXrecord
280
     1
102
RTVSPost2010Prop28
280
     0
102
RTVSPost2010PropOp28
 70
     1
102
RTVSPost2010Prop29
280
     1
102
RTVSPost2010PropOp29
 70
     1
102
RTVSPost2010Prop30
280
     1
102
RTVSPost2010PropOp30
 70
     1
102
RTVSPost2010Prop31
280
     0
102
RTVSPost2010PropOp31
 70
     1
102
RTVSPost2010Prop32
280
     0
102
RTVSPost2010PropOp32
 70
     1
102
RTVSPost2010Prop33
280
     0
102
RTVSPost2010PropOp33
 70
     1
102
RTVSPost2010Prop34
280
     0
102
RTVSPost2010PropOp34
 70
     1
102
RTVSPost2010Prop35
280
     0
102
RTVSPost2010PropOp35
 70
     1
102
RTVSPost2010Prop36
280
     0
102
RTVSPost2010PropOp36
 70
     1
102
RTVSPost2010Prop37
 90
       50
102
RTVSPost2010PropOp37
 70
     1
102
RTVSPost2010Prop38
140
0.0
102
RTVSPost2010PropOp38
 70
     1
102
RTVSPost2010Prop39
140
1.0
102
RTVSPost2010PropOp39
 70
     1
102
RTVSPost2010Prop40
 90
        0
102
RTVSPost2010PropOp40
 70
     1
102
RTVSPost2010Prop41ColorIndex
 90
       18
102
RTVSPost2010Prop41ColorRGB
 90
        0
102
RTVSPost2010PropOp41
 70
     1
102
RTVSPost2010Prop42
 90
       50
102
RTVSPost2010PropOp42
 70
     1
102
RTVSPost2010Prop43
 90
        3
102
RTVSPost2010PropOp43
 70
     1
102
RTVSPost2010Prop44ColorIndex
 90
        5
102
RTVSPost2010Prop44ColorRGB
 90
      255
102
RTVSPost2010PropOp44
 70
     1
102
RTVSPost2010Prop45
280
     0
102
RTVSPost2010PropOp45
 70
     1
102
RTVSPost2010Prop46
 90
       50
102
RTVSPost2010PropOp46
 70
     1
102
RTVSPost2010Prop47
 90
       50
102
RTVSPost2010PropOp47
 70
     1
102
RTVSPost2010Prop48
 90
       50
102
RTVSPost2010PropOp48
 70
     1
102
RTVSPost2010Prop49
280
     0
102
RTVSPost2010PropOp49
 70
     1
102
RTVSPost2010Prop50
 90
       50
102
RTVSPost2010PropOp50
 70
     1
102
RTVSPost2010Prop51ColorIndex
 90
      256
102
RTVSPost2010Prop51ColorRGB
 90
-16777216
102
RTVSPost2010PropOp51
 70
     0
102
RTVSPost2010Prop52
140
1.0
102
RTVSPost2010PropOp52
 70
     0
102
RTVSPost2010Prop53
 90
        2
102
RTVSPost2010PropOp53
 70
     1
102
RTVSPost2010Prop54
  1
strokes_ogs.tif
102
RTVSPost2010PropOp54
 70
     1
102
RTVSPost2010Prop55
280
     0
102
RTVSPost2010PropOp55
 70
     1
102
RTVSPost2010Prop56
140
1.0
102
RTVSPost2010PropOp56
 70
     1
102
RTVSPost2010Prop57
140
1.0
102
RTVSPost2010PropOp57
 70
     1
  0
XRECORD
  5
18A
102
{ACAD_REACTORS
330
189
102
}
330
189
100
AcDbXrecord
280
     1
102
RTVSPost2010Prop28
280
     0
102
RTVSPost2010PropOp28
 70
     1
102
RTVSPost2010Prop29
280
     1
102
RTVSPost2010PropOp29
 70
     1
102
RTVSPost2010Prop30
280
     1
102
RTVSPost2010PropOp30
 70
     1
102
RTVSPost2010Prop31
280
     0
102
RTVSPost2010PropOp31
 70
     1
102
RTVSPost2010Prop32
280
     0
102
RTVSPost2010PropOp32
 70
     1
102
RTVSPost2010Prop33
280
     0
102
RTVSPost2010PropOp33
 70
     1
102
RTVSPost2010Prop34
280
     0
102
RTVSPost2010PropOp34
 70
     1
102
RTVSPost2010Prop35
280
     0
102
RTVSPost2010PropOp35
 70
     1
102
RTVSPost2010Prop36
280
     0
102
RTVSPost2010PropOp36
 70
     1
102
RTVSPost2010Prop37
 90
       50
102
RTVSPost2010PropOp37
 70
     1
102
RTVSPost2010Prop38
140
0.0
102
RTVSPost2010PropOp38
 70
     1
102
RTVSPost2010Prop39
140
1.0
102
RTVSPost2010PropOp39
 70
     1
102
RTVSPost2010Prop40
 90
        0
102
RTVSPost2010PropOp40
 70
     1
102
RTVSPost2010Prop41ColorIndex
 90
       18
102
RTVSPost2010Prop41ColorRGB
 90
        0
102
RTVSPost2010PropOp41
 70
     1
102
RTVSPost2010Prop42
 90
       50
102
RTVSPost2010PropOp42
 70
     1
102
RTVSPost2010Prop43
 90
        3
102
RTVSPost2010PropOp43
 70
     1
102
RTVSPost2010Prop44ColorIndex
 90
        5
102
RTVSPost2010Prop44ColorRGB
 90
      255
102
RTVSPost2010PropOp44
 70
     1
102
RTVSPost2010Prop45
280
     0
102
RTVSPost2010PropOp45
 70
     1
102
RTVSPost2010Prop46
 90
       50
102
RTVSPost2010PropOp46
 70
     1
102
RTVSPost2010Prop47
 90
       50
102
RTVSPost2010PropOp47
 70
     1
102
RTVSPost2010Prop48
 90
       50
102
RTVSPost2010PropOp48
 70
     1
102
RTVSPost2010Prop49
280
     0
102
RTVSPost2010PropOp49
 70
     1
102
RTVSPost2010Prop50
 90
       50
102
RTVSPost2010PropOp50
 70
     1
102
RTVSPost2010Prop51ColorIndex
 90
      256
102
RTVSPost2010Prop51ColorRGB
 90
-16777216
102
RTVSPost2010PropOp51
 70
     0
102
RTVSPost2010Prop52
140
1.0
102
RTVSPost2010PropOp52
 70
     0
102
RTVSPost2010Prop53
 90
        2
102
RTVSPost2010PropOp53
 70
     1
102
RTVSPost2010Prop54
  1
strokes_ogs.tif
102
RTVSPost2010PropOp54
 70
     1
102
RTVSPost2010Prop55
280
     0
102
RTVSPost2010PropOp55
 70
     1
102
RTVSPost2010Prop56
140
1.0
102
RTVSPost2010PropOp56
 70
     1
102
RTVSPost2010Prop57
140
1.0
102
RTVSPost2010PropOp57
 70
     1
  0
XRECORD
  5
188
102
{ACAD_REACTORS
330
187
102
}
330
187
100
AcDbXrecord
280
     1
102
RTVSPost2010Prop28
280
     0
102
RTVSPost2010PropOp28
 70
     1
102
RTVSPost2010Prop29
280
     1
102
RTVSPost2010PropOp29
 70
     1
102
RTVSPost2010Prop30
280
     1
102
RTVSPost2010PropOp30
 70
     1
102
RTVSPost2010Prop31
280
     0
102
RTVSPost2010PropOp31
 70
     1
102
RTVSPost2010Prop32
280
     0
102
RTVSPost2010PropOp32
 70
     1
102
RTVSPost2010Prop33
280
     0
102
RTVSPost2010PropOp33
 70
     1
102
RTVSPost2010Prop34
280
     0
102
RTVSPost2010PropOp34
 70
     1
102
RTVSPost2010Prop35
280
     0
102
RTVSPost2010PropOp35
 70
     1
102
RTVSPost2010Prop36
280
     0
102
RTVSPost2010PropOp36
 70
     1
102
RTVSPost2010Prop37
 90
       50
102
RTVSPost2010PropOp37
 70
     1
102
RTVSPost2010Prop38
140
0.0
102
RTVSPost2010PropOp38
 70
     1
102
RTVSPost2010Prop39
140
1.0
102
RTVSPost2010PropOp39
 70
     1
102
RTVSPost2010Prop40
 90
        0
102
RTVSPost2010PropOp40
 70
     1
102
RTVSPost2010Prop41ColorIndex
 90
       18
102
RTVSPost2010Prop41ColorRGB
 90
        0
102
RTVSPost2010PropOp41
 70
     1
102
RTVSPost2010Prop42
 90
       50
102
RTVSPost2010PropOp42
 70
     1
102
RTVSPost2010Prop43
 90
        3
102
RTVSPost2010PropOp43
 70
     1
102
RTVSPost2010Prop44ColorIndex
 90
        5
102
RTVSPost2010Prop44ColorRGB
 90
      255
102
RTVSPost2010PropOp44
 70
     1
102
RTVSPost2010Prop45
280
     0
102
RTVSPost2010PropOp45
 70
     1
102
RTVSPost2010Prop46
 90
       50
102
RTVSPost2010PropOp46
 70
     1
102
RTVSPost2010Prop47
 90
       50
102
RTVSPost2010PropOp47
 70
     1
102
RTVSPost2010Prop48
 90
       50
102
RTVSPost2010PropOp48
 70
     1
102
RTVSPost2010Prop49
280
     0
102
RTVSPost2010PropOp49
 70
     1
102
RTVSPost2010Prop50
 90
       50
102
RTVSPost2010PropOp50
 70
     1
102
RTVSPost2010Prop51ColorIndex
 90
      256
102
RTVSPost2010Prop51ColorRGB
 90
-16777216
102
RTVSPost2010PropOp51
 70
     0
102
RTVSPost2010Prop52
140
1.0
102
RTVSPost2010PropOp52
 70
     0
102
RTVSPost2010Prop53
 90
        2
102
RTVSPost2010PropOp53
 70
     1
102
RTVSPost2010Prop54
  1
strokes_ogs.tif
102
RTVSPost2010PropOp54
 70
     1
102
RTVSPost2010Prop55
280
     0
102
RTVSPost2010PropOp55
 70
     1
102
RTVSPost2010Prop56
140
1.0
102
RTVSPost2010PropOp56
 70
     1
102
RTVSPost2010Prop57
140
1.0
102
RTVSPost2010PropOp57
 70
     1
  0
XRECORD
  5
182
102
{ACAD_REACTORS
330
181
102
}
330
181
100
AcDbXrecord
280
     1
102
RTVSPost2010Prop28
280
     0
102
RTVSPost2010PropOp28
 70
     1
102
RTVSPost2010Prop29
280
     1
102
RTVSPost2010PropOp29
 70
     1
102
RTVSPost2010Prop30
280
     1
102
RTVSPost2010PropOp30
 70
     1
102
RTVSPost2010Prop31
280
     0
102
RTVSPost2010PropOp31
 70
     1
102
RTVSPost2010Prop32
280
     0
102
RTVSPost2010PropOp32
 70
     1
102
RTVSPost2010Prop33
280
     0
102
RTVSPost2010PropOp33
 70
     1
102
RTVSPost2010Prop34
280
     0
102
RTVSPost2010PropOp34
 70
     1
102
RTVSPost2010Prop35
280
     0
102
RTVSPost2010PropOp35
 70
     1
102
RTVSPost2010Prop36
280
     0
102
RTVSPost2010PropOp36
 70
     1
102
RTVSPost2010Prop37
 90
       50
102
RTVSPost2010PropOp37
 70
     1
102
RTVSPost2010Prop38
140
0.0
102
RTVSPost2010PropOp38
 70
     1
102
RTVSPost2010Prop39
140
1.0
102
RTVSPost2010PropOp39
 70
     1
102
RTVSPost2010Prop40
 90
        0
102
RTVSPost2010PropOp40
 70
     1
102
RTVSPost2010Prop41ColorIndex
 90
       18
102
RTVSPost2010Prop41ColorRGB
 90
        0
102
RTVSPost2010PropOp41
 70
     1
102
RTVSPost2010Prop42
 90
       50
102
RTVSPost2010PropOp42
 70
     1
102
RTVSPost2010Prop43
 90
        3
102
RTVSPost2010PropOp43
 70
     1
102
RTVSPost2010Prop44ColorIndex
 90
        5
102
RTVSPost2010Prop44ColorRGB
 90
      255
102
RTVSPost2010PropOp44
 70
     1
102
RTVSPost2010Prop45
280
     0
102
RTVSPost2010PropOp45
 70
     1
102
RTVSPost2010Prop46
 90
       50
102
RTVSPost2010PropOp46
 70
     1
102
RTVSPost2010Prop47
 90
       50
102
RTVSPost2010PropOp47
 70
     1
102
RTVSPost2010Prop48
 90
       50
102
RTVSPost2010PropOp48
 70
     1
102
RTVSPost2010Prop49
280
     0
102
RTVSPost2010PropOp49
 70
     1
102
RTVSPost2010Prop50
 90
       50
102
RTVSPost2010PropOp50
 70
     1
102
RTVSPost2010Prop51ColorIndex
 90
      256
102
RTVSPost2010Prop51ColorRGB
 90
-16777216
102
RTVSPost2010PropOp51
 70
     0
102
RTVSPost2010Prop52
140
1.0
102
RTVSPost2010PropOp52
 70
     0
102
RTVSPost2010Prop53
 90
        2
102
RTVSPost2010PropOp53
 70
     1
102
RTVSPost2010Prop54
  1
strokes_ogs.tif
102
RTVSPost2010PropOp54
 70
     1
102
RTVSPost2010Prop55
280
     0
102
RTVSPost2010PropOp55
 70
     1
102
RTVSPost2010Prop56
140
1.0
102
RTVSPost2010PropOp56
 70
     1
102
RTVSPost2010Prop57
140
1.0
102
RTVSPost2010PropOp57
 70
     1
  0
XRECORD
  5
184
102
{ACAD_REACTORS
330
183
102
}
330
183
100
AcDbXrecord
280
     1
102
RTVSPost2010Prop28
280
     0
102
RTVSPost2010PropOp28
 70
     1
102
RTVSPost2010Prop29
280
     1
102
RTVSPost2010PropOp29
 70
     1
102
RTVSPost2010Prop30
280
     1
102
RTVSPost2010PropOp30
 70
     1
102
RTVSPost2010Prop31
280
     0
102
RTVSPost2010PropOp31
 70
     1
102
RTVSPost2010Prop32
280
     0
102
RTVSPost2010PropOp32
 70
     1
102
RTVSPost2010Prop33
280
     0
102
RTVSPost2010PropOp33
 70
     1
102
RTVSPost2010Prop34
280
     0
102
RTVSPost2010PropOp34
 70
     1
102
RTVSPost2010Prop35
280
     0
102
RTVSPost2010PropOp35
 70
     1
102
RTVSPost2010Prop36
280
     0
102
RTVSPost2010PropOp36
 70
     1
102
RTVSPost2010Prop37
 90
       50
102
RTVSPost2010PropOp37
 70
     1
102
RTVSPost2010Prop38
140
0.0
102
RTVSPost2010PropOp38
 70
     1
102
RTVSPost2010Prop39
140
1.0
102
RTVSPost2010PropOp39
 70
     1
102
RTVSPost2010Prop40
 90
        0
102
RTVSPost2010PropOp40
 70
     1
102
RTVSPost2010Prop41ColorIndex
 90
       18
102
RTVSPost2010Prop41ColorRGB
 90
        0
102
RTVSPost2010PropOp41
 70
     1
102
RTVSPost2010Prop42
 90
       50
102
RTVSPost2010PropOp42
 70
     1
102
RTVSPost2010Prop43
 90
        3
102
RTVSPost2010PropOp43
 70
     1
102
RTVSPost2010Prop44ColorIndex
 90
        5
102
RTVSPost2010Prop44ColorRGB
 90
      255
102
RTVSPost2010PropOp44
 70
     1
102
RTVSPost2010Prop45
280
     0
102
RTVSPost2010PropOp45
 70
     1
102
RTVSPost2010Prop46
 90
       50
102
RTVSPost2010PropOp46
 70
     1
102
RTVSPost2010Prop47
 90
       50
102
RTVSPost2010PropOp47
 70
     1
102
RTVSPost2010Prop48
 90
       50
102
RTVSPost2010PropOp48
 70
     1
102
RTVSPost2010Prop49
280
     0
102
RTVSPost2010PropOp49
 70
     1
102
RTVSPost2010Prop50
 90
       50
102
RTVSPost2010PropOp50
 70
     1
102
RTVSPost2010Prop51ColorIndex
 90
      256
102
RTVSPost2010Prop51ColorRGB
 90
-16777216
102
RTVSPost2010PropOp51
 70
     0
102
RTVSPost2010Prop52
140
1.0
102
RTVSPost2010PropOp52
 70
     0
102
RTVSPost2010Prop53
 90
        2
102
RTVSPost2010PropOp53
 70
     1
102
RTVSPost2010Prop54
  1
strokes_ogs.tif
102
RTVSPost2010PropOp54
 70
     1
102
RTVSPost2010Prop55
280
     0
102
RTVSPost2010PropOp55
 70
     1
102
RTVSPost2010Prop56
140
1.0
102
RTVSPost2010PropOp56
 70
     1
102
RTVSPost2010Prop57
140
1.0
102
RTVSPost2010PropOp57
 70
     1
  0
XRECORD
  5
174
102
{ACAD_REACTORS
330
173
102
}
330
173
100
AcDbXrecord
280
     1
102
RTVSPost2010Prop28
280
     0
102
RTVSPost2010PropOp28
 70
     1
102
RTVSPost2010Prop29
280
     1
102
RTVSPost2010PropOp29
 70
     1
102
RTVSPost2010Prop30
280
     1
102
RTVSPost2010PropOp30
 70
     1
102
RTVSPost2010Prop31
280
     0
102
RTVSPost2010PropOp31
 70
     1
102
RTVSPost2010Prop32
280
     0
102
RTVSPost2010PropOp32
 70
     1
102
RTVSPost2010Prop33
280
     0
102
RTVSPost2010PropOp33
 70
     1
102
RTVSPost2010Prop34
280
     0
102
RTVSPost2010PropOp34
 70
     1
102
RTVSPost2010Prop35
280
     0
102
RTVSPost2010PropOp35
 70
     1
102
RTVSPost2010Prop36
280
     0
102
RTVSPost2010PropOp36
 70
     1
102
RTVSPost2010Prop37
 90
       50
102
RTVSPost2010PropOp37
 70
     1
102
RTVSPost2010Prop38
140
0.0
102
RTVSPost2010PropOp38
 70
     1
102
RTVSPost2010Prop39
140
1.0
102
RTVSPost2010PropOp39
 70
     1
102
RTVSPost2010Prop40
 90
        0
102
RTVSPost2010PropOp40
 70
     1
102
RTVSPost2010Prop41ColorIndex
 90
       18
102
RTVSPost2010Prop41ColorRGB
 90
        0
102
RTVSPost2010PropOp41
 70
     1
102
RTVSPost2010Prop42
 90
       50
102
RTVSPost2010PropOp42
 70
     1
102
RTVSPost2010Prop43
 90
        3
102
RTVSPost2010PropOp43
 70
     1
102
RTVSPost2010Prop44ColorIndex
 90
        5
102
RTVSPost2010Prop44ColorRGB
 90
      255
102
RTVSPost2010PropOp44
 70
     1
102
RTVSPost2010Prop45
280
     0
102
RTVSPost2010PropOp45
 70
     1
102
RTVSPost2010Prop46
 90
       50
102
RTVSPost2010PropOp46
 70
     1
102
RTVSPost2010Prop47
 90
       50
102
RTVSPost2010PropOp47
 70
     1
102
RTVSPost2010Prop48
 90
       50
102
RTVSPost2010PropOp48
 70
     1
102
RTVSPost2010Prop49
280
     0
102
RTVSPost2010PropOp49
 70
     1
102
RTVSPost2010Prop50
 90
       50
102
RTVSPost2010PropOp50
 70
     1
102
RTVSPost2010Prop51ColorIndex
 90
      256
102
RTVSPost2010Prop51ColorRGB
 90
-16777216
102
RTVSPost2010PropOp51
 70
     0
102
RTVSPost2010Prop52
140
1.0
102
RTVSPost2010PropOp52
 70
     0
102
RTVSPost2010Prop53
 90
        2
102
RTVSPost2010PropOp53
 70
     1
102
RTVSPost2010Prop54
  1
strokes_ogs.tif
102
RTVSPost2010PropOp54
 70
     1
102
RTVSPost2010Prop55
280
     0
102
RTVSPost2010PropOp55
 70
     1
102
RTVSPost2010Prop56
140
1.0
102
RTVSPost2010PropOp56
 70
     1
102
RTVSPost2010Prop57
140
1.0
102
RTVSPost2010PropOp57
 70
     1
  0
XRECORD
  5
166
102
{ACAD_REACTORS
330
165
102
}
330
165
100
AcDbXrecord
280
     1
102
RTVSPost2010Prop28
280
     0
102
RTVSPost2010PropOp28
 70
     1
102
RTVSPost2010Prop29
280
     1
102
RTVSPost2010PropOp29
 70
     1
102
RTVSPost2010Prop30
280
     1
102
RTVSPost2010PropOp30
 70
     1
102
RTVSPost2010Prop31
280
     0
102
RTVSPost2010PropOp31
 70
     1
102
RTVSPost2010Prop32
280
     0
102
RTVSPost2010PropOp32
 70
     1
102
RTVSPost2010Prop33
280
     0
102
RTVSPost2010PropOp33
 70
     1
102
RTVSPost2010Prop34
280
     0
102
RTVSPost2010PropOp34
 70
     1
102
RTVSPost2010Prop35
280
     0
102
RTVSPost2010PropOp35
 70
     1
102
RTVSPost2010Prop36
280
     0
102
RTVSPost2010PropOp36
 70
     1
102
RTVSPost2010Prop37
 90
       50
102
RTVSPost2010PropOp37
 70
     1
102
RTVSPost2010Prop38
140
0.0
102
RTVSPost2010PropOp38
 70
     1
102
RTVSPost2010Prop39
140
1.0
102
RTVSPost2010PropOp39
 70
     1
102
RTVSPost2010Prop40
 90
        0
102
RTVSPost2010PropOp40
 70
     1
102
RTVSPost2010Prop41ColorIndex
 90
       18
102
RTVSPost2010Prop41ColorRGB
 90
        0
102
RTVSPost2010PropOp41
 70
     1
102
RTVSPost2010Prop42
 90
       50
102
RTVSPost2010PropOp42
 70
     1
102
RTVSPost2010Prop43
 90
        3
102
RTVSPost2010PropOp43
 70
     1
102
RTVSPost2010Prop44ColorIndex
 90
        5
102
RTVSPost2010Prop44ColorRGB
 90
      255
102
RTVSPost2010PropOp44
 70
     1
102
RTVSPost2010Prop45
280
     0
102
RTVSPost2010PropOp45
 70
     1
102
RTVSPost2010Prop46
 90
       50
102
RTVSPost2010PropOp46
 70
     1
102
RTVSPost2010Prop47
 90
       50
102
RTVSPost2010PropOp47
 70
     1
102
RTVSPost2010Prop48
 90
       50
102
RTVSPost2010PropOp48
 70
     1
102
RTVSPost2010Prop49
280
     0
102
RTVSPost2010PropOp49
 70
     1
102
RTVSPost2010Prop50
 90
       50
102
RTVSPost2010PropOp50
 70
     1
102
RTVSPost2010Prop51ColorIndex
 90
      256
102
RTVSPost2010Prop51ColorRGB
 90
-16777216
102
RTVSPost2010PropOp51
 70
     0
102
RTVSPost2010Prop52
140
1.0
102
RTVSPost2010PropOp52
 70
     0
102
RTVSPost2010Prop53
 90
        2
102
RTVSPost2010PropOp53
 70
     1
102
RTVSPost2010Prop54
  1
strokes_ogs.tif
102
RTVSPost2010PropOp54
 70
     1
102
RTVSPost2010Prop55
280
     0
102
RTVSPost2010PropOp55
 70
     1
102
RTVSPost2010Prop56
140
1.0
102
RTVSPost2010PropOp56
 70
     1
102
RTVSPost2010Prop57
140
1.0
102
RTVSPost2010PropOp57
 70
     1
  0
XRECORD
  5
186
102
{ACAD_REACTORS
330
185
102
}
330
185
100
AcDbXrecord
280
     1
102
RTVSPost2010Prop28
280
     0
102
RTVSPost2010PropOp28
 70
     1
102
RTVSPost2010Prop29
280
     1
102
RTVSPost2010PropOp29
 70
     1
102
RTVSPost2010Prop30
280
     1
102
RTVSPost2010PropOp30
 70
     1
102
RTVSPost2010Prop31
280
     0
102
RTVSPost2010PropOp31
 70
     1
102
RTVSPost2010Prop32
280
     0
102
RTVSPost2010PropOp32
 70
     1
102
RTVSPost2010Prop33
280
     0
102
RTVSPost2010PropOp33
 70
     1
102
RTVSPost2010Prop34
280
     0
102
RTVSPost2010PropOp34
 70
     1
102
RTVSPost2010Prop35
280
     0
102
RTVSPost2010PropOp35
 70
     1
102
RTVSPost2010Prop36
280
     0
102
RTVSPost2010PropOp36
 70
     1
102
RTVSPost2010Prop37
 90
       50
102
RTVSPost2010PropOp37
 70
     1
102
RTVSPost2010Prop38
140
0.0
102
RTVSPost2010PropOp38
 70
     1
102
RTVSPost2010Prop39
140
1.0
102
RTVSPost2010PropOp39
 70
     1
102
RTVSPost2010Prop40
 90
        0
102
RTVSPost2010PropOp40
 70
     1
102
RTVSPost2010Prop41ColorIndex
 90
       18
102
RTVSPost2010Prop41ColorRGB
 90
        0
102
RTVSPost2010PropOp41
 70
     1
102
RTVSPost2010Prop42
 90
       50
102
RTVSPost2010PropOp42
 70
     1
102
RTVSPost2010Prop43
 90
        3
102
RTVSPost2010PropOp43
 70
     1
102
RTVSPost2010Prop44ColorIndex
 90
        5
102
RTVSPost2010Prop44ColorRGB
 90
      255
102
RTVSPost2010PropOp44
 70
     1
102
RTVSPost2010Prop45
280
     0
102
RTVSPost2010PropOp45
 70
     1
102
RTVSPost2010Prop46
 90
       50
102
RTVSPost2010PropOp46
 70
     1
102
RTVSPost2010Prop47
 90
       50
102
RTVSPost2010PropOp47
 70
     1
102
RTVSPost2010Prop48
 90
       50
102
RTVSPost2010PropOp48
 70
     1
102
RTVSPost2010Prop49
280
     0
102
RTVSPost2010PropOp49
 70
     1
102
RTVSPost2010Prop50
 90
       50
102
RTVSPost2010PropOp50
 70
     1
102
RTVSPost2010Prop51ColorIndex
 90
      256
102
RTVSPost2010Prop51ColorRGB
 90
-16777216
102
RTVSPost2010PropOp51
 70
     0
102
RTVSPost2010Prop52
140
1.0
102
RTVSPost2010PropOp52
 70
     0
102
RTVSPost2010Prop53
 90
        2
102
RTVSPost2010PropOp53
 70
     1
102
RTVSPost2010Prop54
  1
strokes_ogs.tif
102
RTVSPost2010PropOp54
 70
     1
102
RTVSPost2010Prop55
280
     0
102
RTVSPost2010PropOp55
 70
     1
102
RTVSPost2010Prop56
140
1.0
102
RTVSPost2010PropOp56
 70
     1
102
RTVSPost2010Prop57
140
1.0
102
RTVSPost2010PropOp57
 70
     1
  0
ENDSEC
  0
EOF
