  0
SECTION
  2
HEADER
  9
$ACADVER
  1
AC1027
  9
$ACADMAINTVER
 70
   125
  9
$DWGCODEPAGE
  3
ANSI_1252
  9
$LASTSAVEDBY
  1
tburke
  9
$REQUIREDVERSIONS
160
                 0
  9
$INSBASE
 10
0.0
 20
0.0
 30
0.0
  9
$EXTMIN
 10
1638.68401446985
 20
2591.048788026674
 30
-0.0015258207003583
  9
$EXTMAX
 10
5064.255557714496
 20
4723.248842618428
 30
0.0000000349246037
  9
$LIMMIN
 10
0.0
 20
0.0
  9
$LIMMAX
 10
8400.0
 20
5940.0
  9
$ORTHOMODE
 70
     0
  9
$REGENMODE
 70
     1
  9
$FILLMODE
 70
     1
  9
$QTEXTMODE
 70
     0
  9
$MIRRTEXT
 70
     1
  9
$LTSCALE
 40
20.0
  9
$ATTMODE
 70
     1
  9
$TEXTSIZE
 40
63.5
  9
$TRACEWID
 40
1.0
  9
$TEXTSTYLE
  7
Standard
  9
$CLAYER
  8
Warndon
  9
$CELTYPE
  6
ByLayer
  9
$CECOLOR
 62
   256
  9
$CELTSCALE
 40
1.0
  9
$DISPSILH
 70
     0
  9
$DIMSCALE
 40
1.0
  9
$DIMASZ
 40
50.0
  9
$DIMEXO
 40
20.0
  9
$DIMDLI
 40
3.75
  9
$DIMRND
 40
0.0
  9
$DIMDLE
 40
0.0
  9
$DIMEXE
 40
20.0
  9
$DIMTP
 40
0.0
  9
$DIMTM
 40
0.0
  9
$DIMTXT
 40
56.44444444444444
  9
$DIMCEN
 40
2.5
  9
$DIMTSZ
 40
0.0
  9
$DIMTOL
 70
     0
  9
$DIMLIM
 70
     0
  9
$DIMTIH
 70
     1
  9
$DIMTOH
 70
     1
  9
$DIMSE1
 70
     0
  9
$DIMSE2
 70
     0
  9
$DIMTAD
 70
     1
  9
$DIMZIN
 70
     0
  9
$DIMBLK
  1

  9
$DIMASO
 70
     1
  9
$DIMSHO
 70
     1
  9
$DIMPOST
  1

  9
$DIMAPOST
  1

  9
$DIMALT
 70
     0
  9
$DIMALTD
 70
     3
  9
$DIMALTF
 40
0.0393700787401575
  9
$DIMLFAC
 40
1.0
  9
$DIMTOFL
 70
     1
  9
$DIMTVP
 40
0.0
  9
$DIMTIX
 70
     0
  9
$DIMSOXD
 70
     0
  9
$DIMSAH
 70
     0
  9
$DIMBLK1
  1

  9
$DIMBLK2
  1

  9
$DIMSTYLE
  2
ISO-25
  9
$DIMCLRD
 70
     0
  9
$DIMCLRE
 70
     0
  9
$DIMCLRT
 70
     0
  9
$DIMTFAC
 40
1.0
  9
$DIMGAP
 40
30.48
  9
$DIMJUST
 70
     0
  9
$DIMSD1
 70
     0
  9
$DIMSD2
 70
     0
  9
$DIMTOLJ
 70
     0
  9
$DIMTZIN
 70
     0
  9
$DIMALTZ
 70
     0
  9
$DIMALTTZ
 70
     0
  9
$DIMUPT
 70
     0
  9
$DIMDEC
 70
     2
  9
$DIMTDEC
 70
     2
  9
$DIMALTU
 70
     2
  9
$DIMALTTD
 70
     3
  9
$DIMTXSTY
  7
Standard
  9
$DIMAUNIT
 70
     0
  9
$DIMADEC
 70
     2
  9
$DIMALTRND
 40
0.0
  9
$DIMAZIN
 70
     0
  9
$DIMDSEP
 70
    44
  9
$DIMATFIT
 70
     3
  9
$DIMFRAC
 70
     0
  9
$DIMLDRBLK
  1

  9
$DIMLUNIT
 70
     2
  9
$DIMLWD
 70
    -2
  9
$DIMLWE
 70
    -2
  9
$DIMTMOVE
 70
     0
  9
$DIMFXL
 40
1.0
  9
$DIMFXLON
 70
     0
  9
$DIMJOGANG
 40
0.7853981633974483
  9
$DIMTFILL
 70
     0
  9
$DIMTFILLCLR
 70
     0
  9
$DIMARCSYM
 70
     0
  9
$DIMLTYPE
  6

  9
$DIMLTEX1
  6

  9
$DIMLTEX2
  6

  9
$DIMTXTDIRECTION
 70
     0
  9
$LUNITS
 70
     2
  9
$LUPREC
 70
     2
  9
$SKETCHINC
 40
1.0
  9
$FILLETRAD
 40
10.0
  9
$AUNITS
 70
     0
  9
$AUPREC
 70
     2
  9
$MENU
  1
.
  9
$ELEVATION
 40
0.0
  9
$PELEVATION
 40
0.0
  9
$THICKNESS
 40
0.0
  9
$LIMCHECK
 70
     0
  9
$CHAMFERA
 40
0.0
  9
$CHAMFERB
 40
0.0
  9
$CHAMFERC
 40
0.0
  9
$CHAMFERD
 40
0.0
  9
$SKPOLY
 70
     0
  9
$TDCREATE
 40
2457189.429178241
  9
$TDUCREATE
 40
2457189.387520614
  9
$TDUPDATE
 40
2458432.515405092
  9
$TDUUPDATE
 40
2458432.515405092
  9
$TDINDWG
 40
0.0116042130
  9
$TDUSRTIMER
 40
2457189.396326597
  9
$USRTIMER
 70
     1
  9
$ANGBASE
 50
0.0
  9
$ANGDIR
 70
     0
  9
$PDMODE
 70
     0
  9
$PDSIZE
 40
-1.0
  9
$PLINEWID
 40
0.0
  9
$SPLFRAME
 70
     0
  9
$SPLINETYPE
 70
     6
  9
$SPLINESEGS
 70
     8
  9
$HANDSEED
  5
2CF
  9
$SURFTAB1
 70
     6
  9
$SURFTAB2
 70
     6
  9
$SURFTYPE
 70
     6
  9
$SURFU
 70
     6
  9
$SURFV
 70
     6
  9
$UCSBASE
  2

  9
$UCSNAME
  2

  9
$UCSORG
 10
0.0
 20
0.0
 30
0.0
  9
$UCSXDIR
 10
1.0
 20
0.0
 30
0.0
  9
$UCSYDIR
 10
0.0
 20
1.0
 30
0.0
  9
$UCSORTHOREF
  2

  9
$UCSORTHOVIEW
 70
     0
  9
$UCSORGTOP
 10
0.0
 20
0.0
 30
0.0
  9
$UCSORGBOTTOM
 10
0.0
 20
0.0
 30
0.0
  9
$UCSORGLEFT
 10
0.0
 20
0.0
 30
0.0
  9
$UCSORGRIGHT
 10
0.0
 20
0.0
 30
0.0
  9
$UCSORGFRONT
 10
0.0
 20
0.0
 30
0.0
  9
$UCSORGBACK
 10
0.0
 20
0.0
 30
0.0
  9
$PUCSBASE
  2

  9
$PUCSNAME
  2

  9
$PUCSORG
 10
0.0
 20
0.0
 30
0.0
  9
$PUCSXDIR
 10
1.0
 20
0.0
 30
0.0
  9
$PUCSYDIR
 10
0.0
 20
1.0
 30
0.0
  9
$PUCSORTHOREF
  2

  9
$PUCSORTHOVIEW
 70
     0
  9
$PUCSORGTOP
 10
0.0
 20
0.0
 30
0.0
  9
$PUCSORGBOTTOM
 10
0.0
 20
0.0
 30
0.0
  9
$PUCSORGLEFT
 10
0.0
 20
0.0
 30
0.0
  9
$PUCSORGRIGHT
 10
0.0
 20
0.0
 30
0.0
  9
$PUCSORGFRONT
 10
0.0
 20
0.0
 30
0.0
  9
$PUCSORGBACK
 10
0.0
 20
0.0
 30
0.0
  9
$USERI1
 70
     0
  9
$USERI2
 70
     0
  9
$USERI3
 70
     0
  9
$USERI4
 70
     0
  9
$USERI5
 70
     0
  9
$USERR1
 40
0.0
  9
$USERR2
 40
0.0
  9
$USERR3
 40
0.0
  9
$USERR4
 40
0.0
  9
$USERR5
 40
0.0
  9
$WORLDVIEW
 70
     1
  9
$SHADEDGE
 70
     3
  9
$SHADEDIF
 70
    70
  9
$TILEMODE
 70
     1
  9
$MAXACTVP
 70
    64
  9
$PINSBASE
 10
0.0
 20
0.0
 30
0.0
  9
$PLIMCHECK
 70
     0
  9
$PEXTMIN
 10
1.000000000000000E+20
 20
1.000000000000000E+20
 30
1.000000000000000E+20
  9
$PEXTMAX
 10
-1.000000000000000E+20
 20
-1.000000000000000E+20
 30
-1.000000000000000E+20
  9
$PLIMMIN
 10
0.0
 20
0.0
  9
$PLIMMAX
 10
420.0
 20
297.0
  9
$UNITMODE
 70
     0
  9
$VISRETAIN
 70
     1
  9
$PLINEGEN
 70
     0
  9
$PSLTSCALE
 70
     1
  9
$TREEDEPTH
 70
  3020
  9
$CMLSTYLE
  2
Standard
  9
$CMLJUST
 70
     0
  9
$CMLSCALE
 40
20.0
  9
$PROXYGRAPHICS
 70
     1
  9
$MEASUREMENT
 70
     1
  9
$CELWEIGHT
370
    -1
  9
$ENDCAPS
280
     0
  9
$JOINSTYLE
280
     0
  9
$LWDISPLAY
290
     1
  9
$INSUNITS
 70
     4
  9
$HYPERLINKBASE
  1

  9
$STYLESHEET
  1

  9
$XEDIT
290
     1
  9
$CEPSNTYPE
380
     0
  9
$PSTYLEMODE
290
     1
  9
$FINGERPRINTGUID
  2
{A5C41003-1631-4BD9-9427-430997AC1809}
  9
$VERSIONGUID
  2
{E9667B59-D5AD-8341-B3CA-99A8998C338A}
  9
$EXTNAMES
290
     1
  9
$PSVPSCALE
 40
0.0
  9
$OLESTARTUP
290
     0
  9
$SORTENTS
280
   127
  9
$INDEXCTL
280
     0
  9
$HIDETEXT
280
     1
  9
$XCLIPFRAME
280
     0
  9
$HALOGAP
280
     0
  9
$OBSCOLOR
 70
   257
  9
$OBSLTYPE
280
     0
  9
$INTERSECTIONDISPLAY
280
     0
  9
$INTERSECTIONCOLOR
 70
   257
  9
$DIMASSOC
280
     2
  9
$PROJECTNAME
  1

  9
$CAMERADISPLAY
290
     0
  9
$LENSLENGTH
 40
50.0
  9
$CAMERAHEIGHT
 40
0.0
  9
$STEPSPERSEC
 40
2.0
  9
$STEPSIZE
 40
6.0
  9
$3DDWFPREC
 40
2.0
  9
$PSOLWIDTH
 40
0.25
  9
$PSOLHEIGHT
 40
4.0
  9
$LOFTANG1
 40
1.570796326794896
  9
$LOFTANG2
 40
1.570796326794896
  9
$LOFTMAG1
 40
0.0
  9
$LOFTMAG2
 40
0.0
  9
$LOFTPARAM
 70
     7
  9
$LOFTNORMALS
280
     1
  9
$LATITUDE
 40
37.795
  9
$LONGITUDE
 40
-122.394
  9
$NORTHDIRECTION
 40
0.0
  9
$TIMEZONE
 70
 -8000
  9
$LIGHTGLYPHDISPLAY
280
     1
  9
$TILEMODELIGHTSYNCH
280
     1
  9
$CMATERIAL
347
44
  9
$SOLIDHIST
280
     1
  9
$SHOWHIST
280
     1
  9
$DWFFRAME
280
     2
  9
$DGNFRAME
280
     2
  9
$REALWORLDSCALE
290
     1
  9
$INTERFERECOLOR
 62
   256
  9
$INTERFEREOBJVS
345
20E
  9
$INTERFEREVPVS
346
20B
  9
$CSHADOW
280
     0
  9
$SHADOWPLANELOCATION
 40
0.0
  0
ENDSEC
  0
SECTION
  2
CLASSES
  0
CLASS
  1
ACDBDICTIONARYWDFLT
  2
AcDbDictionaryWithDefault
  3
ObjectDBX Classes
 90
        0
 91
        1
280
     0
281
     0
  0
CLASS
  1
VISUALSTYLE
  2
AcDbVisualStyle
  3
ObjectDBX Classes
 90
     4095
 91
       24
280
     0
281
     0
  0
CLASS
  1
MATERIAL
  2
AcDbMaterial
  3
ObjectDBX Classes
 90
     1153
 91
        3
280
     0
281
     0
  0
CLASS
  1
SCALE
  2
AcDbScale
  3
ObjectDBX Classes
 90
     1153
 91
       33
280
     0
281
     0
  0
CLASS
  1
SUN
  2
AcDbSun
  3
SCENEOE
 90
     1153
 91
        1
280
     0
281
     0
  0
CLASS
  1
DICTIONARYVAR
  2
AcDbDictionaryVar
  3
ObjectDBX Classes
 90
        0
 91
        9
280
     0
281
     0
  0
CLASS
  1
TABLESTYLE
  2
AcDbTableStyle
  3
ObjectDBX Classes
 90
     4095
 91
        1
280
     0
281
     0
  0
CLASS
  1
RASTERVARIABLES
  2
AcDbRasterVariables
  3
ISM
 90
        0
 91
        1
280
     0
281
     0
  0
CLASS
  1
CELLSTYLEMAP
  2
AcDbCellStyleMap
  3
ObjectDBX Classes
 90
     1152
 91
        1
280
     0
281
     0
  0
CLASS
  1
MLEADERSTYLE
  2
AcDbMLeaderStyle
  3
ACDB_MLEADERSTYLE_CLASS
 90
     4095
 91
        1
280
     0
281
     0
  0
CLASS
  1
ACDBSECTIONVIEWSTYLE
  2
AcDbSectionViewStyle
  3
ObjectDBX Classes
 90
     1025
 91
        1
280
     0
281
     0
  0
CLASS
  1
ACDBDETAILVIEWSTYLE
  2
AcDbDetailViewStyle
  3
ObjectDBX Classes
 90
     1025
 91
        1
280
     0
281
     0
  0
CLASS
  1
SORTENTSTABLE
  2
AcDbSortentsTable
  3
ObjectDBX Classes
 90
        0
 91
        1
280
     0
281
     0
  0
ENDSEC
  0
SECTION
  2
TABLES
  0
TABLE
  2
VPORT
  5
8
330
0
100
AcDbSymbolTable
 70
     1
1001
ACAD
1000
DbSaveVer
1071
      123
  0
VPORT
  5
29
330
8
100
AcDbSymbolTableRecord
100
AcDbViewportTableRecord
  2
*Active
 70
     0
 10
0.0
 20
0.0
 11
1.0
 21
1.0
 12
3351.469786092174
 22
3657.148815322551
 13
0.0
 23
0.0
 14
10.0
 24
10.0
 15
10.0
 25
10.0
 16
0.0
 26
0.0
 36
1.0
 17
0.0
 27
0.0
 37
0.0
 40
2148.033223313971
 41
1.996282527881041
 42
50.0
 43
0.0
 44
0.0
 50
0.0
 51
0.0
 71
    16
 72
  2000
 73
     1
 74
     3
 75
     0
 76
     0
 77
     0
 78
     0
281
     0
 65
     1
110
0.0
120
0.0
130
0.0
111
1.0
121
0.0
131
0.0
112
0.0
122
1.0
132
0.0
 79
     0
146
0.0
348
20A
 60
     3
 61
     5
292
     1
282
     1
141
0.0
142
0.0
 63
   250
361
220
1001
ACAD_NAV_VCDISPLAY
1070
     3
  0
ENDTAB
  0
TABLE
  2
LTYPE
  5
5
330
0
100
AcDbSymbolTable
 70
     8
  0
LTYPE
  5
14
330
5
100
AcDbSymbolTableRecord
100
AcDbLinetypeTableRecord
  2
ByBlock
 70
     0
  3

 72
    65
 73
     0
 40
0.0
  0
LTYPE
  5
15
330
5
100
AcDbSymbolTableRecord
100
AcDbLinetypeTableRecord
  2
ByLayer
 70
     0
  3
Solid line
 72
    65
 73
     0
 40
0.0
  0
LTYPE
  5
16
330
5
100
AcDbSymbolTableRecord
100
AcDbLinetypeTableRecord
  2
Continuous
 70
     0
  3
Solid line
 72
    65
 73
     0
 40
0.0
  0
LTYPE
  5
6A
330
5
100
AcDbSymbolTableRecord
100
AcDbLinetypeTableRecord
  2
SLD-Solid
 70
     0
  3
SolidWorks Line Style
 72
    65
 73
     0
 40
0.0
  0
LTYPE
  5
6B
330
5
100
AcDbSymbolTableRecord
100
AcDbLinetypeTableRecord
  2
SLD-Dashed
 70
     0
  3
SolidWorks Line Style
 72
    65
 73
     2
 40
1.905
 49
1.27
 74
     0
 49
-0.635
 74
     0
  0
LTYPE
  5
6C
330
5
100
AcDbSymbolTableRecord
100
AcDbLinetypeTableRecord
  2
SLD-Phantom
 70
     0
  3
SolidWorks Line Style
 72
    65
 73
     6
 40
12.7
 49
6.349999999999999
 74
     0
 49
-1.27
 74
     0
 49
1.27
 74
     0
 49
-1.27
 74
     0
 49
1.27
 74
     0
 49
-1.27
 74
     0
  0
LTYPE
  5
6D
330
5
100
AcDbSymbolTableRecord
100
AcDbLinetypeTableRecord
  2
SLD-Chain
 70
     0
  3
SolidWorks Line Style
 72
    65
 73
     4
 40
10.16
 49
6.349999999999999
 74
     0
 49
-1.27
 74
     0
 49
1.27
 74
     0
 49
-1.27
 74
     0
  0
LTYPE
  5
6E
330
5
100
AcDbSymbolTableRecord
100
AcDbLinetypeTableRecord
  2
SLD-Center
 70
     0
  3
SolidWorks Line Style
 72
    65
 73
     4
 40
19.05
 49
15.24
 74
     0
 49
-1.27
 74
     0
 49
1.27
 74
     0
 49
-1.27
 74
     0
  0
LTYPE
  5
6F
330
5
100
AcDbSymbolTableRecord
100
AcDbLinetypeTableRecord
  2
SLD-Stitch
 70
     0
  3
SolidWorks Line Style
 72
    65
 73
     2
 40
0.635
 49
0.0
 74
     0
 49
-0.635
 74
     0
  0
LTYPE
  5
70
330
5
100
AcDbSymbolTableRecord
100
AcDbLinetypeTableRecord
  2
SLD-Thin-Thick-Chain
 70
     0
  3
SolidWorks Line Style
 72
    65
 73
     4
 40
10.16
 49
6.349999999999999
 74
     0
 49
-1.27
 74
     0
 49
1.27
 74
     0
 49
-1.27
 74
     0
  0
ENDTAB
  0
TABLE
  2
LAYER
  5
2
102
{ACAD_XDICTIONARY
360
222
102
}
330
0
100
AcDbSymbolTable
 70
     4
  0
LAYER
  5
10
102
{ACAD_XDICTIONARY
360
2B4
102
}
330
2
100
AcDbSymbolTableRecord
100
AcDbLayerTableRecord
  2
0
 70
     0
 62
     7
  6
Continuous
370
    -3
390
F
347
46
348
0
  0
LAYER
  5
225
102
{ACAD_XDICTIONARY
360
2B6
102
}
330
2
100
AcDbSymbolTableRecord
100
AcDbLayerTableRecord
  2
Warndon
 70
     0
 62
     6
  6
Continuous
370
    -3
390
F
347
46
348
0
1001
AcAecLayerStandard
1000

1000

  0
LAYER
  5
227
102
{ACAD_XDICTIONARY
360
2B8
102
}
330
2
100
AcDbSymbolTableRecord
100
AcDbLayerTableRecord
  2
Bounding Box
 70
     0
 62
     1
  6
Continuous
370
    -3
390
F
347
46
348
0
1001
AcAecLayerStandard
1000

1000

  0
LAYER
  5
229
330
2
100
AcDbSymbolTableRecord
100
AcDbLayerTableRecord
  2
Defpoints
 70
     0
 62
     7
  6
Continuous
290
     0
370
    -3
390
F
347
46
348
0
  0
ENDTAB
  0
TABLE
  2
STYLE
  5
3
330
0
100
AcDbSymbolTable
 70
     3
  0
STYLE
  5
11
330
3
100
AcDbSymbolTableRecord
100
AcDbTextStyleTableRecord
  2
Standard
 70
     0
 40
0.0
 41
1.0
 50
0.0
 71
     0
 42
63.5
  3
txt
  4

  0
STYLE
  5
9E
330
3
100
AcDbSymbolTableRecord
100
AcDbTextStyleTableRecord
  2
SLDTEXTSTYLE0
 70
     0
 40
0.0
 41
0.75
 50
0.0
 71
     0
 42
63.5
  3
TXT
  4

  0
STYLE
  5
B8
330
3
100
AcDbSymbolTableRecord
100
AcDbTextStyleTableRecord
  2
SLDTEXTSTYLE1
 70
     0
 40
0.0
 41
0.605
 50
0.0
 71
     0
 42
63.5
  3
TXT
  4

  0
ENDTAB
  0
TABLE
  2
VIEW
  5
6
330
0
100
AcDbSymbolTable
 70
     1
  0
ENDTAB
  0
TABLE
  2
UCS
  5
7
330
0
100
AcDbSymbolTable
 70
     0
  0
ENDTAB
  0
TABLE
  2
APPID
  5
9
330
0
100
AcDbSymbolTable
 70
     3
  0
APPID
  5
12
330
9
100
AcDbSymbolTableRecord
100
AcDbRegAppTableRecord
  2
ACAD
 70
     0
  0
APPID
  5
226
330
9
100
AcDbSymbolTableRecord
100
AcDbRegAppTableRecord
  2
AcAecLayerStandard
 70
     0
  0
APPID
  5
264
330
9
100
AcDbSymbolTableRecord
100
AcDbRegAppTableRecord
  2
ACAD_NAV_VCDISPLAY
 70
     0
  0
ENDTAB
  0
TABLE
  2
DIMSTYLE
  5
A
330
0
100
AcDbSymbolTable
 70
     2
100
AcDbDimStyleTable
 71
     0
  0
DIMSTYLE
105
27
330
A
100
AcDbSymbolTableRecord
100
AcDbDimStyleTableRecord
  2
ISO-25
 70
     0
 41
2.5
 42
0.625
 43
3.75
 44
1.25
 73
     0
 74
     0
 77
     1
 78
     8
140
2.5
141
2.5
143
0.03937007874016
147
0.625
171
     3
172
     1
271
     2
272
     2
274
     3
278
    44
283
     0
284
     8
340
11
  0
DIMSTYLE
105
144
330
A
100
AcDbSymbolTableRecord
100
AcDbDimStyleTableRecord
  2
SLDDIMSTYLE0
 70
     0
 41
50.0
 44
0.0
 45
0.000000001
 73
     0
 74
     0
 77
     1
 78
    12
 79
     3
140
41.09309895833333
147
10.27327473958333
173
     1
271
     2
272
     2
276
     2
284
    12
340
B8
  0
ENDTAB
  0
TABLE
  2
BLOCK_RECORD
  5
1
330
0
100
AcDbSymbolTable
 70
    10
  0
BLOCK_RECORD
  5
1F
102
{ACAD_XDICTIONARY
360
275
102
}
330
1
100
AcDbSymbolTableRecord
100
AcDbBlockTableRecord
  2
*Model_Space
340
22
 70
     0
280
     1
281
     0
  0
BLOCK_RECORD
  5
1B
330
1
100
AcDbSymbolTableRecord
100
AcDbBlockTableRecord
  2
*Paper_Space
340
1E
 70
     0
280
     1
281
     0
  0
BLOCK_RECORD
  5
23
330
1
100
AcDbSymbolTableRecord
100
AcDbBlockTableRecord
  2
*Paper_Space0
340
26
 70
     0
280
     1
281
     0
  0
BLOCK_RECORD
  5
B5
330
1
100
AcDbSymbolTableRecord
100
AcDbBlockTableRecord
  2
SW_NOTE_0
340
0
 70
     0
280
     1
281
     0
  0
BLOCK_RECORD
  5
CA
330
1
100
AcDbSymbolTableRecord
100
AcDbBlockTableRecord
  2
SW_NOTE_1
340
0
 70
     0
280
     1
281
     0
  0
BLOCK_RECORD
  5
D8
330
1
100
AcDbSymbolTableRecord
100
AcDbBlockTableRecord
  2
SW_NOTE_2
340
0
 70
     0
280
     1
281
     0
  0
BLOCK_RECORD
  5
145
330
1
100
AcDbSymbolTableRecord
100
AcDbBlockTableRecord
  2
_D
340
0
 70
     0
280
     1
281
     0
  0
BLOCK_RECORD
  5
14F
330
1
100
AcDbSymbolTableRecord
100
AcDbBlockTableRecord
  2
_D_1
340
0
 70
     0
280
     1
281
     0
  0
BLOCK_RECORD
  5
194
330
1
100
AcDbSymbolTableRecord
100
AcDbBlockTableRecord
  2
_D_2
340
0
 70
     0
280
     1
281
     0
  0
BLOCK_RECORD
  5
19E
330
1
100
AcDbSymbolTableRecord
100
AcDbBlockTableRecord
  2
_D_3
340
0
 70
     0
280
     1
281
     0
  0
BLOCK_RECORD
  5
1EC
330
1
100
AcDbSymbolTableRecord
100
AcDbBlockTableRecord
  2
_D_4
340
0
 70
     0
280
     1
281
     0
  0
BLOCK_RECORD
  5
1F6
330
1
100
AcDbSymbolTableRecord
100
AcDbBlockTableRecord
  2
_D_5
340
0
 70
     0
280
     1
281
     0
  0
ENDTAB
  0
ENDSEC
  0
SECTION
  2
BLOCKS
  0
BLOCK
  5
20
330
1F
100
AcDbEntity
  8
0
100
AcDbBlockBegin
  2
*Model_Space
 70
     0
 10
0.0
 20
0.0
 30
0.0
  3
*Model_Space
  1

  0
ENDBLK
  5
21
330
1F
100
AcDbEntity
  8
0
100
AcDbBlockEnd
  0
BLOCK
  5
1C
330
1B
100
AcDbEntity
 67
     1
  8
0
100
AcDbBlockBegin
  2
*Paper_Space
 70
     0
 10
0.0
 20
0.0
 30
0.0
  3
*Paper_Space
  1

  0
ENDBLK
  5
1D
330
1B
100
AcDbEntity
 67
     1
  8
0
100
AcDbBlockEnd
  0
BLOCK
  5
24
330
23
100
AcDbEntity
 67
     1
  8
0
100
AcDbBlockBegin
  2
*Paper_Space0
 70
     0
 10
0.0
 20
0.0
 30
0.0
  3
*Paper_Space0
  1

  0
ENDBLK
  5
25
330
23
100
AcDbEntity
 67
     1
  8
0
100
AcDbBlockEnd
  0
BLOCK
  5
B6
330
B5
100
AcDbEntity
  8
0
100
AcDbBlockBegin
  2
SW_NOTE_0
 70
     0
 10
0.0
 20
0.0
 30
0.0
  3
SW_NOTE_0
  1

  0
MTEXT
  5
B9
330
B5
100
AcDbEntity
  8
0
  6
Continuous
 62
     0
370
     0
100
AcDbMText
 10
0.0
 20
75.03448468589316
 30
0.0
 40
58.20833333333332
 41
0.0
 46
0.0
 71
     1
 72
     1
  1
Quigley Design
  7
SLDTEXTSTYLE1
 73
     1
 44
1.0
  0
MTEXT
  5
BA
330
B5
100
AcDbEntity
  8
0
  6
Continuous
 62
     0
370
     0
100
AcDbMText
 10
0.0
 20
-2.576625487272638
 30
0.0
 40
58.20833333333332
 41
0.0
 46
0.0
 71
     1
 72
     1
  1
Product Design & Development
  7
SLDTEXTSTYLE1
 73
     1
 44
1.0
  0
MTEXT
  5
BB
330
B5
100
AcDbEntity
  8
0
  6
Continuous
 62
     0
370
     0
100
AcDbMText
 10
0.0
 20
-80.18773566043844
 30
0.0
 40
58.20833333333332
 41
0.0
 46
0.0
 71
     1
 72
     1
  1
Suite 3 Sabrina House
  7
SLDTEXTSTYLE1
 73
     1
 44
1.0
  0
MTEXT
  5
BC
330
B5
100
AcDbEntity
  8
0
  6
Continuous
 62
     0
370
     0
100
AcDbMText
 10
0.0
 20
-157.7988458336042
 30
0.0
 40
58.20833333333332
 41
0.0
 46
0.0
 71
     1
 72
     1
  1
Sabrina Court, Longden Coleham
  7
SLDTEXTSTYLE1
 73
     1
 44
1.0
  0
MTEXT
  5
BD
330
B5
100
AcDbEntity
  8
0
  6
Continuous
 62
     0
370
     0
100
AcDbMText
 10
0.0
 20
-235.40995600677
 30
0.0
 40
58.20833333333332
 41
0.0
 46
0.0
 71
     1
 72
     1
  1
Shrewsbury
  7
SLDTEXTSTYLE1
 73
     1
 44
1.0
  0
MTEXT
  5
BE
330
B5
100
AcDbEntity
  8
0
  6
Continuous
 62
     0
370
     0
100
AcDbMText
 10
0.0
 20
-313.0210661799358
 30
0.0
 40
58.20833333333332
 41
0.0
 46
0.0
 71
     1
 72
     1
  1
SY3 7BF
  7
SLDTEXTSTYLE1
 73
     1
 44
1.0
  0
MTEXT
  5
BF
330
B5
100
AcDbEntity
  8
0
  6
Continuous
 62
     0
370
     0
100
AcDbMText
 10
0.0
 20
-390.6321763531016
 30
0.0
 40
58.20833333333332
 41
0.0
 46
0.0
 71
     1
 72
     1
  1
United Kingdom
  7
SLDTEXTSTYLE1
 73
     1
 44
1.0
  0
MTEXT
  5
C0
330
B5
100
AcDbEntity
  8
0
  6
Continuous
 62
     0
370
     0
100
AcDbMText
 10
0.0
 20
-545.8543966994332
 30
0.0
 40
58.20833333333332
 41
0.0
 46
0.0
 71
     1
 72
     1
  1
Tel:  +44 (0) 1743 231661
  7
SLDTEXTSTYLE1
 73
     1
 44
1.0
  0
MTEXT
  5
C1
330
B5
100
AcDbEntity
  8
0
  6
Continuous
 62
     0
370
     0
100
AcDbMText
 10
0.0
 20
-623.465506872599
 30
0.0
 40
58.20833333333332
 41
0.0
 46
0.0
 71
     1
 72
     1
  1
Fax: +44 (0) 1743 231898
  7
SLDTEXTSTYLE1
 73
     1
 44
1.0
  0
MTEXT
  5
C2
330
B5
100
AcDbEntity
  8
0
  6
Continuous
 62
     0
370
     0
100
AcDbMText
 10
0.0
 20
-701.0766170457648
 30
0.0
 40
58.20833333333332
 41
0.0
 46
0.0
 71
     1
 72
     1
  1
Email: design@kqd.co.uk
  7
SLDTEXTSTYLE1
 73
     1
 44
1.0
  0
MTEXT
  5
C3
330
B5
100
AcDbEntity
  8
0
  6
Continuous
 62
     0
370
     0
100
AcDbMText
 10
0.0
 20
-778.6877272189306
 30
0.0
 40
58.20833333333332
 41
0.0
 46
0.0
 71
     1
 72
     1
  1
Web: www.kqd.co.uk
  7
SLDTEXTSTYLE1
 73
     1
 44
1.0
  0
ENDBLK
  5
B7
330
B5
100
AcDbEntity
  8
0
100
AcDbBlockEnd
  0
BLOCK
  5
CB
330
CA
100
AcDbEntity
  8
0
100
AcDbBlockBegin
  2
SW_NOTE_1
 70
     0
 10
0.0
 20
0.0
 30
0.0
  3
SW_NOTE_1
  1

  0
MTEXT
  5
CD
330
CA
100
AcDbEntity
  8
0
  6
Continuous
 62
     0
370
     0
100
AcDbMText
 10
0.0
 20
68.21316789626649
 30
0.0
 40
52.91666666666666
 41
0.0
 46
0.0
 71
     1
 72
     1
  1
xxx
  7
SLDTEXTSTYLE1
 73
     1
 44
1.0
  0
MTEXT
  5
CE
330
CA
100
AcDbEntity
  8
0
  6
Continuous
 62
     0
370
     0
100
AcDbMText
 10
0.0
 20
-2.342386806611501
 30
0.0
 40
52.91666666666666
 41
0.0
 46
0.0
 71
     1
 72
     1
  1
xxx
  7
SLDTEXTSTYLE1
 73
     1
 44
1.0
  0
ENDBLK
  5
CC
330
CA
100
AcDbEntity
  8
0
100
AcDbBlockEnd
  0
BLOCK
  5
D9
330
D8
100
AcDbEntity
  8
0
100
AcDbBlockBegin
  2
SW_NOTE_2
 70
     0
 10
0.0
 20
0.0
 30
0.0
  3
SW_NOTE_2
  1

  0
MTEXT
  5
DB
330
D8
100
AcDbEntity
  8
0
  6
Continuous
 62
     0
370
     0
100
AcDbMText
 10
0.0
 20
49.11348088531185
 30
0.0
 40
38.1
 41
0.0
 46
0.0
 71
     1
 72
     1
  1
All Dimensions in mm
  7
SLDTEXTSTYLE1
 73
     1
 44
1.0
  0
MTEXT
  5
DC
330
D8
100
AcDbEntity
  8
0
  6
Continuous
 62
     0
370
     0
100
AcDbMText
 10
0.0
 20
-8.986519138530004
 30
0.0
 40
38.1
 41
0.0
 46
0.0
 71
     1
 72
     1
  1
Do not scale from drawing
  7
SLDTEXTSTYLE1
 73
     1
 44
1.0
  0
MTEXT
  5
DD
330
D8
100
AcDbEntity
  8
0
  6
Continuous
 62
     0
370
     0
100
AcDbMText
 10
0.0
 20
-67.08651916237186
 30
0.0
 40
38.1
 41
0.0
 46
0.0
 71
     1
 72
     1
  1
If in doubt ASK!
  7
SLDTEXTSTYLE1
 73
     1
 44
1.0
  0
ENDBLK
  5
DA
330
D8
100
AcDbEntity
  8
0
100
AcDbBlockEnd
  0
BLOCK
  5
146
330
145
100
AcDbEntity
  8
0
100
AcDbBlockBegin
  2
_D
 70
     0
 10
0.0
 20
0.0
 30
0.0
  3
_D
  1

  0
LINE
  5
148
330
145
100
AcDbEntity
  8
Warndon
 62
     0
370
    -2
100
AcDbLine
 10
1683.565680664167
 20
4717.765653272099
 30
0.0
 11
1523.308071579876
 21
4717.765653272098
 31
0.0
  0
LINE
  5
149
330
145
100
AcDbEntity
  8
Warndon
 62
     0
370
    -2
100
AcDbLine
 10
1683.565680664167
 20
3916.765653272099
 30
0.0
 11
1523.308071579879
 21
3916.765653272097
 31
0.0
  0
LINE
  5
14A
330
145
100
AcDbEntity
  8
Warndon
 62
     0
370
    -2
100
AcDbLine
 10
1523.308071579877
 20
4667.765653272098
 30
0.0
 11
1523.308071579879
 21
3966.765653272098
 31
0.0
  0
SOLID
  5
14B
330
145
100
AcDbEntity
  8
Warndon
 62
     0
100
AcDbTrace
 10
1531.64140491321
 20
4667.765653272098
 30
0.0
 11
1514.974738246543
 21
4667.765653272098
 31
0.0
 12
1523.308071579876
 22
4717.765653272098
 32
0.0
 13
1523.308071579876
 23
4717.765653272098
 33
0.0
  0
SOLID
  5
14C
330
145
100
AcDbEntity
  8
Warndon
 62
     0
100
AcDbTrace
 10
1514.974738246546
 20
3966.765653272098
 30
0.0
 11
1531.641404913212
 21
3966.765653272098
 31
0.0
 12
1523.308071579879
 22
3916.765653272097
 32
0.0
 13
1523.308071579879
 23
3916.765653272097
 33
0.0
  0
MTEXT
  5
14D
330
145
100
AcDbEntity
  8
Warndon
 62
     0
100
AcDbMText
 10
1471.941697881961
 20
4268.249744456606
 30
0.0
 40
41.09309895833333
 41
0.0
 46
0.0
 71
     2
 72
     1
  1
\A1;801
  7
SLDTEXTSTYLE1
 11
-0.0000000000000034
 21
1.0
 31
0.0
 73
     1
 44
1.0
  0
POINT
  5
22A
330
145
100
AcDbEntity
  8
Defpoints
 62
     0
100
AcDbPoint
 10
1683.628180664167
 20
4717.765653272099
 30
0.0
  0
POINT
  5
22B
330
145
100
AcDbEntity
  8
Defpoints
 62
     0
100
AcDbPoint
 10
1683.628180664167
 20
3916.765653272099
 30
0.0
  0
POINT
  5
22C
330
145
100
AcDbEntity
  8
Defpoints
 62
     0
100
AcDbPoint
 10
1523.308071579879
 20
3916.765653272099
 30
0.0
  0
ENDBLK
  5
147
330
145
100
AcDbEntity
  8
0
100
AcDbBlockEnd
  0
BLOCK
  5
150
330
14F
100
AcDbEntity
  8
0
100
AcDbBlockBegin
  2
_D_1
 70
     0
 10
0.0
 20
0.0
 30
0.0
  3
_D_1
  1

  0
LINE
  5
152
330
14F
100
AcDbEntity
  8
Warndon
 62
     0
370
    -2
100
AcDbLine
 10
1683.628180664167
 20
3916.703153272099
 30
0.0
 11
1683.628180664167
 21
3747.554734057502
 31
0.0
  0
LINE
  5
153
330
14F
100
AcDbEntity
  8
Warndon
 62
     0
370
    -2
100
AcDbLine
 10
3385.628180664169
 20
3916.703153272099
 30
0.0
 11
3385.628180664169
 21
3747.554734057502
 31
0.0
  0
LINE
  5
154
330
14F
100
AcDbEntity
  8
Warndon
 62
     0
370
    -2
100
AcDbLine
 10
1733.628180664167
 20
3747.554734057502
 30
0.0
 11
3335.628180664168
 21
3747.554734057502
 31
0.0
  0
SOLID
  5
155
330
14F
100
AcDbEntity
  8
Warndon
 62
     0
100
AcDbTrace
 10
1733.628180664167
 20
3755.888067390836
 30
0.0
 11
1733.628180664167
 21
3739.221400724169
 31
0.0
 12
1683.628180664167
 22
3747.554734057502
 32
0.0
 13
1683.628180664167
 23
3747.554734057502
 33
0.0
  0
SOLID
  5
156
330
14F
100
AcDbEntity
  8
Warndon
 62
     0
100
AcDbTrace
 10
3335.628180664168
 20
3739.221400724169
 30
0.0
 11
3335.628180664168
 21
3755.888067390836
 31
0.0
 12
3385.628180664169
 22
3747.554734057502
 32
0.0
 13
3385.628180664169
 23
3747.554734057502
 33
0.0
  0
MTEXT
  5
157
330
14F
100
AcDbEntity
  8
Warndon
 62
     0
100
AcDbMText
 10
2406.261136875787
 20
3798.921107755418
 30
0.0
 40
41.09309895833333
 41
0.0
 46
0.0
 71
     2
 72
     1
  1
\A1;1702
  7
SLDTEXTSTYLE1
 73
     1
 44
1.0
  0
POINT
  5
22D
330
14F
100
AcDbEntity
  8
Defpoints
 62
     0
100
AcDbPoint
 10
1683.628180664167
 20
3916.765653272099
 30
0.0
  0
POINT
  5
22E
330
14F
100
AcDbEntity
  8
Defpoints
 62
     0
100
AcDbPoint
 10
3385.628180664169
 20
3916.765653272099
 30
0.0
  0
POINT
  5
22F
330
14F
100
AcDbEntity
  8
Defpoints
 62
     0
100
AcDbPoint
 10
3385.628180664169
 20
3747.554734057502
 30
0.0
  0
ENDBLK
  5
151
330
14F
100
AcDbEntity
  8
0
100
AcDbBlockEnd
  0
BLOCK
  5
195
330
194
100
AcDbEntity
  8
0
100
AcDbBlockBegin
  2
_D_2
 70
     0
 10
0.0
 20
0.0
 30
0.0
  3
_D_2
  1

  0
LINE
  5
197
330
194
100
AcDbEntity
  8
Warndon
 62
     0
370
    -2
100
AcDbLine
 10
1683.565680664167
 20
3220.74913983693
 30
0.0
 11
1562.741304699792
 21
3220.74913983693
 31
0.0
  0
LINE
  5
198
330
194
100
AcDbEntity
  8
Warndon
 62
     0
370
    -2
100
AcDbLine
 10
1683.565680664167
 20
2622.74913983693
 30
0.0
 11
1562.741304699795
 21
2622.74913983693
 31
0.0
  0
LINE
  5
199
330
194
100
AcDbEntity
  8
Warndon
 62
     0
370
    -2
100
AcDbLine
 10
1562.741304699793
 20
3170.74913983693
 30
0.0
 11
1562.741304699794
 21
2672.74913983693
 31
0.0
  0
SOLID
  5
19A
330
194
100
AcDbEntity
  8
Warndon
 62
     0
100
AcDbTrace
 10
1571.074638033126
 20
3170.74913983693
 30
0.0
 11
1554.407971366459
 21
3170.74913983693
 31
0.0
 12
1562.741304699792
 22
3220.74913983693
 32
0.0
 13
1562.741304699792
 23
3220.74913983693
 33
0.0
  0
SOLID
  5
19B
330
194
100
AcDbEntity
  8
Warndon
 62
     0
100
AcDbTrace
 10
1554.407971366461
 20
2672.74913983693
 30
0.0
 11
1571.074638033128
 21
2672.74913983693
 31
0.0
 12
1562.741304699795
 22
2622.74913983693
 32
0.0
 13
1562.741304699795
 23
2622.74913983693
 33
0.0
  0
MTEXT
  5
19C
330
194
100
AcDbEntity
  8
Warndon
 62
     0
100
AcDbMText
 10
1511.374931001877
 20
2954.71879596866
 30
0.0
 40
41.09309895833333
 41
0.0
 46
0.0
 71
     2
 72
     1
  1
\A1;598
  7
SLDTEXTSTYLE1
 11
-0.0000000000000034
 21
1.0
 31
0.0
 73
     1
 44
1.0
  0
POINT
  5
230
330
194
100
AcDbEntity
  8
Defpoints
 62
     0
100
AcDbPoint
 10
1683.628180664167
 20
3220.74913983693
 30
0.0
  0
POINT
  5
231
330
194
100
AcDbEntity
  8
Defpoints
 62
     0
100
AcDbPoint
 10
1683.628180664167
 20
2622.74913983693
 30
0.0
  0
POINT
  5
232
330
194
100
AcDbEntity
  8
Defpoints
 62
     0
100
AcDbPoint
 10
1562.741304699795
 20
2622.74913983693
 30
0.0
  0
ENDBLK
  5
196
330
194
100
AcDbEntity
  8
0
100
AcDbBlockEnd
  0
BLOCK
  5
19F
330
19E
100
AcDbEntity
  8
0
100
AcDbBlockBegin
  2
_D_3
 70
     0
 10
0.0
 20
0.0
 30
0.0
  3
_D_3
  1

  0
LINE
  5
1A1
330
19E
100
AcDbEntity
  8
Warndon
 62
     0
370
    -2
100
AcDbLine
 10
1683.628180664167
 20
2622.68663983693
 30
0.0
 11
1683.628180664167
 21
2457.219979132625
 31
0.0
  0
LINE
  5
1A2
330
19E
100
AcDbEntity
  8
Warndon
 62
     0
370
    -2
100
AcDbLine
 10
3385.628180664169
 20
2622.68663983693
 30
0.0
 11
3385.628180664169
 21
2457.219979132625
 31
0.0
  0
LINE
  5
1A3
330
19E
100
AcDbEntity
  8
Warndon
 62
     0
370
    -2
100
AcDbLine
 10
1733.628180664167
 20
2457.219979132625
 30
0.0
 11
3335.628180664168
 21
2457.219979132625
 31
0.0
  0
SOLID
  5
1A4
330
19E
100
AcDbEntity
  8
Warndon
 62
     0
100
AcDbTrace
 10
1733.628180664167
 20
2465.553312465958
 30
0.0
 11
1733.628180664167
 21
2448.886645799291
 31
0.0
 12
1683.628180664167
 22
2457.219979132625
 32
0.0
 13
1683.628180664167
 23
2457.219979132625
 33
0.0
  0
SOLID
  5
1A5
330
19E
100
AcDbEntity
  8
Warndon
 62
     0
100
AcDbTrace
 10
3335.628180664168
 20
2448.886645799291
 30
0.0
 11
3335.628180664168
 21
2465.553312465958
 31
0.0
 12
3385.628180664169
 22
2457.219979132625
 32
0.0
 13
3385.628180664169
 23
2457.219979132625
 33
0.0
  0
MTEXT
  5
1A6
330
19E
100
AcDbEntity
  8
Warndon
 62
     0
100
AcDbMText
 10
2418.812348303485
 20
2508.586352830541
 30
0.0
 40
41.09309895833333
 41
0.0
 46
0.0
 71
     2
 72
     1
  1
\A1;1702
  7
SLDTEXTSTYLE1
 73
     1
 44
1.0
  0
POINT
  5
233
330
19E
100
AcDbEntity
  8
Defpoints
 62
     0
100
AcDbPoint
 10
1683.628180664167
 20
2622.74913983693
 30
0.0
  0
POINT
  5
234
330
19E
100
AcDbEntity
  8
Defpoints
 62
     0
100
AcDbPoint
 10
3385.628180664169
 20
2622.74913983693
 30
0.0
  0
POINT
  5
235
330
19E
100
AcDbEntity
  8
Defpoints
 62
     0
100
AcDbPoint
 10
3385.628180664169
 20
2457.219979132625
 30
0.0
  0
ENDBLK
  5
1A0
330
19E
100
AcDbEntity
  8
0
100
AcDbBlockEnd
  0
BLOCK
  5
1ED
330
1EC
100
AcDbEntity
  8
0
100
AcDbBlockBegin
  2
_D_4
 70
     0
 10
0.0
 20
0.0
 30
0.0
  3
_D_4
  1

  0
LINE
  5
1EF
330
1EC
100
AcDbEntity
  8
Warndon
 62
     0
370
    -2
100
AcDbLine
 10
4167.485216829494
 20
3220.749139836929
 30
0.0
 11
4023.890440972243
 21
3220.749139836929
 31
0.0
  0
LINE
  5
1F0
330
1EC
100
AcDbEntity
  8
Warndon
 62
     0
370
    -2
100
AcDbLine
 10
4167.485216829494
 20
2622.74913983693
 30
0.0
 11
4023.890440972246
 21
2622.74913983693
 31
0.0
  0
LINE
  5
1F1
330
1EC
100
AcDbEntity
  8
Warndon
 62
     0
370
    -2
100
AcDbLine
 10
4023.890440972243
 20
3170.749139836929
 30
0.0
 11
4023.890440972246
 21
2672.74913983693
 31
0.0
  0
SOLID
  5
1F2
330
1EC
100
AcDbEntity
  8
Warndon
 62
     0
100
AcDbTrace
 10
4032.223774305577
 20
3170.749139836929
 30
0.0
 11
4015.557107638909
 21
3170.749139836929
 31
0.0
 12
4023.890440972243
 22
3220.749139836929
 32
0.0
 13
4023.890440972243
 23
3220.749139836929
 33
0.0
  0
SOLID
  5
1F3
330
1EC
100
AcDbEntity
  8
Warndon
 62
     0
100
AcDbTrace
 10
4015.557107638912
 20
2672.74913983693
 30
0.0
 11
4032.223774305578
 21
2672.74913983693
 31
0.0
 12
4023.890440972246
 22
2622.74913983693
 32
0.0
 13
4023.890440972246
 23
2622.74913983693
 33
0.0
  0
MTEXT
  5
1F4
330
1EC
100
AcDbEntity
  8
Warndon
 62
     0
100
AcDbMText
 10
3972.524067274328
 20
2935.238415326122
 30
0.0
 40
41.09309895833333
 41
0.0
 46
0.0
 71
     2
 72
     1
  1
\A1;598
  7
SLDTEXTSTYLE1
 11
-0.0000000000000038
 21
1.0
 31
0.0
 73
     1
 44
1.0
  0
POINT
  5
236
330
1EC
100
AcDbEntity
  8
Defpoints
 62
     0
100
AcDbPoint
 10
4167.547716829494
 20
3220.749139836929
 30
0.0
  0
POINT
  5
237
330
1EC
100
AcDbEntity
  8
Defpoints
 62
     0
100
AcDbPoint
 10
4167.547716829495
 20
2622.74913983693
 30
0.0
  0
POINT
  5
238
330
1EC
100
AcDbEntity
  8
Defpoints
 62
     0
100
AcDbPoint
 10
4023.890440972246
 20
2622.74913983693
 30
0.0
  0
ENDBLK
  5
1EE
330
1EC
100
AcDbEntity
  8
0
100
AcDbBlockEnd
  0
BLOCK
  5
1F7
330
1F6
100
AcDbEntity
  8
0
100
AcDbBlockBegin
  2
_D_5
 70
     0
 10
0.0
 20
0.0
 30
0.0
  3
_D_5
  1

  0
LINE
  5
1F9
330
1F6
100
AcDbEntity
  8
Warndon
 62
     0
370
    -2
100
AcDbLine
 10
4167.547716829495
 20
2622.68663983693
 30
0.0
 11
4167.547716829495
 21
2422.748989836949
 31
0.0
  0
LINE
  5
1FA
330
1F6
100
AcDbEntity
  8
Warndon
 62
     0
370
    -2
100
AcDbLine
 10
4968.547716829494
 20
2622.68663983693
 30
0.0
 11
4968.547716829494
 21
2422.748989836949
 31
0.0
  0
LINE
  5
1FB
330
1F6
100
AcDbEntity
  8
Warndon
 62
     0
370
    -2
100
AcDbLine
 10
4217.547716829495
 20
2422.748989836949
 30
0.0
 11
4918.547716829493
 21
2422.748989836949
 31
0.0
  0
SOLID
  5
1FC
330
1F6
100
AcDbEntity
  8
Warndon
 62
     0
100
AcDbTrace
 10
4217.547716829495
 20
2431.082323170282
 30
0.0
 11
4217.547716829495
 21
2414.415656503615
 31
0.0
 12
4167.547716829495
 22
2422.748989836949
 32
0.0
 13
4167.547716829495
 23
2422.748989836949
 33
0.0
  0
SOLID
  5
1FD
330
1F6
100
AcDbEntity
  8
Warndon
 62
     0
100
AcDbTrace
 10
4918.547716829493
 20
2414.415656503615
 30
0.0
 11
4918.547716829493
 21
2431.082323170282
 31
0.0
 12
4968.547716829494
 22
2422.748989836949
 32
0.0
 13
4968.547716829494
 23
2422.748989836949
 33
0.0
  0
MTEXT
  5
1FE
330
1F6
100
AcDbEntity
  8
Warndon
 62
     0
100
AcDbMText
 10
4442.049901208659
 20
2474.115363534866
 30
0.0
 40
41.09309895833333
 41
0.0
 46
0.0
 71
     2
 72
     1
  1
\A1;801
  7
SLDTEXTSTYLE1
 73
     1
 44
1.0
  0
POINT
  5
239
330
1F6
100
AcDbEntity
  8
Defpoints
 62
     0
100
AcDbPoint
 10
4167.547716829495
 20
2622.74913983693
 30
0.0
  0
POINT
  5
23A
330
1F6
100
AcDbEntity
  8
Defpoints
 62
     0
100
AcDbPoint
 10
4968.547716829494
 20
2622.74913983693
 30
0.0
  0
POINT
  5
23B
330
1F6
100
AcDbEntity
  8
Defpoints
 62
     0
100
AcDbPoint
 10
4968.547716829494
 20
2422.748989836949
 30
0.0
  0
ENDBLK
  5
1F8
330
1F6
100
AcDbEntity
  8
0
100
AcDbBlockEnd
  0
ENDSEC
  0
SECTION
  2
ENTITIES
  0
SPLINE
  5
F3
330
1F
100
AcDbEntity
  8
Warndon
  6
SLD-Solid
370
    15
100
AcDbSpline
210
0.0
220
0.0
230
1.0
 70
     8
 71
     3
 72
    47
 73
    43
 74
     0
 42
0.000000001
 43
0.0000000001
 40
0.0
 40
0.0
 40
0.0
 40
0.0
 40
0.0064868413498291
 40
0.0129644606133059
 40
0.0194355299352664
 40
0.0259027295795493
 40
0.0323687446221201
 40
0.0388362616143536
 40
0.0453079652371447
 40
0.051786534966646
 40
0.0582746417722645
 40
0.0891477760553352
 40
0.1200272112048668
 40
0.1521869617367597
 40
0.1843529621182914
 40
0.2171965963742636
 40
0.2500465695315924
 40
0.2828897205059579
 40
0.3157392102799125
 40
0.3478976284596935
 40
0.3800622962090893
 40
0.4109335497604076
 40
0.4418111038735722
 40
0.5000011064625701
 40
0.5581911090515684
 40
0.5890622480469259
 40
0.6199399174441462
 40
0.6520981432211529
 40
0.6842630023362528
 40
0.7171059133105206
 40
0.7499556427084715
 40
0.782799037343882
 40
0.8156492504981143
 40
0.8478088096726137
 40
0.8799750024486703
 40
0.9108480213574917
 40
0.9417275711534285
 40
0.9533966614627548
 40
0.9650427992232366
 40
0.9766816262998638
 40
0.988328814011829
 40
1.0
 40
1.0
 40
1.0
 40
1.0
 10
2508.597592428873
 20
4317.265653274769
 30
0.0
 10
2508.598623215872
 20
4317.088903534055
 30
0.0
 10
2508.60068332444
 20
4316.735655330756
 30
0.0
 10
2508.617380803808
 20
4316.206304342665
 30
0.0
 10
2508.644045416651
 20
4315.677924494369
 30
0.0
 10
2508.681650016777
 20
4315.150515970334
 30
0.0
 10
2508.729934180953
 20
4314.624079257383
 30
0.0
 10
2508.788967956006
 20
4314.098613862255
 30
0.0
 10
2508.85873124184
 20
4313.574122905946
 30
0.0
 10
2508.939234118769
 20
4313.050595996569
 30
0.0
 10
2509.144666426116
 20
4311.873870106166
 30
0.0
 10
2509.57132379261
 20
4310.060677165655
 30
0.0
 10
2510.398801323587
 20
4307.635304360005
 30
0.0
 10
2511.475108576321
 20
4305.270133187961
 30
0.0
 10
2512.813195579273
 20
4302.980410058743
 30
0.0
 10
2514.38725242499
 20
4300.822328671747
 30
0.0
 10
2516.189208482606
 20
4298.825617065314
 30
0.0
 10
2518.185888763568
 20
4297.023389342228
 30
0.0
 10
2520.343652330627
 20
4295.449296227898
 30
0.0
 10
2522.633374432747
 20
4294.110998261586
 30
0.0
 10
2524.998117908444
 20
4293.034651049638
 30
0.0
 10
2527.423804376511
 20
4292.207062500537
 30
0.0
 10
2530.609035401557
 20
4291.45689240305
 30
0.0
 10
2534.62818054617
 20
4291.08703112552
 30
0.0
 10
2538.647151198221
 20
4291.456876932215
 30
0.0
 10
2541.832387599555
 20
4292.207012822902
 30
0.0
 10
2544.257918110039
 20
4293.034521832023
 30
0.0
 10
2546.622828735977
 20
4294.11091789756
 30
0.0
 10
2548.912412586625
 20
4295.449101835742
 30
0.0
 10
2551.07033155452
 20
4297.023275529674
 30
0.0
 10
2553.066899547825
 20
4298.825363725637
 30
0.0
 10
2554.868995137152
 20
4300.822187783442
 30
0.0
 10
2556.442971198003
 20
4302.980113126671
 30
0.0
 10
2557.781173032705
 20
4305.2699768473
 30
0.0
 10
2558.857428448068
 20
4307.634972326247
 30
0.0
 10
2559.684996229758
 20
4310.06053177036
 30
0.0
 10
2560.144035853131
 20
4312.011293324855
 30
0.0
 10
2560.386273060861
 20
4313.468148198413
 30
0.0
 10
2560.508201598752
 20
4314.412954469788
 30
0.0
 10
2560.594648459816
 20
4315.360977431922
 30
0.0
 10
2560.648766503101
 20
4316.312240830002
 30
0.0
 10
2560.655432480562
 20
4316.947631154302
 30
0.0
 10
2560.658768899461
 20
4317.265653274769
 30
0.0
  0
SPLINE
  5
F4
330
1F
100
AcDbEntity
  8
Warndon
  6
SLD-Solid
370
    15
100
AcDbSpline
210
0.0
220
0.0
230
1.0
 70
     8
 71
     3
 72
    47
 73
    43
 74
     0
 42
0.000000001
 43
0.0000000001
 40
0.0
 40
0.0
 40
0.0
 40
0.0
 40
0.0064868413497269
 40
0.0129644606131269
 40
0.0194355299350363
 40
0.0259027295792938
 40
0.0323687446218645
 40
0.0388362616141235
 40
0.0453079652369653
 40
0.0517865349665423
 40
0.0582746417722616
 40
0.0891477760549242
 40
0.1200272112048649
 40
0.1521869617368268
 40
0.1843529621182934
 40
0.217196596374299
 40
0.2500465695315903
 40
0.2828897205052689
 40
0.3157392102799071
 40
0.3478976284588377
 40
0.3800622962090856
 40
0.4109335497600571
 40
0.4418111038735718
 40
0.50000110646257
 40
0.5581911090515681
 40
0.5890622480463765
 40
0.6199399174441415
 40
0.6520981432201461
 40
0.684263002336248
 40
0.7171059133101984
 40
0.7499556427084739
 40
0.782799037344284
 40
0.8156492504981168
 40
0.8478088096724826
 40
0.8799750024486671
 40
0.9108480213571414
 40
0.9417275711534283
 40
0.9533966614627546
 40
0.9650427992232366
 40
0.9766816262998638
 40
0.9883288140118292
 40
1.0
 40
1.0
 40
1.0
 40
1.0
 10
2560.658768899461
 20
4317.265653274769
 30
0.0
 10
2560.657738112463
 20
4317.442403015482
 30
0.0
 10
2560.655678003895
 20
4317.795651218776
 30
0.0
 10
2560.638980524527
 20
4318.325002206861
 30
0.0
 10
2560.612315911685
 20
4318.853382055152
 30
0.0
 10
2560.574711311558
 20
4319.380790579185
 30
0.0
 10
2560.526427147381
 20
4319.907227292137
 30
0.0
 10
2560.467393372329
 20
4320.432692687267
 30
0.0
 10
2560.397630086496
 20
4320.957183643579
 30
0.0
 10
2560.317127209566
 20
4321.480710552963
 30
0.0
 10
2560.111694902224
 20
4322.65743644336
 30
0.0
 10
2559.68503753573
 20
4324.470629383875
 30
0.0
 10
2558.857560004751
 20
4326.896002189527
 30
0.0
 10
2557.781252752017
 20
4329.261173361584
 30
0.0
 10
2556.44316574906
 20
4331.550896490798
 30
0.0
 10
2554.869108903341
 20
4333.708977877789
 30
0.0
 10
2553.067152845743
 20
4335.705689484214
 30
0.0
 10
2551.070472564779
 20
4337.507917207296
 30
0.0
 10
2548.912708997742
 20
4339.08201032162
 30
0.0
 10
2546.62298689561
 20
4340.420308287945
 30
0.0
 10
2544.258243419922
 20
4341.496655499888
 30
0.0
 10
2541.832556951835
 20
4342.324244049005
 30
0.0
 10
2538.647325926786
 20
4343.074414146488
 30
0.0
 10
2534.628180782165
 20
4343.444275424021
 30
0.0
 10
2530.609210130128
 20
4343.074429617331
 30
0.0
 10
2527.423973728796
 20
4342.324293726638
 30
0.0
 10
2524.998443218334
 20
4341.496784717533
 30
0.0
 10
2522.633532592383
 20
4340.420388651993
 30
0.0
 10
2520.343948741742
 20
4339.082204713816
 30
0.0
 10
2518.186029773816
 20
4337.508031019878
 30
0.0
 10
2516.18946178051
 20
4335.705942823902
 30
0.0
 10
2514.387366191176
 20
4333.70911876609
 30
0.0
 10
2512.813390130328
 20
4331.551193422863
 30
0.0
 10
2511.475188295639
 20
4329.26132970224
 30
0.0
 10
2510.398932880272
 20
4326.896334223305
 30
0.0
 10
2509.571365098575
 20
4324.470774779189
 30
0.0
 10
2509.112325475206
 20
4322.520013224695
 30
0.0
 10
2508.870088267474
 20
4321.063158351128
 30
0.0
 10
2508.748159729583
 20
4320.118352079751
 30
0.0
 10
2508.66171286852
 20
4319.170329117618
 30
0.0
 10
2508.607594825234
 20
4318.219065719538
 30
0.0
 10
2508.600928847774
 20
4317.583675395238
 30
0.0
 10
2508.597592428873
 20
4317.265653274769
 30
0.0
  0
SPLINE
  5
F9
330
1F
100
AcDbEntity
  8
Warndon
  6
SLD-Solid
370
    15
100
AcDbSpline
210
0.0
220
0.0
230
1.0
 70
     8
 71
     3
 72
    38
 73
    34
 74
     0
 42
0.000000001
 43
0.0000000001
 40
0.0
 40
0.0
 40
0.0
 40
0.0
 40
0.0625
 40
0.0625
 40
0.125
 40
0.125
 40
0.1874999999999999
 40
0.1874999999999999
 40
0.2499999999999999
 40
0.2499999999999999
 40
0.3124999999999999
 40
0.3124999999999999
 40
0.3749999999999998
 40
0.3749999999999998
 40
0.4374999999999999
 40
0.4374999999999999
 40
0.4999999999999999
 40
0.4999999999999999
 40
0.5624999999999999
 40
0.5624999999999999
 40
0.6249999999999999
 40
0.6249999999999999
 40
0.6874999999999997
 40
0.6874999999999997
 40
0.7499999999999999
 40
0.7499999999999999
 40
0.8124999999999998
 40
0.8124999999999998
 40
0.8749999999999998
 40
0.8749999999999998
 40
0.9375
 40
0.9375
 40
1.0
 40
1.0
 40
1.0
 40
1.0
 10
2508.597592428873
 20
4317.265653274771
 30
0.0
 10
2508.597592428873
 20
4315.731675364571
 30
0.0
 10
2508.733949689706
 20
4314.140332104919
 30
0.0
 10
2509.330377329017
 20
4310.917079628199
 30
0.0
 10
2509.790970443979
 20
4309.285498121588
 30
0.0
 10
2511.059518062456
 20
4306.08098065307
 30
0.0
 10
2511.867771873723
 20
4304.508694227791
 30
0.0
 10
2513.813618439967
 20
4301.532171117513
 30
0.0
 10
2514.951078075409
 20
4300.128707261958
 30
0.0
 10
2517.492472334023
 20
4297.587129442819
 30
0.0
 10
2518.895834827126
 20
4296.449587650629
 30
0.0
 10
2521.872142963798
 20
4294.503600539241
 30
0.0
 10
2523.44431583374
 20
4293.695288349194
 30
0.0
 10
2526.648601862204
 20
4292.426649105712
 30
0.0
 10
2528.280065531007
 20
4291.966022722902
 30
0.0
 10
2531.503085214572
 20
4291.369552004652
 30
0.0
 10
2533.094313542547
 20
4291.233184894969
 30
0.0
 10
2536.162047785789
 20
4291.233184894969
 30
0.0
 10
2537.753276113762
 20
4291.369552004652
 30
0.0
 10
2540.976295797328
 20
4291.966022722902
 30
0.0
 10
2542.607759466131
 20
4292.426649105712
 30
0.0
 10
2545.812045494594
 20
4293.695288349194
 30
0.0
 10
2547.384218364536
 20
4294.503600539241
 30
0.0
 10
2550.36052650121
 20
4296.449587650628
 30
0.0
 10
2551.763888994311
 20
4297.587129442818
 30
0.0
 10
2554.305283252926
 20
4300.128707261958
 30
0.0
 10
2555.442742888367
 20
4301.532171117513
 30
0.0
 10
2557.388589454612
 20
4304.508694227791
 30
0.0
 10
2558.196843265879
 20
4306.080980653069
 30
0.0
 10
2559.465390884355
 20
4309.285498121587
 30
0.0
 10
2559.925983999318
 20
4310.917079628199
 30
0.0
 10
2560.522411638629
 20
4314.140332104918
 30
0.0
 10
2560.658768899461
 20
4315.73167536457
 30
0.0
 10
2560.658768899461
 20
4317.265653274769
 30
0.0
  0
SPLINE
  5
FE
330
1F
100
AcDbEntity
  8
Warndon
  6
SLD-Solid
370
    15
100
AcDbSpline
210
0.0
220
0.0
230
1.0
 70
     8
 71
     3
 72
    38
 73
    34
 74
     0
 42
0.000000001
 43
0.0000000001
 40
0.0
 40
0.0
 40
0.0
 40
0.0
 40
0.0625
 40
0.0625
 40
0.125
 40
0.125
 40
0.1875
 40
0.1875
 40
0.25
 40
0.25
 40
0.3125
 40
0.3125
 40
0.3750000000000001
 40
0.3750000000000001
 40
0.4375
 40
0.4375
 40
0.5
 40
0.5
 40
0.5625
 40
0.5625
 40
0.625
 40
0.625
 40
0.6875
 40
0.6875
 40
0.75
 40
0.75
 40
0.8125
 40
0.8125
 40
0.875
 40
0.875
 40
0.9375
 40
0.9375
 40
1.0
 40
1.0
 40
1.0
 40
1.0
 10
2560.658768899461
 20
4317.265653274769
 30
0.0
 10
2560.658768899461
 20
4318.799631184968
 30
0.0
 10
2560.522411638629
 20
4320.39097444462
 30
0.0
 10
2559.925983999319
 20
4323.614226921342
 30
0.0
 10
2559.465390884356
 20
4325.245808427952
 30
0.0
 10
2558.196843265879
 20
4328.45032589647
 30
0.0
 10
2557.388589454612
 20
4330.022612321748
 30
0.0
 10
2555.442742888367
 20
4332.999135432026
 30
0.0
 10
2554.305283252926
 20
4334.402599287581
 30
0.0
 10
2551.763888994312
 20
4336.944177106722
 30
0.0
 10
2550.36052650121
 20
4338.081718898911
 30
0.0
 10
2547.384218364537
 20
4340.027706010299
 30
0.0
 10
2545.812045494594
 20
4340.836018200344
 30
0.0
 10
2542.607759466131
 20
4342.104657443829
 30
0.0
 10
2540.976295797328
 20
4342.565283826638
 30
0.0
 10
2537.753276113763
 20
4343.161754544889
 30
0.0
 10
2536.162047785789
 20
4343.298121654571
 30
0.0
 10
2533.094313542547
 20
4343.298121654571
 30
0.0
 10
2531.503085214573
 20
4343.161754544889
 30
0.0
 10
2528.280065531007
 20
4342.565283826638
 30
0.0
 10
2526.648601862204
 20
4342.10465744383
 30
0.0
 10
2523.44431583374
 20
4340.836018200345
 30
0.0
 10
2521.872142963799
 20
4340.027706010299
 30
0.0
 10
2518.895834827126
 20
4338.081718898911
 30
0.0
 10
2517.492472334024
 20
4336.944177106722
 30
0.0
 10
2514.951078075409
 20
4334.402599287582
 30
0.0
 10
2513.813618439968
 20
4332.999135432027
 30
0.0
 10
2511.867771873723
 20
4330.022612321749
 30
0.0
 10
2511.059518062456
 20
4328.450325896471
 30
0.0
 10
2509.790970443979
 20
4325.245808427952
 30
0.0
 10
2509.330377329017
 20
4323.614226921342
 30
0.0
 10
2508.733949689707
 20
4320.390974444622
 30
0.0
 10
2508.597592428873
 20
4318.799631184968
 30
0.0
 10
2508.597592428873
 20
4317.265653274771
 30
0.0
  0
SPLINE
  5
110
330
1F
100
AcDbEntity
  8
Warndon
  6
SLD-Solid
370
    15
100
AcDbSpline
210
0.0
220
0.0
230
1.0
 70
     8
 71
     3
 72
    18
 73
    14
 74
     0
 42
0.000000001
 43
0.0000000001
 40
0.0
 40
0.0
 40
0.0
 40
0.0
 40
67.2778512085532
 40
134.555702417104
 40
201.833553625656
 40
269.111404834215
 40
358.81520644561
 40
448.519008057013
 40
538.222809668415
 40
672.7785120855189
 40
807.3342145026229
 40
941.889916919727
 40
1076.44561933683
 40
1076.44561933683
 40
1076.44561933683
 40
1076.44561933683
 10
1683.628180664167
 20
4317.265653274769
 30
0.0
 10
1683.636176829678
 20
4325.457227054953
 30
0.0
 10
1683.6521691607
 20
4341.840374615321
 30
0.0
 10
1687.014965481448
 20
4380.5805998544
 30
0.0
 10
1696.022165023686
 20
4424.021687424139
 30
0.0
 10
1714.037018967295
 20
4475.148772901554
 30
0.0
 10
1745.463735995217
 20
4530.51614290399
 30
0.0
 10
1794.99044970572
 20
4585.101314215434
 30
0.0
 10
1870.177395330189
 20
4638.489898713697
 30
0.0
 10
1979.022189729532
 20
4682.26589242591
 30
0.0
 10
2130.637257746105
 20
4708.702884676027
 30
0.0
 10
2306.674109824362
 20
4717.778592166292
 30
0.0
 10
2458.643490384233
 20
4717.769641928883
 30
0.0
 10
2534.628180664168
 20
4717.765166810178
 30
0.0
  0
SPLINE
  5
111
330
1F
100
AcDbEntity
  8
Warndon
  6
SLD-Solid
370
    15
100
AcDbSpline
210
0.0
220
0.0
230
1.0
 70
     8
 71
     3
 72
    18
 73
    14
 74
     0
 42
0.000000001
 43
0.0000000001
 40
0.0
 40
0.0
 40
0.0
 40
0.0
 40
67.2778512085532
 40
134.555702417104
 40
201.833553625656
 40
269.111404834215
 40
358.81520644561
 40
448.519008057013
 40
538.222809668415
 40
672.7785120855189
 40
807.3342145026229
 40
941.889916919727
 40
1076.44561933683
 40
1076.44561933683
 40
1076.44561933683
 40
1076.44561933683
 10
3385.628180664168
 20
4317.265653274769
 30
0.0
 10
3385.620184498657
 20
4309.074079494586
 30
0.0
 10
3385.604192167634
 20
4292.690931934219
 30
0.0
 10
3382.241395846886
 20
4253.95070669514
 30
0.0
 10
3373.234196304649
 20
4210.5096191254
 30
0.0
 10
3355.219342361039
 20
4159.382533647986
 30
0.0
 10
3323.792625333118
 20
4104.01516364555
 30
0.0
 10
3274.265911622614
 20
4049.429992334106
 30
0.0
 10
3199.078965998146
 20
3996.041407835844
 30
0.0
 10
3090.234171598802
 20
3952.26541412363
 30
0.0
 10
2938.619103582231
 20
3925.828421873513
 30
0.0
 10
2762.582251503973
 20
3916.752714383247
 30
0.0
 10
2610.612870944103
 20
3916.761664620657
 30
0.0
 10
2534.628180664168
 20
3916.766139739362
 30
0.0
  0
SPLINE
  5
112
330
1F
100
AcDbEntity
  8
Warndon
  6
SLD-Solid
370
    15
100
AcDbSpline
210
0.0
220
0.0
230
1.0
 70
     8
 71
     3
 72
    18
 73
    14
 74
     0
 42
0.000000001
 43
0.0000000001
 40
0.0
 40
0.0
 40
0.0
 40
0.0
 40
67.2778512085532
 40
134.555702417104
 40
201.833553625656
 40
269.111404834215
 40
358.81520644561
 40
448.519008057013
 40
538.222809668415
 40
672.7785120855189
 40
807.3342145026229
 40
941.889916919727
 40
1076.44561933683
 40
1076.44561933683
 40
1076.44561933683
 40
1076.44561933683
 10
1683.628180664167
 20
4317.265653274769
 30
0.0
 10
1683.636176829678
 20
4309.074079494586
 30
0.0
 10
1683.6521691607
 20
4292.690931934219
 30
0.0
 10
1687.014965481448
 20
4253.95070669514
 30
0.0
 10
1696.022165023686
 20
4210.5096191254
 30
0.0
 10
1714.037018967295
 20
4159.382533647986
 30
0.0
 10
1745.463735995217
 20
4104.01516364555
 30
0.0
 10
1794.99044970572
 20
4049.429992334106
 30
0.0
 10
1870.177395330189
 20
3996.041407835844
 30
0.0
 10
1979.022189729532
 20
3952.26541412363
 30
0.0
 10
2130.637257746105
 20
3925.828421873513
 30
0.0
 10
2306.674109824362
 20
3916.752714383247
 30
0.0
 10
2458.643490384233
 20
3916.761664620657
 30
0.0
 10
2534.628180664168
 20
3916.766139739362
 30
0.0
  0
SPLINE
  5
113
330
1F
100
AcDbEntity
  8
Warndon
  6
SLD-Solid
370
    15
100
AcDbSpline
210
0.0
220
0.0
230
1.0
 70
     8
 71
     3
 72
    18
 73
    14
 74
     0
 42
0.000000001
 43
0.0000000001
 40
0.0
 40
0.0
 40
0.0
 40
0.0
 40
67.2778512085532
 40
134.555702417104
 40
201.833553625656
 40
269.111404834215
 40
358.81520644561
 40
448.519008057013
 40
538.222809668415
 40
672.7785120855189
 40
807.3342145026229
 40
941.889916919727
 40
1076.44561933683
 40
1076.44561933683
 40
1076.44561933683
 40
1076.44561933683
 10
3385.628180664168
 20
4317.265653274769
 30
0.0
 10
3385.620184498657
 20
4325.457227054953
 30
0.0
 10
3385.604192167634
 20
4341.840374615321
 30
0.0
 10
3382.241395846886
 20
4380.5805998544
 30
0.0
 10
3373.234196304649
 20
4424.021687424139
 30
0.0
 10
3355.219342361039
 20
4475.148772901554
 30
0.0
 10
3323.792625333118
 20
4530.51614290399
 30
0.0
 10
3274.265911622614
 20
4585.101314215434
 30
0.0
 10
3199.078965998146
 20
4638.489898713697
 30
0.0
 10
3090.234171598802
 20
4682.26589242591
 30
0.0
 10
2938.619103582231
 20
4708.702884676027
 30
0.0
 10
2762.582251503973
 20
4717.778592166292
 30
0.0
 10
2610.612870944103
 20
4717.769641928883
 30
0.0
 10
2534.628180664168
 20
4717.765166810178
 30
0.0
  0
SPLINE
  5
132
330
1F
100
AcDbEntity
  8
Warndon
  6
SLD-Solid
370
    15
100
AcDbSpline
210
0.0
220
0.0
230
1.0
 70
     8
 71
     3
 72
    18
 73
    14
 74
     0
 42
0.000000001
 43
0.0000000001
 40
-0.0000000000000071
 40
-0.0000000000000071
 40
-0.0000000000000071
 40
-0.0000000000000071
 40
67.2778512085532
 40
134.555702417104
 40
201.833553625656
 40
269.111404834215
 40
358.81520644561
 40
448.519008057013
 40
538.222809668415
 40
672.7785120855189
 40
807.3342145026229
 40
941.889916919727
 40
1076.44561933683
 40
1076.44561933683
 40
1076.44561933683
 40
1076.44561933683
 10
1683.628180664167
 20
4317.265653274769
 30
0.0
 10
1683.636176829678
 20
4325.457227054953
 30
0.0
 10
1683.6521691607
 20
4341.840374615321
 30
0.0
 10
1687.014965481448
 20
4380.5805998544
 30
0.0
 10
1696.022165023686
 20
4424.021687424139
 30
0.0
 10
1714.037018967295
 20
4475.148772901554
 30
0.0
 10
1745.463735995217
 20
4530.51614290399
 30
0.0
 10
1794.99044970572
 20
4585.101314215434
 30
0.0
 10
1870.177395330189
 20
4638.489898713697
 30
0.0
 10
1979.022189729532
 20
4682.26589242591
 30
0.0
 10
2130.637257746105
 20
4708.702884676027
 30
0.0
 10
2306.674109824362
 20
4717.778592166292
 30
0.0
 10
2458.643490384233
 20
4717.769641928883
 30
0.0
 10
2534.628180664168
 20
4717.765166810178
 30
0.0
  0
SPLINE
  5
136
330
1F
100
AcDbEntity
  8
Warndon
  6
SLD-Solid
370
    15
100
AcDbSpline
210
0.0
220
0.0
230
1.0
 70
     8
 71
     3
 72
    18
 73
    14
 74
     0
 42
0.000000001
 43
0.0000000001
 40
-0.0000000000000071
 40
-0.0000000000000071
 40
-0.0000000000000071
 40
-0.0000000000000071
 40
67.2778512085532
 40
134.555702417104
 40
201.833553625656
 40
269.111404834215
 40
358.81520644561
 40
448.519008057013
 40
538.222809668415
 40
672.7785120855189
 40
807.3342145026229
 40
941.889916919727
 40
1076.44561933683
 40
1076.44561933683
 40
1076.44561933683
 40
1076.44561933683
 10
3385.628180664168
 20
4317.265653274769
 30
0.0
 10
3385.620184498657
 20
4309.074079494586
 30
0.0
 10
3385.604192167634
 20
4292.690931934219
 30
0.0
 10
3382.241395846886
 20
4253.95070669514
 30
0.0
 10
3373.234196304649
 20
4210.5096191254
 30
0.0
 10
3355.219342361039
 20
4159.382533647986
 30
0.0
 10
3323.792625333118
 20
4104.01516364555
 30
0.0
 10
3274.265911622614
 20
4049.429992334106
 30
0.0
 10
3199.078965998146
 20
3996.041407835844
 30
0.0
 10
3090.234171598802
 20
3952.26541412363
 30
0.0
 10
2938.619103582231
 20
3925.828421873513
 30
0.0
 10
2762.582251503973
 20
3916.752714383247
 30
0.0
 10
2610.612870944103
 20
3916.761664620657
 30
0.0
 10
2534.628180664168
 20
3916.766139739362
 30
0.0
  0
SPLINE
  5
137
330
1F
100
AcDbEntity
  8
Warndon
  6
SLD-Solid
370
    15
100
AcDbSpline
210
0.0
220
0.0
230
1.0
 70
     8
 71
     3
 72
    18
 73
    14
 74
     0
 42
0.000000001
 43
0.0000000001
 40
-0.0000000000000071
 40
-0.0000000000000071
 40
-0.0000000000000071
 40
-0.0000000000000071
 40
67.2778512085532
 40
134.555702417104
 40
201.833553625656
 40
269.111404834215
 40
358.81520644561
 40
448.519008057013
 40
538.222809668415
 40
672.7785120855189
 40
807.3342145026229
 40
941.889916919727
 40
1076.44561933683
 40
1076.44561933683
 40
1076.44561933683
 40
1076.44561933683
 10
1683.628180664167
 20
4317.265653274769
 30
0.0
 10
1683.636176829678
 20
4309.074079494586
 30
0.0
 10
1683.6521691607
 20
4292.690931934219
 30
0.0
 10
1687.014965481448
 20
4253.95070669514
 30
0.0
 10
1696.022165023686
 20
4210.5096191254
 30
0.0
 10
1714.037018967295
 20
4159.382533647986
 30
0.0
 10
1745.463735995217
 20
4104.01516364555
 30
0.0
 10
1794.99044970572
 20
4049.429992334106
 30
0.0
 10
1870.177395330189
 20
3996.041407835844
 30
0.0
 10
1979.022189729532
 20
3952.26541412363
 30
0.0
 10
2130.637257746105
 20
3925.828421873513
 30
0.0
 10
2306.674109824362
 20
3916.752714383247
 30
0.0
 10
2458.643490384233
 20
3916.761664620657
 30
0.0
 10
2534.628180664168
 20
3916.766139739362
 30
0.0
  0
SPLINE
  5
13D
330
1F
100
AcDbEntity
  8
Warndon
  6
SLD-Solid
370
    15
100
AcDbSpline
210
0.0
220
0.0
230
1.0
 70
     8
 71
     3
 72
    18
 73
    14
 74
     0
 42
0.000000001
 43
0.0000000001
 40
-0.0000000000000071
 40
-0.0000000000000071
 40
-0.0000000000000071
 40
-0.0000000000000071
 40
67.2778512085532
 40
134.555702417104
 40
201.833553625656
 40
269.111404834215
 40
358.81520644561
 40
448.519008057013
 40
538.222809668415
 40
672.7785120855189
 40
807.3342145026229
 40
941.889916919727
 40
1076.44561933683
 40
1076.44561933683
 40
1076.44561933683
 40
1076.44561933683
 10
3385.628180664168
 20
4317.265653274769
 30
0.0
 10
3385.620184498657
 20
4325.457227054953
 30
0.0
 10
3385.604192167634
 20
4341.840374615321
 30
0.0
 10
3382.241395846886
 20
4380.5805998544
 30
0.0
 10
3373.234196304649
 20
4424.021687424139
 30
0.0
 10
3355.219342361039
 20
4475.148772901554
 30
0.0
 10
3323.792625333118
 20
4530.51614290399
 30
0.0
 10
3274.265911622614
 20
4585.101314215434
 30
0.0
 10
3199.078965998146
 20
4638.489898713697
 30
0.0
 10
3090.234171598802
 20
4682.26589242591
 30
0.0
 10
2938.619103582231
 20
4708.702884676027
 30
0.0
 10
2762.582251503973
 20
4717.778592166292
 30
0.0
 10
2610.612870944103
 20
4717.769641928883
 30
0.0
 10
2534.628180664168
 20
4717.765166810178
 30
0.0
  0
LINE
  5
13F
330
1F
100
AcDbEntity
  8
Bounding Box
100
AcDbLine
 10
1683.628180664167
 20
4717.765653272097
 30
0.0
 11
3385.628180664168
 21
4717.765653272097
 31
0.0
  0
LINE
  5
140
330
1F
100
AcDbEntity
  8
Bounding Box
100
AcDbLine
 10
1683.628180664167
 20
4717.765653272097
 30
0.0
 11
1683.628180664167
 21
3916.765653272099
 31
0.0
  0
LINE
  5
141
330
1F
100
AcDbEntity
  8
Bounding Box
100
AcDbLine
 10
1683.628180664167
 20
3916.765653272099
 30
0.0
 11
3385.628180664168
 21
3916.765653272099
 31
0.0
  0
LINE
  5
142
330
1F
100
AcDbEntity
  8
Bounding Box
100
AcDbLine
 10
3385.628180664168
 20
4717.765653272097
 30
0.0
 11
3385.628180664168
 21
3916.765653272099
 31
0.0
  0
SPLINE
  5
158
330
1F
100
AcDbEntity
  8
Warndon
  6
SLD-Solid
370
    15
100
AcDbSpline
210
0.0
220
0.0
230
1.0
 70
     8
 71
     3
 72
    75
 73
    71
 74
     0
 42
0.000000001
 43
0.0000000001
 40
0.0
 40
0.0
 40
0.0
 40
0.0
 40
0.029968688087155
 40
0.0589201856116823
 40
0.0867532888061341
 40
0.1133872736233764
 40
0.1387602866684559
 40
0.162827778936873
 40
0.1842982042703328
 40
0.2045699314396979
 40
0.2236431643508637
 40
0.2415627063865285
 40
0.2584002537390099
 40
0.274221603367498
 40
0.2890861983679583
 40
0.3030475599765277
 40
0.3161537032975019
 40
0.3284475375027785
 40
0.3397681288678387
 40
0.350374103770948
 40
0.3602943502956435
 40
0.3699590825352279
 40
0.3966262298041875
 40
0.4240131873706753
 40
0.4520052533664582
 40
0.4804775481846833
 40
0.5093028714746733
 40
0.5382978800526722
 40
0.5580941701461456
 40
0.5778856536121521
 40
0.5976550616001375
 40
0.617389728773876
 40
0.63709170936788
 40
0.6536311237459699
 40
0.670334758903092
 40
0.6871910476002277
 40
0.704189014760698
 40
0.7213212879572257
 40
0.7385846257122038
 40
0.7501449682815255
 40
0.7609681960030978
 40
0.7709669768108122
 40
0.7801677549168108
 40
0.7885934983946637
 40
0.7924536699545531
 40
0.7961339090290323
 40
0.7996361893872882
 40
0.8029622736180304
 40
0.8061137854663805
 40
0.8090922608354123
 40
0.8119663823707526
 40
0.8155674436183735
 40
0.8202262828485068
 40
0.8258724550872065
 40
0.832488885395915
 40
0.840055228298495
 40
0.8485475449304688
 40
0.8577624399671867
 40
0.8678116716561897
 40
0.8786503656627751
 40
0.8902177383010704
 40
0.9058672701933769
 40
0.9223661937491145
 40
0.939482496643189
 40
0.9568869752590336
 40
0.9676273127794226
 40
0.9778319686971657
 40
0.9871873699770826
 40
0.9958615808952091
 40
1.0
 40
1.0
 40
1.0
 40
1.0
 10
2534.628180664168
 20
3220.74907015372
 30
0.0
 10
2524.345257016409
 20
3220.749069528919
 30
0.0
 10
2504.128430434121
 20
3220.749068300523
 30
0.0
 10
2474.361448235172
 20
3220.749066512232
 30
0.0
 10
2445.738721942498
 20
3220.749064805231
 30
0.0
 10
2418.344009673163
 20
3220.749063184737
 30
0.0
 10
2392.241712415575
 20
3220.74906165378
 30
0.0
 10
2367.911754669486
 20
3220.749060240826
 30
0.0
 10
2345.333077916869
 20
3220.74905894481
 30
0.0
 10
2324.469252488735
 20
3220.749057764144
 30
0.0
 10
2304.825504050056
 20
3220.749056671942
 30
0.0
 10
2286.362236758982
 20
3220.74905567074
 30
0.0
 10
2269.01731272937
 20
3220.749054763362
 30
0.0
 10
2252.723552530577
 20
3220.749053951319
 30
0.0
 10
2237.419963244402
 20
3220.749053236057
 30
0.0
 10
2223.051585599644
 20
3220.749052618749
 30
0.0
 10
2209.569048286417
 20
3220.749052100618
 30
0.0
 10
2196.996318887689
 20
3220.749051684201
 30
0.0
 10
2185.285050830584
 20
3220.74905137044
 30
0.0
 10
2174.39158455183
 20
3220.749051151222
 30
0.0
 10
2164.070114759061
 20
3220.749051045471
 30
0.0
 10
2148.267135794164
 20
3220.749050939752
 30
0.0
 10
2126.522502537144
 20
3220.749050723526
 30
0.0
 10
2098.593327063685
 20
3220.749050382887
 30
0.0
 10
2070.148740771962
 20
3220.749049955494
 30
0.0
 10
2041.3562241091
 20
3220.749049441855
 30
0.0
 10
2012.421605706625
 20
3220.749048854663
 30
0.0
 10
1986.639665712912
 20
3220.749048211381
 30
0.0
 10
1964.110116683925
 20
3220.749047541116
 30
0.0
 10
1944.821830399583
 20
3220.749046891174
 30
0.0
 10
1925.806109698368
 20
3220.749046170155
 30
0.0
 10
1907.119886434028
 20
3220.749045376541
 30
0.0
 10
1889.790745066346
 20
3220.749044557807
 30
0.0
 10
1873.748731268897
 20
3220.749043713172
 30
0.0
 10
1858.916368457357
 20
3220.749042872627
 30
0.0
 10
1844.348957858542
 20
3220.749041906763
 30
0.0
 10
1830.116858214938
 20
3220.74904110021
 30
0.0
 10
1816.294229784578
 20
3220.749039372872
 30
0.0
 10
1804.462770515091
 20
3220.749040637735
 30
0.0
 10
1794.676507063027
 20
3220.749033994967
 30
0.0
 10
1786.976857738977
 20
3220.749092668788
 30
0.0
 10
1780.106425011065
 20
3220.749157347288
 30
0.0
 10
1774.02533793206
 20
3220.74911403007
 30
0.0
 10
1769.476886363111
 20
3220.748841594563
 30
0.0
 10
1766.196568824947
 20
3220.74835071019
 30
0.0
 10
1763.971174260862
 20
3220.747834789776
 30
0.0
 10
1761.893988668187
 20
3220.747121883777
 30
0.0
 10
1759.958857229884
 20
3220.74617788232
 30
0.0
 10
1758.160478437737
 20
3220.744939611822
 30
0.0
 10
1756.479408104969
 20
3220.743418137463
 30
0.0
 10
1754.752663066378
 20
3220.741088599979
 30
0.0
 10
1752.726605106468
 20
3220.739125814788
 30
0.0
 10
1750.235013500313
 20
3220.73731379818
 30
0.0
 10
1747.273974639337
 20
3220.735724016199
 30
0.0
 10
1743.912890642903
 20
3220.734439812359
 30
0.0
 10
1740.220430827098
 20
3220.733522639635
 30
0.0
 10
1736.302227042759
 20
3220.733016729083
 30
0.0
 10
1732.244517095384
 20
3220.732934450897
 30
0.0
 10
1728.141168463711
 20
3220.733272385881
 30
0.0
 10
1724.064724375152
 20
3220.734017200223
 30
0.0
 10
1719.719687807295
 20
3220.73525082096
 30
0.0
 10
1715.334056038967
 20
3220.7370352711
 30
0.0
 10
1711.205471999299
 20
3220.739345245692
 30
0.0
 10
1707.801714494289
 20
3220.741879305883
 30
0.0
 10
1705.588758427055
 20
3220.744089299941
 30
0.0
 10
1704.222509540131
 20
3220.745847349533
 30
0.0
 10
1703.423220146214
 20
3220.747145815444
 30
0.0
 10
1702.932322157971
 20
3220.748196678992
 30
0.0
 10
1702.721046429829
 20
3220.748882921918
 30
0.0
 10
1702.66970856536
 20
3220.748979294864
 30
0.0
 10
1702.653126677119
 20
3220.749010422871
 30
0.0
  0
SPLINE
  5
159
330
1F
100
AcDbEntity
  8
Warndon
  6
SLD-Solid
370
    15
100
AcDbSpline
210
0.0
220
0.0
230
1.0
 70
     8
 71
     3
 72
    76
 73
    72
 74
     0
 42
0.000000001
 43
0.0000000001
 40
0.0
 40
0.0
 40
0.0
 40
0.0
 40
0.011425347806198
 40
0.0234170956394204
 40
0.036641617257746
 40
0.0505175934533552
 40
0.0642782716772321
 40
0.0774741677898548
 40
0.089903760436082
 40
0.1014176412010738
 40
0.1108558815694416
 40
0.1193855358835963
 40
0.1269475628644431
 40
0.1334967296185215
 40
0.1389986975859116
 40
0.1425700343865185
 40
0.1454694441532219
 40
0.1480052244016615
 40
0.1506571626803365
 40
0.1534313420533055
 40
0.161051135455467
 40
0.1694866001589363
 40
0.1787563881655452
 40
0.1888808416684314
 40
0.1998824089539871
 40
0.2114522735150506
 40
0.2230358995661917
 40
0.2344923929466536
 40
0.2458199275806497
 40
0.2627309567034064
 40
0.2793315440918478
 40
0.2956105369757316
 40
0.3115538110005299
 40
0.3272642223464706
 40
0.3429713740059517
 40
0.3618208487040716
 40
0.3806730624127725
 40
0.3995261291108441
 40
0.4183721808366319
 40
0.4371818457525456
 40
0.4578618861883934
 40
0.4779665832426771
 40
0.4974222250814056
 40
0.5161502013480427
 40
0.5340732567758148
 40
0.5437516647636384
 40
0.5531404919890618
 40
0.5625615169406601
 40
0.572825233699512
 40
0.5839914949386263
 40
0.59608677983328
 40
0.6091391314104803
 40
0.6231470672497098
 40
0.6381828262887252
 40
0.6543087796902735
 40
0.6715979975060148
 40
0.6901350174121804
 40
0.7056379790890562
 40
0.722023857250494
 40
0.7393511223000977
 40
0.7576841343058023
 40
0.7770935090159379
 40
0.7976550953263545
 40
0.8194073804462933
 40
0.842334949262946
 40
0.8664089444725961
 40
0.8915887520611288
 40
0.9173437947867927
 40
0.9440509203275274
 40
0.971633375211671
 40
1.0
 40
1.0
 40
1.0
 40
1.0
 10
3366.662519009322
 20
3220.749139836123
 30
0.0
 10
3366.656047345133
 20
3220.749139771014
 30
0.0
 10
3366.642783190568
 20
3220.749139637569
 30
0.0
 10
3366.249550481059
 20
3220.749138997077
 30
0.0
 10
3365.343414828561
 20
3220.749138398711
 30
0.0
 10
3363.891912005225
 20
3220.749137900781
 30
0.0
 10
3361.885033750438
 20
3220.749137623228
 30
0.0
 10
3359.3897321408
 20
3220.749137622944
 30
0.0
 10
3356.543003764332
 20
3220.74913790439
 30
0.0
 10
3353.566756427988
 20
3220.749138396954
 30
0.0
 10
3350.614827797306
 20
3220.749138975933
 30
0.0
 10
3347.819860920703
 20
3220.749139505632
 30
0.0
 10
3345.151565428893
 20
3220.749139858553
 30
0.0
 10
3342.695781221021
 20
3220.749139853697
 30
0.0
 10
3340.641319352292
 20
3220.749139301726
 30
0.0
 10
3339.010075328915
 20
3220.749138137638
 30
0.0
 10
3337.752796909155
 20
3220.749136329184
 30
0.0
 10
3336.601175353298
 20
3220.749133455534
 30
0.0
 10
3335.445117829698
 20
3220.749130444169
 30
0.0
 10
3333.513407829713
 20
3220.749125069445
 30
0.0
 10
3330.621965298869
 20
3220.749116844161
 30
0.0
 10
3326.521955049394
 20
3220.749106370023
 30
0.0
 10
3321.764552342137
 20
3220.749096501698
 30
0.0
 10
3316.272165831337
 20
3220.749088137227
 30
0.0
 10
3310.02353834258
 20
3220.749081939351
 30
0.0
 10
3303.123189515219
 20
3220.749078672722
 30
0.0
 10
3295.756199823358
 20
3220.749075296633
 30
0.0
 10
3288.0872167607
 20
3220.749072215294
 30
0.0
 10
3278.844153022872
 20
3220.7490689068
 30
0.0
 10
3267.888227437883
 20
3220.749065599053
 30
0.0
 10
3255.096107480378
 20
3220.749062576841
 30
0.0
 10
3242.001217402748
 20
3220.749060309872
 30
0.0
 10
3228.669333439561
 20
3220.749058882348
 30
0.0
 10
3215.081605812951
 20
3220.7490581232
 30
0.0
 10
3200.269043953711
 20
3220.74905725596
 30
0.0
 10
3184.12120230263
 20
3220.749056467751
 30
0.0
 10
3166.618357887385
 20
3220.749055729782
 30
0.0
 10
3148.773074228971
 20
3220.749055106914
 30
0.0
 10
3130.650594421382
 20
3220.749054591485
 30
0.0
 10
3111.68928489792
 20
3220.749054190202
 30
0.0
 10
3092.090519152776
 20
3220.749053823297
 30
0.0
 10
3072.082721729421
 20
3220.749053490819
 30
0.0
 10
3052.572564359231
 20
3220.749053209996
 30
0.0
 10
3033.680097366409
 20
3220.749052980649
 30
0.0
 10
3018.00699042225
 20
3220.749052826653
 30
0.0
 10
3005.457562082217
 20
3220.749052729697
 30
0.0
 10
2995.775271175468
 20
3220.749052665367
 30
0.0
 10
2985.878411962124
 20
3220.749052630542
 30
0.0
 10
2975.360825626859
 20
3220.749052704667
 30
0.0
 10
2963.915010525873
 20
3220.749052864248
 30
0.0
 10
2951.49997802236
 20
3220.749053115936
 30
0.0
 10
2938.095991913352
 20
3220.749053457065
 30
0.0
 10
2923.668026235048
 20
3220.749053887772
 30
0.0
 10
2908.169611990425
 20
3220.749054407163
 30
0.0
 10
2891.529064351743
 20
3220.749055014652
 30
0.0
 10
2873.670826545891
 20
3220.749055709313
 30
0.0
 10
2856.014036365192
 20
3220.749056428687
 30
0.0
 10
2838.658961341293
 20
3220.749057156464
 30
0.0
 10
2821.713663357356
 20
3220.749057880181
 30
0.0
 10
2803.788300973552
 20
3220.749058654882
 30
0.0
 10
2784.816839541635
 20
3220.749059479778
 30
0.0
 10
2764.727272504462
 20
3220.749060354105
 30
0.0
 10
2743.456483003096
 20
3220.749061275902
 30
0.0
 10
2720.971010402131
 20
3220.749062243899
 30
0.0
 10
2697.273421365508
 20
3220.749063258294
 30
0.0
 10
2672.393432845531
 20
3220.749064317941
 30
0.0
 10
2646.538239920708
 20
3220.7490654148
 30
0.0
 10
2619.775103331662
 20
3220.749066547232
 30
0.0
 10
2592.183641426688
 20
3220.749067713705
 30
0.0
 10
2563.691927477214
 20
3220.749068918841
 30
0.0
 10
2544.406197773329
 20
3220.749069738265
 30
0.0
 10
2534.628180664168
 20
3220.74907015372
 30
0.0
  0
SPLINE
  5
15A
330
1F
100
AcDbEntity
  8
Warndon
  6
SLD-Solid
370
    15
100
AcDbSpline
210
0.0
220
0.0
230
1.0
 70
     8
 71
     3
 72
    75
 73
    71
 74
     0
 42
0.000000001
 43
0.0000000001
 40
0.0
 40
0.0
 40
0.0
 40
0.0
 40
0.0298405368903334
 40
0.0586682329061376
 40
0.086382317045593
 40
0.1129024104519949
 40
0.1381669242263237
 40
0.1621314998631755
 40
0.1835101140708007
 40
0.2036951559600059
 40
0.2226868285634326
 40
0.240529743673108
 40
0.2572952908953685
 40
0.2730489858300351
 40
0.2878500173840075
 40
0.3017516779273292
 40
0.3148017772434395
 40
0.3270430410172842
 40
0.3383152237026171
 40
0.3488758457490681
 40
0.3587536717061934
 40
0.3683770759056444
 40
0.3949301899280894
 40
0.4222000362409111
 40
0.4500724034608817
 40
0.4784229459861522
 40
0.5071250073959089
 40
0.5359960285284801
 40
0.5557076664356275
 40
0.5754145182830108
 40
0.5950993890628778
 40
0.6147496675963801
 40
0.6343673993251952
 40
0.6508360884770478
 40
0.6674682961841907
 40
0.684252504670347
 40
0.7011777857888669
 40
0.718236798637029
 40
0.7354263155972835
 40
0.746937224196314
 40
0.7577141689424252
 40
0.7676701910343427
 40
0.776831621634144
 40
0.7852213306233081
 40
0.7890649927656234
 40
0.7927294915702006
 40
0.7962167923677762
 40
0.7995286502119117
 40
0.8026666819057005
 40
0.805632416785613
 40
0.8084942438053479
 40
0.8120799024200627
 40
0.8167188164424384
 40
0.8223408422118202
 40
0.8289289778032687
 40
0.8364629647370581
 40
0.8449189665087963
 40
0.8540944575237354
 40
0.8641007181245326
 40
0.8748930658921342
 40
0.8864109770575307
 40
0.901993593184869
 40
0.9184219698255676
 40
0.9354650866071155
 40
0.9527951476356925
 40
0.9634895624777136
 40
0.9736505864764227
 40
0.9829659869086086
 40
0.9916031090416591
 40
1.0
 40
1.0
 40
1.0
 40
1.0
 10
2534.628180664168
 20
3220.749070153508
 30
0.0
 10
2524.345257084764
 20
3220.74906952876
 30
0.0
 10
2504.1284306339
 20
3220.749068300467
 30
0.0
 10
2474.361448623567
 20
3220.749066512329
 30
0.0
 10
2445.738722502037
 20
3220.749064805477
 30
0.0
 10
2418.344010385085
 20
3220.749063185124
 30
0.0
 10
2392.241713260352
 20
3220.749061654302
 30
0.0
 10
2367.911755625682
 20
3220.749060241475
 30
0.0
 10
2345.333078963831
 20
3220.749058945574
 30
0.0
 10
2324.469253607139
 20
3220.749057765016
 30
0.0
 10
2304.825505224889
 20
3220.749056672913
 30
0.0
 10
2286.362237977552
 20
3220.749055671803
 30
0.0
 10
2269.017313981133
 20
3220.749054764509
 30
0.0
 10
2252.723553805966
 20
3220.74905395254
 30
0.0
 10
2237.419964534543
 20
3220.749053237345
 30
0.0
 10
2223.051586896223
 20
3220.749052620095
 30
0.0
 10
2209.569049581554
 20
3220.749052102011
 30
0.0
 10
2196.996320173955
 20
3220.749051685633
 30
0.0
 10
2185.285052100864
 20
3220.749051371902
 30
0.0
 10
2174.391585800548
 20
3220.749051152703
 30
0.0
 10
2164.070116014873
 20
3220.749051046964
 30
0.0
 10
2148.267137124186
 20
3220.749050941254
 30
0.0
 10
2126.522504002487
 20
3220.749050725048
 30
0.0
 10
2098.593328685301
 20
3220.749050384441
 30
0.0
 10
2070.148742527441
 20
3220.749049957087
 30
0.0
 10
2041.356225974858
 20
3220.749049443496
 30
0.0
 10
2012.421607652366
 20
3220.749048856359
 30
0.0
 10
1986.639667702652
 20
3220.749048213138
 30
0.0
 10
1964.110118685644
 20
3220.749047542937
 30
0.0
 10
1944.821832391523
 20
3220.749046893056
 30
0.0
 10
1925.806111665674
 20
3220.749046172106
 30
0.0
 10
1907.11988836571
 20
3220.749045378568
 30
0.0
 10
1889.790746959788
 20
3220.749044559911
 30
0.0
 10
1873.748733121539
 20
3220.749043715358
 30
0.0
 10
1858.91637026466
 20
3220.749042874894
 30
0.0
 10
1844.348959609453
 20
3220.749041909121
 30
0.0
 10
1830.116859900267
 20
3220.74904110266
 30
0.0
 10
1816.294231396134
 20
3220.749039375431
 30
0.0
 10
1804.462772085299
 20
3220.749040640371
 30
0.0
 10
1794.676508869525
 20
3220.749033997748
 30
0.0
 10
1786.976860372251
 20
3220.74909267103
 30
0.0
 10
1780.106429238703
 20
3220.749157347888
 30
0.0
 10
1774.025344472843
 20
3220.749114026954
 30
0.0
 10
1769.47689519638
 20
3220.748841585353
 30
0.0
 10
1766.196579772536
 20
3220.748350693205
 30
0.0
 10
1763.971186997533
 20
3220.747834765577
 30
0.0
 10
1761.894003317394
 20
3220.747121850466
 30
0.0
 10
1759.958873910649
 20
3220.746177837746
 30
0.0
 10
1758.160497267734
 20
3220.744939553249
 30
0.0
 10
1756.479429189325
 20
3220.74341806246
 30
0.0
 10
1754.752686418618
 20
3220.741088499941
 30
0.0
 10
1752.726630339601
 20
3220.739125695227
 30
0.0
 10
1750.235040057498
 20
3220.737313661048
 30
0.0
 10
1747.274001880547
 20
3220.735723864192
 30
0.0
 10
1743.912917931315
 20
3220.734439648847
 30
0.0
 10
1740.22045755084
 20
3220.73352246854
 30
0.0
 10
1736.302252645144
 20
3220.733016554652
 30
0.0
 10
1732.244541066756
 20
3220.732934277459
 30
0.0
 10
1728.141190408943
 20
3220.7332722175
 30
0.0
 10
1724.06474384758
 20
3220.734017041465
 30
0.0
 10
1719.719704871974
 20
3220.735250674288
 30
0.0
 10
1715.334067319481
 20
3220.737035154595
 30
0.0
 10
1711.205490313295
 20
3220.739345109366
 30
0.0
 10
1707.801688557486
 20
3220.74187937036
 30
0.0
 10
1705.588866880116
 20
3220.744088807201
 30
0.0
 10
1704.222289879026
 20
3220.74584826016
 30
0.0
 10
1703.423990745136
 20
3220.747142533662
 30
0.0
 10
1702.929791174364
 20
3220.748207411454
 30
0.0
 10
1702.688728111226
 20
3220.748979332042
 30
0.0
 10
1702.625172139933
 20
3220.74908684016
 30
0.0
 10
1702.593842320129
 20
3220.749139836123
 30
0.0
  0
SPLINE
  5
15D
330
1F
100
AcDbEntity
  8
Warndon
  6
SLD-Solid
370
    15
100
AcDbSpline
210
0.0
220
0.0
230
1.0
 70
    24
 71
     3
 72
    45
 73
    41
 74
     0
 42
0.000000001
 43
0.0000000001
 40
0.0
 40
0.0
 40
0.0
 40
0.0
 40
0.0056343131472095
 40
0.011374550040197
 40
0.0236004995760232
 40
0.0304851390717895
 40
0.0373397452913573
 40
0.0524338024701877
 40
0.0685488262258355
 40
0.0854031837347043
 40
0.1027644019761803
 40
0.1204925103190749
 40
0.13872351329686
 40
0.1568872359165199
 40
0.1759702671987059
 40
0.1951629516054374
 40
0.2157255154854159
 40
0.2368521744161634
 40
0.2599135284310873
 40
0.2838629320716719
 40
0.3102346770209627
 40
0.3379346538201439
 40
0.368396794374197
 40
0.4004296743835885
 40
0.4351204445455582
 40
0.4723825669900809
 40
0.5118859955400641
 40
0.5538875224722136
 40
0.5982288054007499
 40
0.6454154806624501
 40
0.6959696900653475
 40
0.7504039487870749
 40
0.7785048202178507
 40
0.808958370758474
 40
0.8385096440918104
 40
0.8708067836228948
 40
0.9008471389572216
 40
0.9348535032513691
 40
0.9673580017611774
 40
1.0
 40
1.0
 40
1.0
 40
1.0
 10
3260.481121840637
 20
2622.749139836952
 30
0.0
 10
3260.477618755675
 20
2622.749139836952
 30
0.0
 10
3260.470546728587
 20
2622.749139836952
 30
0.0
 10
3260.408245284854
 20
2622.749139836952
 30
0.0
 10
3260.188739116733
 20
2622.749139836952
 30
0.0
 10
3259.716026813396
 20
2622.749139836952
 30
0.0
 10
3259.00185759612
 20
2622.749139836952
 30
0.0
 10
3257.650976148742
 20
2622.749139836952
 30
0.0
 10
3255.163541346614
 20
2622.749139836952
 30
0.0
 10
3251.68955338509
 20
2622.749139836952
 30
0.0
 10
3247.123377040558
 20
2622.749139836952
 30
0.0
 10
3241.40279835375
 20
2622.749139836952
 30
0.0
 10
3234.499569269612
 20
2622.749139836952
 30
0.0
 10
3226.30453122283
 20
2622.749139836952
 30
0.0
 10
3216.8556671112
 20
2622.749139836952
 30
0.0
 10
3205.892018507796
 20
2622.749139836952
 30
0.0
 10
3193.461599967353
 20
2622.749139836952
 30
0.0
 10
3179.208640383347
 20
2622.749139836952
 30
0.0
 10
3163.245710516105
 20
2622.749139836952
 30
0.0
 10
3145.160915478657
 20
2622.749139836952
 30
0.0
 10
3125.134964301904
 20
2622.749139836952
 30
0.0
 10
3102.738003533625
 20
2622.749139836952
 30
0.0
 10
3078.242209761178
 20
2622.749139836952
 30
0.0
 10
3051.341630835438
 20
2622.749139836952
 30
0.0
 10
3022.145243083603
 20
2622.749139836952
 30
0.0
 10
2990.538114154722
 20
2622.749139836952
 30
0.0
 10
2956.623321983297
 20
2622.749139836952
 30
0.0
 10
2920.513455091182
 20
2622.749139836952
 30
0.0
 10
2882.073684977138
 20
2622.749139836952
 30
0.0
 10
2841.088820605877
 20
2622.749139836952
 30
0.0
 10
2797.141871565612
 20
2622.749139836952
 30
0.0
 10
2758.683731476253
 20
2622.749139836952
 30
0.0
 10
2726.027806631803
 20
2622.749139836952
 30
0.0
 10
2700.561301329755
 20
2622.749139836952
 30
0.0
 10
2673.880615933661
 20
2622.749139836952
 30
0.0
 10
2647.318665642547
 20
2622.749139836952
 30
0.0
 10
2619.46855556253
 20
2622.749139836952
 30
0.0
 10
2591.558363953662
 20
2622.749139836952
 30
0.0
 10
2562.896073522464
 20
2622.749139836952
 30
0.0
 10
2544.064060713392
 20
2622.749139836952
 30
0.0
 10
2534.628180664168
 20
2622.749139836952
 30
0.0
  0
SPLINE
  5
15E
330
1F
100
AcDbEntity
  8
Warndon
  6
SLD-Solid
370
    15
100
AcDbSpline
210
0.0
220
0.0
230
1.0
 70
    24
 71
     3
 72
    45
 73
    41
 74
     0
 42
0.000000001
 43
0.0000000001
 40
0.0
 40
0.0
 40
0.0
 40
0.0
 40
0.0326419982663838
 40
0.0651464968036375
 40
0.0991522605380787
 40
0.129193216485874
 40
0.1614897624752316
 40
0.191041629401908
 40
0.2214945854884027
 40
0.2495960514209233
 40
0.3040303101886124
 40
0.3545845196341953
 40
0.4017711949357377
 40
0.4461124779017136
 40
0.4881133901823171
 40
0.5276174333956954
 40
0.5648789493924662
 40
0.5995703259693253
 40
0.63160248466126
 40
0.6620653460658027
 40
0.6897645599811162
 40
0.7161370678964014
 40
0.7400858105247901
 40
0.7631478256646257
 40
0.7842738036289281
 40
0.8048370479994586
 40
0.8240290235336702
 40
0.8431127638292684
 40
0.8612758128910119
 40
0.8795074895587969
 40
0.8972355979166602
 40
0.914596816172795
 40
0.9314511736958948
 40
0.9475661974651494
 40
0.9626602546567246
 40
0.969514228538885
 40
0.9763995004040497
 40
0.9886254499501989
 40
0.9943656868480331
 40
1.0
 40
1.0
 40
1.0
 40
1.0
 10
2534.628180664168
 20
2622.749139836952
 30
0.0
 10
2525.19230061497
 20
2622.749139836952
 30
0.0
 10
2506.360287805949
 20
2622.749139836952
 30
0.0
 10
2477.698170987497
 20
2622.749139836952
 30
0.0
 10
2449.787979379893
 20
2622.749139836952
 30
0.0
 10
2421.938040877414
 20
2622.749139836952
 30
0.0
 10
2395.375916978221
 20
2622.749139836952
 30
0.0
 10
2368.695403402899
 20
2622.749139836952
 30
0.0
 10
2343.228726534234
 20
2622.749139836952
 30
0.0
 10
2310.57280162919
 20
2622.749139836952
 30
0.0
 10
2272.114489768199
 20
2622.749139836952
 30
0.0
 10
2228.167540709861
 20
2622.749139836952
 30
0.0
 10
2187.182676392349
 20
2622.749139836952
 30
0.0
 10
2148.743083049911
 20
2622.749139836952
 30
0.0
 10
2112.633215954546
 20
2622.749139836952
 30
0.0
 10
2078.71859424805
 20
2622.749139836952
 30
0.0
 10
2047.111290832907
 20
2622.749139836952
 30
0.0
 10
2017.915099455939
 20
2622.749139836952
 30
0.0
 10
1991.014354344794
 20
2622.749139836952
 30
0.0
 10
1966.518754974107
 20
2622.749139836952
 30
0.0
 10
1944.121596861003
 20
2622.749139836952
 30
0.0
 10
1924.09580366353
 20
2622.749139836952
 30
0.0
 10
1906.01081041057
 20
2622.749139836952
 30
0.0
 10
1890.048024366381
 20
2622.749139836952
 30
0.0
 10
1875.794913057521
 20
2622.749139836952
 30
0.0
 10
1863.364613171091
 20
2622.749139836952
 30
0.0
 10
1852.40081917625
 20
2622.749139836952
 30
0.0
 10
1842.952048226652
 20
2622.749139836952
 30
0.0
 10
1834.756883540865
 20
2622.749139836952
 30
0.0
 10
1827.85363560101
 20
2622.749139836952
 30
0.0
 10
1822.132984203388
 20
2622.749139836952
 30
0.0
 10
1817.566807942529
 20
2622.749139836952
 30
0.0
 10
1814.092820061506
 20
2622.749139836952
 30
0.0
 10
1811.605384884593
 20
2622.749139836952
 30
0.0
 10
1810.254526968117
 20
2622.749139836952
 30
0.0
 10
1809.540346808974
 20
2622.749139836952
 30
0.0
 10
1809.06762849008
 20
2622.749139836952
 30
0.0
 10
1808.848115944212
 20
2622.749139836952
 30
0.0
 10
1808.785814616248
 20
2622.749139836952
 30
0.0
 10
1808.778742578126
 20
2622.749139836952
 30
0.0
 10
1808.775239487697
 20
2622.749139836952
 30
0.0
  0
SPLINE
  5
15F
330
1F
100
AcDbEntity
  8
Warndon
  6
SLD-Solid
370
    15
100
AcDbSpline
210
0.0
220
0.0
230
1.0
 70
     8
 71
     3
 72
    24
 73
    20
 74
     0
 42
0.000000001
 43
0.0000000001
 40
0.0
 40
0.0
 40
0.0
 40
0.0
 40
0.0078125000000001
 40
0.0078125000000001
 40
0.0156250000000002
 40
0.0156250000000002
 40
0.0312500000000007
 40
0.0312500000000007
 40
0.0468750000000012
 40
0.0468750000000012
 40
0.0625000000000017
 40
0.1250000000000029
 40
0.1250000000000029
 40
0.1562500000000034
 40
0.1562500000000034
 40
0.1875000000000039
 40
0.2500000000000047
 40
0.5000000000000045
 40
1.0
 40
1.0
 40
1.0
 40
1.0
 10
1701.206203416615
 20
3128.946547386388
 30
0.0
 10
1701.159179910683
 20
3129.116764964607
 30
0.0
 10
1701.127921148382
 20
3129.291958653638
 30
0.0
 10
1701.086437924619
 20
3129.648225972473
 30
0.0
 10
1701.075047215327
 20
3129.828903264537
 30
0.0
 10
1701.040650150898
 20
3130.368197768137
 30
0.0
 10
1701.009828826778
 20
3130.720867525061
 30
0.0
 10
1700.933038599998
 20
3131.421241596964
 30
0.0
 10
1700.888158511641
 20
3131.769407710926
 30
0.0
 10
1700.79289466399
 20
3132.473334933465
 30
0.0
 10
1700.54070328486
 20
3134.251629512822
 30
0.0
 10
1700.224786676231
 20
3136.104880331876
 30
0.0
 10
1699.809215436362
 20
3138.333822023489
 30
0.0
 10
1699.664620540134
 20
3139.077618783074
 30
0.0
 10
1699.367360467565
 20
3140.555838754835
 30
0.0
 10
1698.909053091172
 20
3142.760116249003
 30
0.0
 10
1697.10072667034
 20
3150.706242752641
 30
0.0
 10
1691.956538723182
 20
3168.530576021304
 30
0.0
 10
1686.498931400685
 20
3183.889469403198
 30
0.0
 10
1683.628180664167
 20
3194.554996706019
 30
0.0
  0
SPLINE
  5
160
330
1F
100
AcDbEntity
  8
Warndon
  6
SLD-Solid
370
    15
100
AcDbSpline
210
0.0
220
0.0
230
1.0
 70
     8
 71
     3
 72
    24
 73
    20
 74
     0
 42
0.000000001
 43
0.0000000001
 40
0.0
 40
0.0
 40
0.0
 40
0.0
 40
0.0078125000000001
 40
0.0078125000000001
 40
0.0156250000000002
 40
0.0156250000000002
 40
0.0312500000000007
 40
0.0312500000000007
 40
0.0468750000000012
 40
0.0468750000000012
 40
0.0625000000000017
 40
0.1250000000000029
 40
0.1250000000000029
 40
0.1562500000000034
 40
0.1562500000000034
 40
0.1875000000000039
 40
0.2500000000000047
 40
0.5000000000000045
 40
1.0
 40
1.0
 40
1.0
 40
1.0
 10
3368.05015791172
 20
3128.946547386388
 30
0.0
 10
3368.097181417652
 20
3129.116764964607
 30
0.0
 10
3368.128440179952
 20
3129.291958653638
 30
0.0
 10
3368.169923403716
 20
3129.648225972473
 30
0.0
 10
3368.181314113008
 20
3129.828903264537
 30
0.0
 10
3368.215711177437
 20
3130.368197768137
 30
0.0
 10
3368.246532501558
 20
3130.720867525061
 30
0.0
 10
3368.323322728338
 20
3131.421241596964
 30
0.0
 10
3368.368202816693
 20
3131.769407710926
 30
0.0
 10
3368.463466664344
 20
3132.473334933465
 30
0.0
 10
3368.715658043474
 20
3134.251629512822
 30
0.0
 10
3369.031574652104
 20
3136.104880331876
 30
0.0
 10
3369.447145891973
 20
3138.333822023489
 30
0.0
 10
3369.591740788201
 20
3139.077618783074
 30
0.0
 10
3369.889000860769
 20
3140.555838754835
 30
0.0
 10
3370.347308237163
 20
3142.760116249003
 30
0.0
 10
3372.155634657995
 20
3150.706242752641
 30
0.0
 10
3377.299822605152
 20
3168.530576021304
 30
0.0
 10
3382.75742992765
 20
3183.889469403198
 30
0.0
 10
3385.628180664168
 20
3194.554996706019
 30
0.0
  0
SPLINE
  5
161
330
1F
100
AcDbEntity
  8
Warndon
  6
SLD-Solid
370
    15
100
AcDbSpline
210
0.0
220
0.0
230
1.0
 70
    24
 71
     3
 72
    18
 73
    14
 74
     0
 42
0.000000001
 43
0.0000000001
 40
0.0
 40
0.0
 40
0.0
 40
0.0
 40
67.2778512085532
 40
134.555702417104
 40
201.833553625656
 40
269.111404834215
 40
358.81520644561
 40
448.519008057013
 40
538.222809668415
 40
672.7785120855189
 40
807.3342145026229
 40
941.889916919727
 40
1076.44561933683
 40
1076.44561933683
 40
1076.44561933683
 40
1076.44561933683
 10
3368.050157911719
 20
3128.946547386388
 30
0.0
 10
3368.04134906881
 20
3128.946547386388
 30
0.0
 10
3368.02373138299
 20
3128.946547386388
 30
0.0
 10
3364.814358727056
 20
3128.946547386387
 30
0.0
 10
3356.247067720731
 20
3128.946547386388
 30
0.0
 10
3339.165576968289
 20
3128.946547386387
 30
0.0
 10
3309.45713272716
 20
3128.946547386388
 30
0.0
 10
3262.591840521454
 20
3128.946547386387
 30
0.0
 10
3190.920289440248
 20
3128.946547386388
 30
0.0
 10
3085.776078882333
 20
3128.946547386387
 30
0.0
 10
2936.960791033937
 20
3128.946547386388
 30
0.0
 10
2762.394885848964
 20
3128.946547386388
 30
0.0
 10
2610.550415725767
 20
3128.946547386388
 30
0.0
 10
2534.628180664168
 20
3128.946547386388
 30
0.0
  0
SPLINE
  5
163
330
1F
100
AcDbEntity
  8
Warndon
  6
SLD-Solid
370
    15
100
AcDbSpline
210
0.0
220
0.0
230
1.0
 70
    24
 71
     3
 72
    18
 73
    14
 74
     0
 42
0.000000001
 43
0.0000000001
 40
0.0
 40
0.0
 40
0.0
 40
0.0
 40
67.2778512085532
 40
134.555702417104
 40
201.833553625656
 40
269.111404834215
 40
358.81520644561
 40
448.519008057013
 40
538.222809668415
 40
672.7785120855189
 40
807.3342145026229
 40
941.889916919727
 40
1076.44561933683
 40
1076.44561933683
 40
1076.44561933683
 40
1076.44561933683
 10
3385.628180664168
 20
3194.554996706019
 30
0.0
 10
3385.620184498657
 20
3194.554996706019
 30
0.0
 10
3385.604192167634
 20
3194.554996706019
 30
0.0
 10
3382.241395846886
 20
3194.554996706019
 30
0.0
 10
3373.234196304649
 20
3194.554996706019
 30
0.0
 10
3355.219342361039
 20
3194.554996706019
 30
0.0
 10
3323.792625333118
 20
3194.554996706019
 30
0.0
 10
3274.265911622614
 20
3194.554996706019
 30
0.0
 10
3199.078965998146
 20
3194.554996706019
 30
0.0
 10
3090.234171598802
 20
3194.554996706019
 30
0.0
 10
2938.619103582231
 20
3194.554996706019
 30
0.0
 10
2762.582251503973
 20
3194.554996706019
 30
0.0
 10
2610.612870944103
 20
3194.554996706019
 30
0.0
 10
2534.628180664168
 20
3194.554996706019
 30
0.0
  0
SPLINE
  5
165
330
1F
100
AcDbEntity
  8
Warndon
  6
SLD-Solid
370
    15
100
AcDbSpline
210
0.0
220
0.0
230
1.0
 70
    24
 71
     3
 72
    18
 73
    14
 74
     0
 42
0.000000001
 43
0.0000000001
 40
0.0
 40
0.0
 40
0.0
 40
0.0
 40
67.2778512085532
 40
134.555702417104
 40
201.833553625656
 40
269.111404834215
 40
358.81520644561
 40
448.519008057013
 40
538.222809668415
 40
672.7785120855189
 40
807.3342145026229
 40
941.889916919727
 40
1076.44561933683
 40
1076.44561933683
 40
1076.44561933683
 40
1076.44561933683
 10
1683.628180664167
 20
3194.554996706019
 30
0.0
 10
1683.636176829678
 20
3194.554996706019
 30
0.0
 10
1683.6521691607
 20
3194.554996706019
 30
0.0
 10
1687.014965481448
 20
3194.554996706019
 30
0.0
 10
1696.022165023686
 20
3194.554996706019
 30
0.0
 10
1714.037018967295
 20
3194.554996706019
 30
0.0
 10
1745.463735995217
 20
3194.554996706019
 30
0.0
 10
1794.99044970572
 20
3194.554996706019
 30
0.0
 10
1870.177395330189
 20
3194.554996706019
 30
0.0
 10
1979.022189729532
 20
3194.554996706019
 30
0.0
 10
2130.637257746105
 20
3194.554996706019
 30
0.0
 10
2306.674109824362
 20
3194.554996706019
 30
0.0
 10
2458.643490384233
 20
3194.554996706019
 30
0.0
 10
2534.628180664168
 20
3194.554996706019
 30
0.0
  0
SPLINE
  5
166
330
1F
100
AcDbEntity
  8
Warndon
  6
SLD-Solid
370
    15
100
AcDbSpline
210
0.0
220
0.0
230
1.0
 70
     8
 71
     3
 72
    24
 73
    20
 74
     0
 42
0.000000001
 43
0.0000000001
 40
0.0
 40
0.0
 40
0.0
 40
0.0
 40
0.0078125000000001
 40
0.0078125000000001
 40
0.0156250000000002
 40
0.0156250000000002
 40
0.0312500000000007
 40
0.0312500000000007
 40
0.0468750000000012
 40
0.0468750000000012
 40
0.0625000000000017
 40
0.1250000000000029
 40
0.1250000000000029
 40
0.1562500000000034
 40
0.1562500000000034
 40
0.1875000000000039
 40
0.2500000000000047
 40
0.5000000000000045
 40
1.0
 40
1.0
 40
1.0
 40
1.0
 10
1701.206203416615
 20
3128.946547386388
 30
0.0
 10
1701.159179910683
 20
3129.116764964607
 30
0.0
 10
1701.127921148382
 20
3129.291958653638
 30
0.0
 10
1701.086437924619
 20
3129.648225972473
 30
0.0
 10
1701.075047215327
 20
3129.828903264537
 30
0.0
 10
1701.040650150898
 20
3130.368197768137
 30
0.0
 10
1701.009828826778
 20
3130.720867525061
 30
0.0
 10
1700.933038599998
 20
3131.421241596964
 30
0.0
 10
1700.888158511641
 20
3131.769407710926
 30
0.0
 10
1700.79289466399
 20
3132.473334933465
 30
0.0
 10
1700.54070328486
 20
3134.251629512822
 30
0.0
 10
1700.224786676231
 20
3136.104880331876
 30
0.0
 10
1699.809215436362
 20
3138.333822023489
 30
0.0
 10
1699.664620540134
 20
3139.077618783074
 30
0.0
 10
1699.367360467565
 20
3140.555838754835
 30
0.0
 10
1698.909053091172
 20
3142.760116249003
 30
0.0
 10
1697.10072667034
 20
3150.706242752641
 30
0.0
 10
1691.956538723182
 20
3168.530576021304
 30
0.0
 10
1686.498931400685
 20
3183.889469403198
 30
0.0
 10
1683.628180664167
 20
3194.554996706019
 30
0.0
  0
SPLINE
  5
167
330
1F
100
AcDbEntity
  8
Warndon
  6
SLD-Solid
370
    15
100
AcDbSpline
210
0.0
220
0.0
230
1.0
 70
    24
 71
     3
 72
    18
 73
    14
 74
     0
 42
0.000000001
 43
0.0000000001
 40
0.0
 40
0.0
 40
0.0
 40
0.0
 40
67.2778512085532
 40
134.555702417104
 40
201.833553625656
 40
269.111404834215
 40
358.81520644561
 40
448.519008057013
 40
538.222809668415
 40
672.7785120855189
 40
807.3342145026229
 40
941.889916919727
 40
1076.44561933683
 40
1076.44561933683
 40
1076.44561933683
 40
1076.44561933683
 10
1701.206203416615
 20
3128.946547386388
 30
0.0
 10
1701.215012259525
 20
3128.946547386388
 30
0.0
 10
1701.232629945345
 20
3128.946547386388
 30
0.0
 10
1704.442002601278
 20
3128.946547386387
 30
0.0
 10
1713.009293607604
 20
3128.946547386388
 30
0.0
 10
1730.090784360045
 20
3128.946547386387
 30
0.0
 10
1759.799228601175
 20
3128.946547386388
 30
0.0
 10
1806.66452080688
 20
3128.946547386387
 30
0.0
 10
1878.336071888088
 20
3128.946547386388
 30
0.0
 10
1983.480282446002
 20
3128.946547386387
 30
0.0
 10
2132.295570294398
 20
3128.946547386388
 30
0.0
 10
2306.861475479371
 20
3128.946547386388
 30
0.0
 10
2458.705945602568
 20
3128.946547386388
 30
0.0
 10
2534.628180664168
 20
3128.946547386388
 30
0.0
  0
SPLINE
  5
168
330
1F
100
AcDbEntity
  8
Warndon
  6
SLD-Solid
370
    15
100
AcDbSpline
210
0.0
220
0.0
230
1.0
 70
     8
 71
     3
 72
    24
 73
    20
 74
     0
 42
0.000000001
 43
0.0000000001
 40
0.0
 40
0.0
 40
0.0
 40
0.0
 40
0.0078125000000001
 40
0.0078125000000001
 40
0.0156250000000002
 40
0.0156250000000002
 40
0.0312500000000007
 40
0.0312500000000007
 40
0.0468750000000012
 40
0.0468750000000012
 40
0.0625000000000017
 40
0.1250000000000029
 40
0.1250000000000029
 40
0.1562500000000034
 40
0.1562500000000034
 40
0.1875000000000039
 40
0.2500000000000047
 40
0.5000000000000045
 40
1.0
 40
1.0
 40
1.0
 40
1.0
 10
3368.05015791172
 20
3128.946547386388
 30
0.0
 10
3368.097181417652
 20
3129.116764964607
 30
0.0
 10
3368.128440179952
 20
3129.291958653638
 30
0.0
 10
3368.169923403716
 20
3129.648225972473
 30
0.0
 10
3368.181314113008
 20
3129.828903264537
 30
0.0
 10
3368.215711177437
 20
3130.368197768137
 30
0.0
 10
3368.246532501558
 20
3130.720867525061
 30
0.0
 10
3368.323322728338
 20
3131.421241596964
 30
0.0
 10
3368.368202816693
 20
3131.769407710926
 30
0.0
 10
3368.463466664344
 20
3132.473334933465
 30
0.0
 10
3368.715658043474
 20
3134.251629512822
 30
0.0
 10
3369.031574652104
 20
3136.104880331876
 30
0.0
 10
3369.447145891973
 20
3138.333822023489
 30
0.0
 10
3369.591740788201
 20
3139.077618783074
 30
0.0
 10
3369.889000860769
 20
3140.555838754835
 30
0.0
 10
3370.347308237163
 20
3142.760116249003
 30
0.0
 10
3372.155634657995
 20
3150.706242752641
 30
0.0
 10
3377.299822605152
 20
3168.530576021304
 30
0.0
 10
3382.75742992765
 20
3183.889469403198
 30
0.0
 10
3385.628180664168
 20
3194.554996706019
 30
0.0
  0
SPLINE
  5
169
330
1F
100
AcDbEntity
  8
Warndon
  6
SLD-Solid
370
    15
100
AcDbSpline
210
0.0
220
0.0
230
1.0
 70
     8
 71
     3
 72
    30
 73
    26
 74
     0
 42
0.000000001
 43
0.0000000001
 40
0.0
 40
0.0
 40
0.0
 40
0.0
 40
0.0078125000000003
 40
0.0078125000000003
 40
0.0156250000000007
 40
0.0156250000000007
 40
0.0312500000000004
 40
0.0312500000000004
 40
0.0625000000000008
 40
0.0625000000000008
 40
0.1250000000000018
 40
0.250000000000002
 40
0.5000000000000014
 40
0.5000000000000014
 40
0.6250000000000026
 40
0.6250000000000026
 40
0.7500000000000038
 40
0.8750000000000049
 40
0.9375000000000049
 40
0.9687500000000042
 40
0.9687500000000042
 40
0.9765625000000024
 40
0.9765625000000024
 40
0.9843750000000005
 40
1.0
 40
1.0
 40
1.0
 40
1.0
 10
3342.904516928854
 20
3063.116768244818
 30
0.0
 10
3342.989737875348
 20
3063.321755550154
 30
0.0
 10
3343.05749347988
 20
3063.538052326208
 30
0.0
 10
3343.168511022404
 20
3063.984806506544
 30
0.0
 10
3343.212895755899
 20
3064.214511656619
 30
0.0
 10
3343.340049514342
 20
3064.902074195429
 30
0.0
 10
3343.421716655745
 20
3065.354413030085
 30
0.0
 10
3343.667599879165
 20
3066.698047139042
 30
0.0
 10
3343.833136388357
 20
3067.58017236679
 30
0.0
 10
3344.34070128641
 20
3070.194725833044
 30
0.0
 10
3345.392263272042
 20
3075.287093593639
 30
0.0
 10
3348.103743347446
 20
3086.285883730106
 30
0.0
 10
3350.879507423655
 20
3094.451951547777
 30
0.0
 10
3353.969209940712
 20
3102.114289178084
 30
0.0
 10
3355.050727353891
 20
3104.582470960804
 30
0.0
 10
3357.324145654813
 20
3109.417189424692
 30
0.0
 10
3359.710539396104
 20
3114.157511234661
 30
0.0
 10
3363.025172309695
 20
3120.110067151549
 30
0.0
 10
3365.54535785755
 20
3124.429263238786
 30
0.0
 10
3366.671049821429
 20
3126.327807829853
 30
0.0
 10
3367.146615397135
 20
3127.126487730983
 30
0.0
 10
3367.242253531969
 20
3127.286549736096
 30
0.0
 10
3367.433270194104
 20
3127.607715133307
 30
0.0
 10
3367.717472991011
 20
3128.09156000918
 30
0.0
 10
3367.952616144276
 20
3128.593461773132
 30
0.0
 10
3368.05015791172
 20
3128.946547386388
 30
0.0
  0
SPLINE
  5
16A
330
1F
100
AcDbEntity
  8
Warndon
  6
SLD-Solid
370
    15
100
AcDbSpline
210
0.0
220
0.0
230
1.0
 70
    24
 71
     3
 72
    18
 73
    14
 74
     0
 42
0.000000001
 43
0.0000000001
 40
-0.0000000000000071
 40
-0.0000000000000071
 40
-0.0000000000000071
 40
-0.0000000000000071
 40
67.2778512085532
 40
134.555702417104
 40
201.833553625656
 40
269.111404834215
 40
358.81520644561
 40
448.519008057013
 40
538.222809668415
 40
672.7785120855189
 40
807.3342145026229
 40
941.889916919727
 40
1076.44561933683
 40
1076.44561933683
 40
1076.44561933683
 40
1076.44561933683
 10
3368.050157911719
 20
3128.946547386388
 30
0.0
 10
3368.04134906881
 20
3128.946547386388
 30
0.0
 10
3368.02373138299
 20
3128.946547386388
 30
0.0
 10
3364.814358727056
 20
3128.946547386387
 30
0.0
 10
3356.247067720731
 20
3128.946547386388
 30
0.0
 10
3339.165576968289
 20
3128.946547386387
 30
0.0
 10
3309.457132727159
 20
3128.946547386388
 30
0.0
 10
3262.591840521455
 20
3128.946547386387
 30
0.0
 10
3190.920289440248
 20
3128.946547386388
 30
0.0
 10
3085.776078882333
 20
3128.946547386387
 30
0.0
 10
2936.960791033937
 20
3128.946547386388
 30
0.0
 10
2762.394885848964
 20
3128.946547386388
 30
0.0
 10
2610.550415725767
 20
3128.946547386388
 30
0.0
 10
2534.628180664168
 20
3128.946547386388
 30
0.0
  0
SPLINE
  5
16C
330
1F
100
AcDbEntity
  8
Warndon
  6
SLD-Solid
370
    15
100
AcDbSpline
210
0.0
220
0.0
230
1.0
 70
    24
 71
     3
 72
    18
 73
    14
 74
     0
 42
0.000000001
 43
0.0000000001
 40
-0.0000000000000071
 40
-0.0000000000000071
 40
-0.0000000000000071
 40
-0.0000000000000071
 40
67.2778512085532
 40
134.555702417104
 40
201.833553625656
 40
269.111404834215
 40
358.81520644561
 40
448.519008057013
 40
538.222809668415
 40
672.7785120855189
 40
807.3342145026229
 40
941.889916919727
 40
1076.44561933683
 40
1076.44561933683
 40
1076.44561933683
 40
1076.44561933683
 10
3342.904516928854
 20
3063.116768244817
 30
0.0
 10
3342.894545538007
 20
3063.116768244818
 30
0.0
 10
3342.874602756312
 20
3063.116768244818
 30
0.0
 10
3339.884705091851
 20
3063.116768244817
 30
0.0
 10
3331.946710239315
 20
3063.116768244818
 30
0.0
 10
3316.200410369388
 20
3063.116768244818
 30
0.0
 10
3288.949982664919
 20
3063.116768244818
 30
0.0
 10
3245.891896230091
 20
3063.116768244817
 30
0.0
 10
3179.249172926777
 20
3063.116768244818
 30
0.0
 10
3079.398706381716
 20
3063.116768244817
 30
0.0
 10
2934.58854857163
 20
3063.116768244818
 30
0.0
 10
2762.126856300948
 20
3063.116768244817
 30
0.0
 10
2610.461072543095
 20
3063.116768244818
 30
0.0
 10
2534.628180664168
 20
3063.116768244818
 30
0.0
  0
SPLINE
  5
16D
330
1F
100
AcDbEntity
  8
Warndon
  6
SLD-Solid
370
    15
100
AcDbSpline
210
0.0
220
0.0
230
1.0
 70
     8
 71
     3
 72
    30
 73
    26
 74
     0
 42
0.000000001
 43
0.0000000001
 40
0.0
 40
0.0
 40
0.0
 40
0.0
 40
0.0078125000000003
 40
0.0078125000000003
 40
0.0156250000000007
 40
0.0156250000000007
 40
0.0312500000000004
 40
0.0312500000000004
 40
0.0625000000000008
 40
0.0625000000000008
 40
0.1250000000000018
 40
0.250000000000002
 40
0.5000000000000014
 40
0.5000000000000014
 40
0.6250000000000026
 40
0.6250000000000026
 40
0.7500000000000038
 40
0.8750000000000049
 40
0.9375000000000049
 40
0.9687500000000042
 40
0.9687500000000042
 40
0.9765625000000024
 40
0.9765625000000024
 40
0.9843750000000005
 40
1.0
 40
1.0
 40
1.0
 40
1.0
 10
1726.351844399481
 20
3063.116768244818
 30
0.0
 10
1726.266623452987
 20
3063.321755550154
 30
0.0
 10
1726.198867848455
 20
3063.538052326208
 30
0.0
 10
1726.08785030593
 20
3063.984806506544
 30
0.0
 10
1726.043465572435
 20
3064.214511656619
 30
0.0
 10
1725.916311813992
 20
3064.902074195429
 30
0.0
 10
1725.83464467259
 20
3065.354413030085
 30
0.0
 10
1725.58876144917
 20
3066.698047139042
 30
0.0
 10
1725.423224939978
 20
3067.58017236679
 30
0.0
 10
1724.915660041925
 20
3070.194725833044
 30
0.0
 10
1723.864098056292
 20
3075.287093593639
 30
0.0
 10
1721.152617980889
 20
3086.285883730106
 30
0.0
 10
1718.37685390468
 20
3094.451951547777
 30
0.0
 10
1715.287151387624
 20
3102.114289178084
 30
0.0
 10
1714.205633974444
 20
3104.582470960804
 30
0.0
 10
1711.932215673522
 20
3109.417189424692
 30
0.0
 10
1709.545821932231
 20
3114.157511234661
 30
0.0
 10
1706.23118901864
 20
3120.110067151549
 30
0.0
 10
1703.711003470785
 20
3124.429263238786
 30
0.0
 10
1702.585311506906
 20
3126.327807829853
 30
0.0
 10
1702.1097459312
 20
3127.126487730983
 30
0.0
 10
1702.014107796365
 20
3127.286549736096
 30
0.0
 10
1701.823091134231
 20
3127.607715133307
 30
0.0
 10
1701.538888337324
 20
3128.09156000918
 30
0.0
 10
1701.303745184059
 20
3128.593461773132
 30
0.0
 10
1701.206203416615
 20
3128.946547386388
 30
0.0
  0
SPLINE
  5
16E
330
1F
100
AcDbEntity
  8
Warndon
  6
SLD-Solid
370
    15
100
AcDbSpline
210
0.0
220
0.0
230
1.0
 70
    24
 71
     3
 72
    18
 73
    14
 74
     0
 42
0.000000001
 43
0.0000000001
 40
-0.0000000000000071
 40
-0.0000000000000071
 40
-0.0000000000000071
 40
-0.0000000000000071
 40
67.2778512085532
 40
134.555702417104
 40
201.833553625656
 40
269.111404834215
 40
358.81520644561
 40
448.519008057013
 40
538.222809668415
 40
672.7785120855189
 40
807.3342145026229
 40
941.889916919727
 40
1076.44561933683
 40
1076.44561933683
 40
1076.44561933683
 40
1076.44561933683
 10
1701.206203416615
 20
3128.946547386388
 30
0.0
 10
1701.215012259525
 20
3128.946547386388
 30
0.0
 10
1701.232629945345
 20
3128.946547386388
 30
0.0
 10
1704.442002601278
 20
3128.946547386387
 30
0.0
 10
1713.009293607604
 20
3128.946547386388
 30
0.0
 10
1730.090784360045
 20
3128.946547386387
 30
0.0
 10
1759.799228601176
 20
3128.946547386388
 30
0.0
 10
1806.66452080688
 20
3128.946547386387
 30
0.0
 10
1878.336071888088
 20
3128.946547386388
 30
0.0
 10
1983.480282446002
 20
3128.946547386387
 30
0.0
 10
2132.295570294398
 20
3128.946547386388
 30
0.0
 10
2306.861475479371
 20
3128.946547386388
 30
0.0
 10
2458.705945602568
 20
3128.946547386388
 30
0.0
 10
2534.628180664168
 20
3128.946547386388
 30
0.0
  0
SPLINE
  5
16F
330
1F
100
AcDbEntity
  8
Warndon
  6
SLD-Solid
370
    15
100
AcDbSpline
210
0.0
220
0.0
230
1.0
 70
     8
 71
     3
 72
    30
 73
    26
 74
     0
 42
0.000000001
 43
0.0000000001
 40
0.0
 40
0.0
 40
0.0
 40
0.0
 40
0.0078125000000002
 40
0.0078125000000002
 40
0.0156250000000003
 40
0.0156250000000003
 40
0.0312499999999997
 40
0.0312499999999997
 40
0.0624999999999992
 40
0.0624999999999992
 40
0.1249999999999998
 40
0.2499999999999992
 40
0.4999999999999991
 40
0.4999999999999991
 40
0.624999999999999
 40
0.624999999999999
 40
0.7499999999999988
 40
0.8749999999999985
 40
0.9374999999999991
 40
0.968750000000001
 40
0.968750000000001
 40
0.9765625
 40
0.9765625
 40
0.9843749999999989
 40
1.0
 40
1.0
 40
1.0
 40
1.0
 10
1726.35184439948
 20
3063.116768244819
 30
0.0
 10
1726.266623452986
 20
3063.321755550155
 30
0.0
 10
1726.198867848455
 20
3063.538052326208
 30
0.0
 10
1726.08785030593
 20
3063.984806506544
 30
0.0
 10
1726.043465572435
 20
3064.214511656619
 30
0.0
 10
1725.916311813993
 20
3064.902074195429
 30
0.0
 10
1725.834644672591
 20
3065.354413030085
 30
0.0
 10
1725.58876144917
 20
3066.698047139042
 30
0.0
 10
1725.423224939978
 20
3067.580172366791
 30
0.0
 10
1724.915660041925
 20
3070.194725833045
 30
0.0
 10
1723.864098056292
 20
3075.287093593639
 30
0.0
 10
1721.152617980888
 20
3086.285883730107
 30
0.0
 10
1718.37685390468
 20
3094.451951547777
 30
0.0
 10
1715.287151387624
 20
3102.114289178085
 30
0.0
 10
1714.205633974444
 20
3104.582470960804
 30
0.0
 10
1711.932215673523
 20
3109.417189424692
 30
0.0
 10
1709.545821932232
 20
3114.157511234661
 30
0.0
 10
1706.23118901864
 20
3120.110067151549
 30
0.0
 10
1703.711003470784
 20
3124.429263238786
 30
0.0
 10
1702.585311506905
 20
3126.327807829853
 30
0.0
 10
1702.1097459312
 20
3127.126487730983
 30
0.0
 10
1702.014107796365
 20
3127.286549736096
 30
0.0
 10
1701.823091134231
 20
3127.607715133307
 30
0.0
 10
1701.538888337324
 20
3128.09156000918
 30
0.0
 10
1701.303745184059
 20
3128.593461773132
 30
0.0
 10
1701.206203416615
 20
3128.946547386388
 30
0.0
  0
SPLINE
  5
170
330
1F
100
AcDbEntity
  8
Warndon
  6
SLD-Solid
370
    15
100
AcDbSpline
210
0.0
220
0.0
230
1.0
 70
    24
 71
     3
 72
    18
 73
    14
 74
     0
 42
0.000000001
 43
0.0000000001
 40
-0.0000000000000071
 40
-0.0000000000000071
 40
-0.0000000000000071
 40
-0.0000000000000071
 40
67.2778512085532
 40
134.555702417104
 40
201.833553625656
 40
269.111404834215
 40
358.81520644561
 40
448.519008057013
 40
538.222809668415
 40
672.7785120855189
 40
807.3342145026229
 40
941.889916919727
 40
1076.44561933683
 40
1076.44561933683
 40
1076.44561933683
 40
1076.44561933683
 10
1726.351844399481
 20
3063.116768244819
 30
0.0
 10
1726.361815790328
 20
3063.116768244819
 30
0.0
 10
1726.381758572023
 20
3063.116768244819
 30
0.0
 10
1729.371656236485
 20
3063.116768244819
 30
0.0
 10
1737.309651089019
 20
3063.116768244819
 30
0.0
 10
1753.055950958946
 20
3063.116768244819
 30
0.0
 10
1780.306378663416
 20
3063.116768244819
 30
0.0
 10
1823.364465098244
 20
3063.116768244819
 30
0.0
 10
1890.007188401558
 20
3063.116768244819
 30
0.0
 10
1989.857654946619
 20
3063.116768244819
 30
0.0
 10
2134.667812756705
 20
3063.116768244819
 30
0.0
 10
2307.129505027386
 20
3063.116768244819
 30
0.0
 10
2458.79528878524
 20
3063.116768244819
 30
0.0
 10
2534.628180664168
 20
3063.116768244819
 30
0.0
  0
SPLINE
  5
172
330
1F
100
AcDbEntity
  8
Warndon
  6
SLD-Solid
370
    15
100
AcDbSpline
210
0.0
220
0.0
230
1.0
 70
     8
 71
     3
 72
    30
 73
    26
 74
     0
 42
0.000000001
 43
0.0000000001
 40
0.0
 40
0.0
 40
0.0
 40
0.0
 40
0.0078125000000002
 40
0.0078125000000002
 40
0.0156250000000003
 40
0.0156250000000003
 40
0.0312499999999997
 40
0.0312499999999997
 40
0.0624999999999992
 40
0.0624999999999992
 40
0.1249999999999998
 40
0.2499999999999992
 40
0.4999999999999991
 40
0.4999999999999991
 40
0.624999999999999
 40
0.624999999999999
 40
0.7499999999999988
 40
0.8749999999999985
 40
0.9374999999999991
 40
0.968750000000001
 40
0.968750000000001
 40
0.9765625
 40
0.9765625
 40
0.9843749999999989
 40
1.0
 40
1.0
 40
1.0
 40
1.0
 10
3342.904516928854
 20
3063.116768244819
 30
0.0
 10
3342.989737875349
 20
3063.321755550155
 30
0.0
 10
3343.05749347988
 20
3063.538052326208
 30
0.0
 10
3343.168511022404
 20
3063.984806506544
 30
0.0
 10
3343.212895755899
 20
3064.214511656619
 30
0.0
 10
3343.340049514342
 20
3064.902074195429
 30
0.0
 10
3343.421716655745
 20
3065.354413030085
 30
0.0
 10
3343.667599879164
 20
3066.698047139042
 30
0.0
 10
3343.833136388357
 20
3067.580172366791
 30
0.0
 10
3344.34070128641
 20
3070.194725833045
 30
0.0
 10
3345.392263272042
 20
3075.287093593639
 30
0.0
 10
3348.103743347447
 20
3086.285883730107
 30
0.0
 10
3350.879507423655
 20
3094.451951547777
 30
0.0
 10
3353.969209940711
 20
3102.114289178085
 30
0.0
 10
3355.050727353891
 20
3104.582470960804
 30
0.0
 10
3357.324145654813
 20
3109.417189424692
 30
0.0
 10
3359.710539396103
 20
3114.157511234661
 30
0.0
 10
3363.025172309695
 20
3120.110067151549
 30
0.0
 10
3365.545357857551
 20
3124.429263238786
 30
0.0
 10
3366.671049821429
 20
3126.327807829853
 30
0.0
 10
3367.146615397135
 20
3127.126487730983
 30
0.0
 10
3367.242253531969
 20
3127.286549736096
 30
0.0
 10
3367.433270194104
 20
3127.607715133307
 30
0.0
 10
3367.717472991011
 20
3128.09156000918
 30
0.0
 10
3367.952616144276
 20
3128.593461773132
 30
0.0
 10
3368.05015791172
 20
3128.946547386388
 30
0.0
  0
SPLINE
  5
173
330
1F
100
AcDbEntity
  8
Warndon
  6
SLD-Solid
370
    15
100
AcDbSpline
210
0.0
220
0.0
230
1.0
 70
     8
 71
     3
 72
    24
 73
    20
 74
     0
 42
0.000000001
 43
0.0000000001
 40
0.0
 40
0.0
 40
0.0
 40
0.0
 40
0.2500000000000011
 40
0.3125000000000012
 40
0.3125000000000012
 40
0.3750000000000013
 40
0.3750000000000013
 40
0.4999999999999997
 40
0.7499999999999972
 40
0.8124999999999975
 40
0.8124999999999975
 40
0.874999999999998
 40
0.874999999999998
 40
0.9374999999999985
 40
0.9687499999999984
 40
0.9687499999999984
 40
0.9843749999999992
 40
0.9843749999999992
 40
1.0
 40
1.0
 40
1.0
 40
1.0
 10
1753.710533605362
 20
2985.983484071166
 30
0.0
 10
1751.087940642882
 20
2995.727045740381
 30
0.0
 10
1748.992031544059
 20
3003.141798159341
 30
0.0
 10
1746.989219100424
 20
3009.863524264706
 30
0.0
 10
1746.167845485882
 20
3012.602029567181
 30
0.0
 10
1745.746465695616
 20
3013.998742647007
 30
0.0
 10
1744.445339452315
 20
3018.264669795511
 30
0.0
 10
1741.69550883329
 20
3027.09801751106
 30
0.0
 10
1737.841324242802
 20
3038.23875141907
 30
0.0
 10
1734.549585441302
 20
3046.431555871109
 30
0.0
 10
1733.186705997829
 20
3049.722248989732
 30
0.0
 10
1732.484676624658
 20
3051.374209904038
 30
0.0
 10
1731.02008763339
 20
3054.687234467028
 30
0.0
 10
1729.861258174263
 20
3057.179856192189
 30
0.0
 10
1728.432824737394
 20
3059.690382024184
 30
0.0
 10
1727.658755488982
 20
3060.949139304025
 30
0.0
 10
1727.390124208873
 20
3061.368957744247
 30
0.0
 10
1726.833079409364
 20
3062.211311813571
 30
0.0
 10
1726.551128009375
 20
3062.637418837536
 30
0.0
 10
1726.351844399481
 20
3063.116768244818
 30
0.0
  0
SPLINE
  5
174
330
1F
100
AcDbEntity
  8
Warndon
  6
SLD-Solid
370
    15
100
AcDbSpline
210
0.0
220
0.0
230
1.0
 70
    24
 71
     3
 72
    18
 73
    14
 74
     0
 42
0.000000001
 43
0.0000000001
 40
-0.0000000000000071
 40
-0.0000000000000071
 40
-0.0000000000000071
 40
-0.0000000000000071
 40
67.2778512085532
 40
134.555702417104
 40
201.833553625656
 40
269.111404834215
 40
358.81520644561
 40
448.519008057013
 40
538.222809668415
 40
672.7785120855189
 40
807.3342145026229
 40
941.889916919727
 40
1076.44561933683
 40
1076.44561933683
 40
1076.44561933683
 40
1076.44561933683
 10
3342.904516928855
 20
3063.116768244819
 30
0.0
 10
3342.894545538007
 20
3063.116768244819
 30
0.0
 10
3342.874602756312
 20
3063.116768244819
 30
0.0
 10
3339.884705091851
 20
3063.116768244819
 30
0.0
 10
3331.946710239316
 20
3063.116768244819
 30
0.0
 10
3316.200410369389
 20
3063.116768244819
 30
0.0
 10
3288.949982664919
 20
3063.116768244819
 30
0.0
 10
3245.891896230091
 20
3063.116768244819
 30
0.0
 10
3179.249172926777
 20
3063.116768244819
 30
0.0
 10
3079.398706381716
 20
3063.116768244819
 30
0.0
 10
2934.58854857163
 20
3063.116768244819
 30
0.0
 10
2762.126856300949
 20
3063.116768244819
 30
0.0
 10
2610.461072543095
 20
3063.116768244819
 30
0.0
 10
2534.628180664168
 20
3063.116768244819
 30
0.0
  0
SPLINE
  5
177
330
1F
100
AcDbEntity
  8
Warndon
  6
SLD-Solid
370
    15
100
AcDbSpline
210
0.0
220
0.0
230
1.0
 70
     8
 71
     3
 72
    24
 73
    20
 74
     0
 42
0.000000001
 43
0.0000000001
 40
0.0
 40
0.0
 40
0.0
 40
0.0
 40
0.2499999999999996
 40
0.3124999999999993
 40
0.3124999999999993
 40
0.3749999999999991
 40
0.3749999999999991
 40
0.4999999999999992
 40
0.7499999999999976
 40
0.812499999999998
 40
0.812499999999998
 40
0.8749999999999991
 40
0.8749999999999991
 40
0.9375000000000001
 40
0.9687499999999996
 40
0.9687499999999996
 40
0.9843749999999998
 40
0.9843749999999998
 40
1.0
 40
1.0
 40
1.0
 40
1.0
 10
3315.545827722973
 20
2985.983484071166
 30
0.0
 10
3318.168420685454
 20
2995.727045740381
 30
0.0
 10
3320.264329784276
 20
3003.141798159341
 30
0.0
 10
3322.267142227911
 20
3009.863524264706
 30
0.0
 10
3323.088515842453
 20
3012.602029567181
 30
0.0
 10
3323.509895632718
 20
3013.998742647007
 30
0.0
 10
3324.81102187602
 20
3018.264669795511
 30
0.0
 10
3327.560852495044
 20
3027.09801751106
 30
0.0
 10
3331.415037085533
 20
3038.23875141907
 30
0.0
 10
3334.706775887033
 20
3046.431555871109
 30
0.0
 10
3336.069655330507
 20
3049.722248989733
 30
0.0
 10
3336.771684703677
 20
3051.374209904039
 30
0.0
 10
3338.236273694945
 20
3054.687234467028
 30
0.0
 10
3339.395103154072
 20
3057.179856192189
 30
0.0
 10
3340.823536590942
 20
3059.690382024184
 30
0.0
 10
3341.597605839353
 20
3060.949139304026
 30
0.0
 10
3341.866237119462
 20
3061.368957744248
 30
0.0
 10
3342.423281918972
 20
3062.211311813571
 30
0.0
 10
3342.70523331896
 20
3062.637418837536
 30
0.0
 10
3342.904516928855
 20
3063.116768244819
 30
0.0
  0
SPLINE
  5
179
330
1F
100
AcDbEntity
  8
Warndon
  6
SLD-Solid
370
    15
100
AcDbSpline
210
0.0
220
0.0
230
1.0
 70
     8
 71
     3
 72
    24
 73
    20
 74
     0
 42
0.000000001
 43
0.0000000001
 40
0.0
 40
0.0
 40
0.0
 40
0.0
 40
0.2499999999999984
 40
0.3124999999999982
 40
0.3124999999999982
 40
0.3749999999999979
 40
0.3749999999999979
 40
0.4999999999999974
 40
0.7499999999999964
 40
0.8124999999999964
 40
0.8124999999999964
 40
0.8749999999999968
 40
0.8749999999999968
 40
0.9374999999999969
 40
0.9687499999999975
 40
0.9687499999999975
 40
0.9843749999999987
 40
0.9843749999999987
 40
1.0
 40
1.0
 40
1.0
 40
1.0
 10
1753.710533605362
 20
2985.983484071166
 30
0.0
 10
1751.087940642882
 20
2995.727045740381
 30
0.0
 10
1748.992031544059
 20
3003.141798159341
 30
0.0
 10
1746.989219100424
 20
3009.863524264706
 30
0.0
 10
1746.167845485881
 20
3012.602029567181
 30
0.0
 10
1745.746465695617
 20
3013.998742647007
 30
0.0
 10
1744.445339452315
 20
3018.264669795511
 30
0.0
 10
1741.695508833291
 20
3027.09801751106
 30
0.0
 10
1737.841324242802
 20
3038.23875141907
 30
0.0
 10
1734.549585441302
 20
3046.431555871109
 30
0.0
 10
1733.186705997828
 20
3049.722248989732
 30
0.0
 10
1732.484676624658
 20
3051.374209904038
 30
0.0
 10
1731.02008763339
 20
3054.687234467028
 30
0.0
 10
1729.861258174264
 20
3057.179856192189
 30
0.0
 10
1728.432824737394
 20
3059.690382024184
 30
0.0
 10
1727.658755488982
 20
3060.949139304026
 30
0.0
 10
1727.390124208873
 20
3061.368957744248
 30
0.0
 10
1726.833079409363
 20
3062.211311813571
 30
0.0
 10
1726.551128009375
 20
3062.637418837536
 30
0.0
 10
1726.35184439948
 20
3063.116768244819
 30
0.0
  0
SPLINE
  5
17A
330
1F
100
AcDbEntity
  8
Warndon
  6
SLD-Solid
370
    15
100
AcDbSpline
210
0.0
220
0.0
230
1.0
 70
    24
 71
     3
 72
    18
 73
    14
 74
     0
 42
0.000000001
 43
0.0000000001
 40
-0.0000000000000071
 40
-0.0000000000000071
 40
-0.0000000000000071
 40
-0.0000000000000071
 40
67.2778512085532
 40
134.555702417104
 40
201.833553625656
 40
269.111404834215
 40
358.81520644561
 40
448.519008057013
 40
538.222809668415
 40
672.7785120855189
 40
807.3342145026229
 40
941.889916919727
 40
1076.44561933683
 40
1076.44561933683
 40
1076.44561933683
 40
1076.44561933683
 10
1726.35184439948
 20
3063.116768244818
 30
0.0
 10
1726.361815790328
 20
3063.116768244818
 30
0.0
 10
1726.381758572023
 20
3063.116768244818
 30
0.0
 10
1729.371656236485
 20
3063.116768244818
 30
0.0
 10
1737.309651089019
 20
3063.116768244818
 30
0.0
 10
1753.055950958946
 20
3063.116768244818
 30
0.0
 10
1780.306378663416
 20
3063.116768244818
 30
0.0
 10
1823.364465098244
 20
3063.116768244818
 30
0.0
 10
1890.007188401558
 20
3063.116768244818
 30
0.0
 10
1989.857654946619
 20
3063.116768244818
 30
0.0
 10
2134.667812756705
 20
3063.116768244818
 30
0.0
 10
2307.129505027386
 20
3063.116768244818
 30
0.0
 10
2458.79528878524
 20
3063.116768244818
 30
0.0
 10
2534.628180664168
 20
3063.116768244818
 30
0.0
  0
SPLINE
  5
17C
330
1F
100
AcDbEntity
  8
Warndon
  6
SLD-Solid
370
    15
100
AcDbSpline
210
0.0
220
0.0
230
1.0
 70
     8
 71
     3
 72
    24
 73
    20
 74
     0
 42
0.000000001
 43
0.0000000001
 40
0.0
 40
0.0
 40
0.0
 40
0.0
 40
0.2499999999999996
 40
0.3124999999999995
 40
0.3124999999999995
 40
0.3749999999999992
 40
0.3749999999999992
 40
0.4999999999999987
 40
0.7499999999999992
 40
0.8124999999999992
 40
0.8124999999999992
 40
0.8749999999999996
 40
0.8749999999999996
 40
0.9374999999999998
 40
0.9687499999999998
 40
0.9687499999999998
 40
0.984375
 40
0.984375
 40
1.0
 40
1.0
 40
1.0
 40
1.0
 10
3315.545827722973
 20
2985.983484071166
 30
0.0
 10
3318.168420685453
 20
2995.727045740381
 30
0.0
 10
3320.264329784276
 20
3003.141798159341
 30
0.0
 10
3322.267142227911
 20
3009.863524264706
 30
0.0
 10
3323.088515842453
 20
3012.602029567181
 30
0.0
 10
3323.509895632719
 20
3013.998742647007
 30
0.0
 10
3324.81102187602
 20
3018.264669795511
 30
0.0
 10
3327.560852495045
 20
3027.09801751106
 30
0.0
 10
3331.415037085532
 20
3038.23875141907
 30
0.0
 10
3334.706775887033
 20
3046.431555871109
 30
0.0
 10
3336.069655330507
 20
3049.722248989732
 30
0.0
 10
3336.771684703676
 20
3051.374209904038
 30
0.0
 10
3338.236273694945
 20
3054.687234467028
 30
0.0
 10
3339.395103154072
 20
3057.179856192189
 30
0.0
 10
3340.823536590941
 20
3059.690382024184
 30
0.0
 10
3341.597605839353
 20
3060.949139304026
 30
0.0
 10
3341.866237119461
 20
3061.368957744248
 30
0.0
 10
3342.423281918971
 20
3062.211311813571
 30
0.0
 10
3342.70523331896
 20
3062.637418837536
 30
0.0
 10
3342.904516928855
 20
3063.116768244818
 30
0.0
  0
SPLINE
  5
17D
330
1F
100
AcDbEntity
  8
Warndon
  6
SLD-Solid
370
    15
100
AcDbSpline
210
0.0
220
0.0
230
1.0
 70
     8
 71
     3
 72
     8
 73
     4
 74
     0
 42
0.000000001
 43
0.0000000001
 40
0.0
 40
0.0
 40
0.0
 40
0.0
 40
1.0
 40
1.0
 40
1.0
 40
1.0
 10
1808.775239487697
 20
2622.74913983693
 30
0.0
 10
1800.548607763207
 20
2739.865516191199
 30
0.0
 10
1783.26020572157
 20
2876.199367096769
 30
0.0
 10
1753.710533605362
 20
2985.983484071166
 30
0.0
  0
SPLINE
  5
17F
330
1F
100
AcDbEntity
  8
Warndon
  6
SLD-Solid
370
    15
100
AcDbSpline
210
0.0
220
0.0
230
1.0
 70
     8
 71
     3
 72
     8
 73
     4
 74
     0
 42
0.000000001
 43
0.0000000001
 40
0.0
 40
0.0
 40
0.0
 40
0.0
 40
1.0
 40
1.0
 40
1.0
 40
1.0
 10
3260.481121840637
 20
2622.74913983693
 30
0.0
 10
3268.707753565128
 20
2739.865516191199
 30
0.0
 10
3285.996155606765
 20
2876.199367096769
 30
0.0
 10
3315.545827722973
 20
2985.983484071166
 30
0.0
  0
SPLINE
  5
180
330
1F
100
AcDbEntity
  8
Warndon
  6
SLD-Solid
370
    15
100
AcDbSpline
210
0.0
220
0.0
230
1.0
 70
    24
 71
     3
 72
    18
 73
    14
 74
     0
 42
0.000000001
 43
0.0000000001
 40
0.0
 40
0.0
 40
0.0
 40
0.0
 40
60.3065486933611
 40
120.61309738672
 40
180.91964608008
 40
241.226194773446
 40
321.634926364587
 40
402.043657955733
 40
482.4523895468799
 40
603.0654869336
 40
723.67858432032
 40
844.2916817070399
 40
964.9047790937599
 40
964.9047790937599
 40
964.9047790937599
 40
964.9047790937599
 10
3260.481121840637
 20
2622.74913983693
 30
0.0
 10
3260.467339803323
 20
2622.74913983693
 30
0.0
 10
3260.439775728691
 20
2622.74913983693
 30
0.0
 10
3258.169282033545
 20
2622.74913983693
 30
0.0
 10
3252.294019467168
 20
2622.74913983693
 30
0.0
 10
3240.924262064489
 20
2622.74913983693
 30
0.0
 10
3221.730819993138
 20
2622.74913983693
 30
0.0
 10
3191.152146019855
 20
2622.74913983693
 30
0.0
 10
3140.993117009736
 20
2622.74913983693
 30
0.0
 10
3058.494697865838
 20
2622.74913983693
 30
0.0
 10
2926.812716655115
 20
2622.74913983693
 30
0.0
 10
2761.248298250011
 20
2622.74913983693
 30
0.0
 10
2610.168219859449
 20
2622.74913983693
 30
0.0
 10
2534.628180664168
 20
2622.74913983693
 30
0.0
  0
SPLINE
  5
182
330
1F
100
AcDbEntity
  8
Warndon
  6
SLD-Solid
370
    15
100
AcDbSpline
210
0.0
220
0.0
230
1.0
 70
     8
 71
     3
 72
     8
 73
     4
 74
     0
 42
0.000000001
 43
0.0000000001
 40
0.0
 40
0.0
 40
0.0
 40
0.0
 40
1.0
 40
1.0
 40
1.0
 40
1.0
 10
3260.481121840637
 20
2622.74913983693
 30
0.0
 10
3268.707753565128
 20
2739.865516191199
 30
0.0
 10
3285.996155606765
 20
2876.199367096769
 30
0.0
 10
3315.545827722973
 20
2985.983484071166
 30
0.0
  0
SPLINE
  5
183
330
1F
100
AcDbEntity
  8
Warndon
  6
SLD-Solid
370
    15
100
AcDbSpline
210
0.0
220
0.0
230
1.0
 70
    24
 71
     3
 72
    18
 73
    14
 74
     0
 42
0.000000001
 43
0.0000000001
 40
0.0
 40
0.0
 40
0.0
 40
0.0
 40
60.3065486933611
 40
120.61309738672
 40
180.91964608008
 40
241.226194773446
 40
321.634926364587
 40
402.043657955733
 40
482.4523895468799
 40
603.0654869336
 40
723.67858432032
 40
844.2916817070399
 40
964.9047790937599
 40
964.9047790937599
 40
964.9047790937599
 40
964.9047790937599
 10
1808.775239487697
 20
2622.74913983693
 30
0.0
 10
1808.789021525012
 20
2622.74913983693
 30
0.0
 10
1808.816585599643
 20
2622.74913983693
 30
0.0
 10
1811.087079294789
 20
2622.74913983693
 30
0.0
 10
1816.962341861166
 20
2622.74913983693
 30
0.0
 10
1828.332099263846
 20
2622.74913983693
 30
0.0
 10
1847.525541335197
 20
2622.74913983693
 30
0.0
 10
1878.10421530848
 20
2622.74913983693
 30
0.0
 10
1928.263244318599
 20
2622.74913983693
 30
0.0
 10
2010.761663462497
 20
2622.74913983693
 30
0.0
 10
2142.44364467322
 20
2622.74913983693
 30
0.0
 10
2308.008063078323
 20
2622.74913983693
 30
0.0
 10
2459.088141468886
 20
2622.74913983693
 30
0.0
 10
2534.628180664168
 20
2622.74913983693
 30
0.0
  0
SPLINE
  5
186
330
1F
100
AcDbEntity
  8
Warndon
  6
SLD-Solid
370
    15
100
AcDbSpline
210
0.0
220
0.0
230
1.0
 70
     8
 71
     3
 72
     8
 73
     4
 74
     0
 42
0.000000001
 43
0.0000000001
 40
0.0
 40
0.0
 40
0.0
 40
0.0
 40
1.0
 40
1.0
 40
1.0
 40
1.0
 10
1808.775239487697
 20
2622.74913983693
 30
0.0
 10
1800.548607763207
 20
2739.865516191199
 30
0.0
 10
1783.26020572157
 20
2876.199367096769
 30
0.0
 10
1753.710533605362
 20
2985.983484071166
 30
0.0
  0
SPLINE
  5
187
330
1F
100
AcDbEntity
  8
Warndon
  6
SLD-Solid
370
    15
100
AcDbSpline
210
0.0
220
0.0
230
1.0
 70
     8
 71
     3
 72
    15
 73
    11
 74
     0
 42
0.000000001
 43
0.0000000001
 40
0.0
 40
0.0
 40
0.0
 40
0.0
 40
0.1285325445061147
 40
0.2667501143474753
 40
0.4052611387999738
 40
0.5422927127005167
 40
0.677861029246528
 40
0.7895037082454416
 40
0.8993736180781416
 40
1.0
 40
1.0
 40
1.0
 40
1.0
 10
1683.628180664167
 20
3194.554996706019
 30
0.0
 10
1683.749807674496
 20
3196.074624288732
 30
0.0
 10
1684.002226383217
 20
3199.228384552422
 30
0.0
 10
1685.025044571764
 20
3203.934609927735
 30
0.0
 10
1686.584963748037
 20
3208.597932350676
 30
0.0
 10
1688.907924836422
 20
3212.91267221397
 30
0.0
 10
1691.891234254131
 20
3216.416050845326
 30
0.0
 10
1695.33434975056
 20
3218.914422701117
 30
0.0
 10
1698.896919547423
 20
3220.467454919319
 30
0.0
 10
1701.401000300948
 20
3220.634665518878
 30
0.0
 10
1702.59805980336
 20
3220.714599457439
 30
0.0
  0
SPLINE
  5
188
330
1F
100
AcDbEntity
  8
Warndon
  6
SLD-Solid
370
    15
100
AcDbSpline
210
0.0
220
0.0
230
1.0
 70
     8
 71
     3
 72
    15
 73
    11
 74
     0
 42
0.000000001
 43
0.0000000001
 40
0.0
 40
0.0
 40
0.0
 40
0.0
 40
0.1285325466489835
 40
0.2667501187946695
 40
0.4052611455563696
 40
0.5422927217414522
 40
0.6778610405476138
 40
0.7895037214077881
 40
0.8993736330721986
 40
1.0
 40
1.0
 40
1.0
 40
1.0
 10
3385.628180664168
 20
3194.554996706019
 30
0.0
 10
3385.506553653839
 20
3196.074624288735
 30
0.0
 10
3385.25413494512
 20
3199.228384552432
 30
0.0
 10
3384.231316756562
 20
3203.934609927697
 30
0.0
 10
3382.67139758033
 20
3208.59793235082
 30
0.0
 10
3380.348436491805
 20
3212.91267221345
 30
0.0
 10
3377.365127074575
 20
3216.416050847107
 30
0.0
 10
3373.922011576669
 20
3218.914422695793
 30
0.0
 10
3370.359441969224
 20
3220.467454857892
 30
0.0
 10
3367.85536141629
 20
3220.634665455094
 30
0.0
 10
3366.658302113287
 20
3220.714599385618
 30
0.0
  0
SPLINE
  5
18A
330
1F
100
AcDbEntity
  8
Warndon
  6
SLD-Solid
370
    15
100
AcDbSpline
210
0.0
220
0.0
230
1.0
 70
    24
 71
     3
 72
    18
 73
    14
 74
     0
 42
0.000000001
 43
0.0000000001
 40
-0.0000000000000071
 40
-0.0000000000000071
 40
-0.0000000000000071
 40
-0.0000000000000071
 40
67.2778512085532
 40
134.555702417104
 40
201.833553625656
 40
269.111404834215
 40
358.81520644561
 40
448.519008057013
 40
538.222809668415
 40
672.7785120855189
 40
807.3342145026229
 40
941.889916919727
 40
1076.44561933683
 40
1076.44561933683
 40
1076.44561933683
 40
1076.44561933683
 10
3385.628180664168
 20
3194.554996706019
 30
0.0
 10
3385.620184498657
 20
3194.554996706019
 30
0.0
 10
3385.604192167634
 20
3194.554996706019
 30
0.0
 10
3382.241395846886
 20
3194.554996706019
 30
0.0
 10
3373.234196304649
 20
3194.554996706019
 30
0.0
 10
3355.219342361039
 20
3194.554996706019
 30
0.0
 10
3323.792625333118
 20
3194.554996706019
 30
0.0
 10
3274.265911622614
 20
3194.554996706019
 30
0.0
 10
3199.078965998146
 20
3194.554996706019
 30
0.0
 10
3090.234171598802
 20
3194.554996706019
 30
0.0
 10
2938.619103582231
 20
3194.554996706019
 30
0.0
 10
2762.582251503973
 20
3194.554996706019
 30
0.0
 10
2610.612870944103
 20
3194.554996706019
 30
0.0
 10
2534.628180664168
 20
3194.554996706019
 30
0.0
  0
SPLINE
  5
18B
330
1F
100
AcDbEntity
  8
Warndon
  6
SLD-Solid
370
    15
100
AcDbSpline
210
0.0
220
0.0
230
1.0
 70
    24
 71
     3
 72
    18
 73
    14
 74
     0
 42
0.000000001
 43
0.0000000001
 40
-0.0000000000000071
 40
-0.0000000000000071
 40
-0.0000000000000071
 40
-0.0000000000000071
 40
67.2778512085532
 40
134.555702417104
 40
201.833553625656
 40
269.111404834215
 40
358.81520644561
 40
448.519008057013
 40
538.222809668415
 40
672.7785120855189
 40
807.3342145026229
 40
941.889916919727
 40
1076.44561933683
 40
1076.44561933683
 40
1076.44561933683
 40
1076.44561933683
 10
1683.628180664167
 20
3194.554996706019
 30
0.0
 10
1683.636176829678
 20
3194.554996706019
 30
0.0
 10
1683.6521691607
 20
3194.554996706019
 30
0.0
 10
1687.014965481448
 20
3194.554996706017
 30
0.0
 10
1696.022165023686
 20
3194.554996706019
 30
0.0
 10
1714.037018967295
 20
3194.554996706019
 30
0.0
 10
1745.463735995217
 20
3194.554996706019
 30
0.0
 10
1794.99044970572
 20
3194.554996706019
 30
0.0
 10
1870.177395330189
 20
3194.554996706019
 30
0.0
 10
1979.022189729532
 20
3194.554996706019
 30
0.0
 10
2130.637257746105
 20
3194.554996706019
 30
0.0
 10
2306.674109824362
 20
3194.554996706019
 30
0.0
 10
2458.643490384233
 20
3194.554996706019
 30
0.0
 10
2534.628180664168
 20
3194.554996706019
 30
0.0
  0
SPLINE
  5
18C
330
1F
100
AcDbEntity
  8
Warndon
  6
SLD-Solid
370
    15
100
AcDbSpline
210
0.0
220
0.0
230
1.0
 70
     8
 71
     3
 72
    15
 73
    11
 74
     0
 42
0.000000001
 43
0.0000000001
 40
0.0
 40
0.0
 40
0.0
 40
0.0
 40
0.1006263819480379
 40
0.2104962917775476
 40
0.3221389707732004
 40
0.4577072873152665
 40
0.5947388612118216
 40
0.7332498856602893
 40
0.8714674554976276
 40
1.0
 40
1.0
 40
1.0
 40
1.0
 10
1702.598059804387
 20
3220.714599457565
 30
0.0
 10
1701.401000301627
 20
3220.634665518988
 30
0.0
 10
1698.896919547751
 20
3220.467454919426
 30
0.0
 10
1695.334349750557
 20
3218.914422701126
 30
0.0
 10
1691.891234254131
 20
3216.416050845322
 30
0.0
 10
1688.907924836422
 20
3212.912672213972
 30
0.0
 10
1686.584963748037
 20
3208.597932350676
 30
0.0
 10
1685.025044571764
 20
3203.934609927735
 30
0.0
 10
1684.002226383218
 20
3199.228384552422
 30
0.0
 10
1683.749807674496
 20
3196.074624288732
 30
0.0
 10
1683.628180664167
 20
3194.554996706019
 30
0.0
  0
SPLINE
  5
18E
330
1F
100
AcDbEntity
  8
Warndon
  6
SLD-Solid
370
    15
100
AcDbSpline
210
0.0
220
0.0
230
1.0
 70
     8
 71
     3
 72
    15
 73
    11
 74
     0
 42
0.000000001
 43
0.0000000001
 40
0.0
 40
0.0
 40
0.0
 40
0.0
 40
0.1006263669578989
 40
0.210496278618649
 40
0.322138959475083
 40
0.4577072782767054
 40
0.5947388544571997
 40
0.733249881214262
 40
0.87146745335532
 40
1.0
 40
1.0
 40
1.0
 40
1.0
 10
3366.658302112105
 20
3220.714599385761
 30
0.0
 10
3367.85536141551
 20
3220.634665455222
 30
0.0
 10
3370.359441968846
 20
3220.467454858014
 30
0.0
 10
3373.922011576671
 20
3218.914422695804
 30
0.0
 10
3377.365127074574
 20
3216.416050847104
 30
0.0
 10
3380.348436491805
 20
3212.912672213451
 30
0.0
 10
3382.671397580329
 20
3208.59793235082
 30
0.0
 10
3384.231316756562
 20
3203.934609927698
 30
0.0
 10
3385.25413494512
 20
3199.228384552432
 30
0.0
 10
3385.50655365384
 20
3196.074624288735
 30
0.0
 10
3385.628180664168
 20
3194.554996706019
 30
0.0
  0
LINE
  5
18F
330
1F
100
AcDbEntity
  8
Bounding Box
100
AcDbLine
 10
1683.628180664167
 20
3220.74913983693
 30
0.0
 11
3385.628180664168
 21
3220.74913983693
 31
0.0
  0
LINE
  5
190
330
1F
100
AcDbEntity
  8
Bounding Box
100
AcDbLine
 10
1683.628180664167
 20
3220.74913983693
 30
0.0
 11
1683.628180664167
 21
2622.74913983693
 31
0.0
  0
LINE
  5
191
330
1F
100
AcDbEntity
  8
Bounding Box
100
AcDbLine
 10
1683.628180664167
 20
2622.74913983693
 30
0.0
 11
3385.628180664168
 21
2622.74913983693
 31
0.0
  0
LINE
  5
192
330
1F
100
AcDbEntity
  8
Bounding Box
100
AcDbLine
 10
3385.628180664168
 20
3220.74913983693
 30
0.0
 11
3385.628180664168
 21
2622.74913983693
 31
0.0
  0
SPLINE
  5
1A7
330
1F
100
AcDbEntity
  8
Warndon
  6
SLD-Solid
370
    15
100
AcDbSpline
210
0.0
220
0.0
230
1.0
 70
     8
 71
     3
 72
    37
 73
    33
 74
     0
 42
0.000000001
 43
0.0000000001
 40
0.0
 40
0.0
 40
0.0
 40
0.0
 40
0.0845425671477887
 40
0.1660693933674953
 40
0.2417249525241536
 40
0.293024038053095
 40
0.3385942176223984
 40
0.3777927945600291
 40
0.4106124257997526
 40
0.4250337528761059
 40
0.4385791886562371
 40
0.451832262416236
 40
0.4653783607312741
 40
0.5000537260123061
 40
0.5361840240366531
 40
0.5713625427294364
 40
0.6058492271259319
 40
0.6400362620526485
 40
0.6973698532542884
 40
0.7572656207581542
 40
0.7891271328743291
 40
0.8218928563101577
 40
0.8376162569830555
 40
0.8523855473632339
 40
0.8662699512141982
 40
0.8800257199160608
 40
0.894564965924482
 40
0.9105476157164932
 40
0.9283809118824729
 40
0.9482183551896897
 40
0.9937529279137653
 40
0.9999999999999998
 40
0.9999999999999998
 40
0.9999999999999998
 40
0.9999999999999998
 10
4167.547833647754
 20
3194.554996706019
 30
0.0
 10
4167.617426596542
 20
3194.298592672001
 30
0.0
 10
4167.754130025101
 20
3193.794930862063
 30
0.0
 10
4167.998632224936
 20
3192.917615494518
 30
0.0
 10
4168.291249438044
 20
3191.887559904209
 30
0.0
 10
4168.643240629694
 20
3190.672103564195
 30
0.0
 10
4169.034093438178
 20
3189.344092148397
 30
0.0
 10
4169.520916875909
 20
3187.718299452096
 30
0.0
 10
4170.053588170513
 20
3185.972124528494
 30
0.0
 10
4170.565098688841
 20
3184.322864349328
 30
0.0
 10
4170.975708708531
 20
3183.011617780014
 30
0.0
 10
4171.430320724033
 20
3181.573165073296
 30
0.0
 10
4172.159779952448
 20
3179.284856763254
 30
0.0
 10
4173.17970090014
 20
3176.126174550452
 30
0.0
 10
4174.45065017616
 20
3172.21900786109
 30
0.0
 10
4175.731470486773
 20
3168.26274211816
 30
0.0
 10
4176.966154407284
 20
3164.38236293211
 30
0.0
 10
4178.425334277787
 20
3159.661094614149
 30
0.0
 10
4180.091909698418
 20
3153.95990681362
 30
0.0
 10
4181.578966435068
 20
3148.298576453973
 30
0.0
 10
4182.691755367358
 20
3143.54897667583
 30
0.0
 10
4183.343096067264
 20
3140.49094870311
 30
0.0
 10
4183.820521242413
 20
3138.05245621087
 30
0.0
 10
4184.134393321544
 20
3136.340606784419
 30
0.0
 10
4184.401347639032
 20
3134.767450829656
 30
0.0
 10
4184.611974509826
 20
3133.412786260912
 30
0.0
 10
4184.772160740928
 20
3132.280894076247
 30
0.0
 10
4184.892163242817
 20
3131.346962731555
 30
0.0
 10
4184.973331919818
 20
3130.564072675021
 30
0.0
 10
4185.024333123393
 20
3129.656906785458
 30
0.0
 10
4185.087685099207
 20
3129.116470715346
 30
0.0
 10
4185.141008769966
 20
3128.963979297659
 30
0.0
 10
4185.147441876067
 20
3128.945582337069
 30
0.0
  0
SPLINE
  5
1A8
330
1F
100
AcDbEntity
  8
Warndon
  6
SLD-Solid
370
    15
100
AcDbSpline
210
0.0
220
0.0
230
1.0
 70
     8
 71
     3
 72
    35
 73
    31
 74
     0
 42
0.000000001
 43
0.0000000001
 40
0.0
 40
0.0
 40
0.0
 40
0.0
 40
0.0035727176138032
 40
0.0504399951023561
 40
0.0906525416920128
 40
0.124199087491412
 40
0.1390036733638169
 40
0.1530345309841429
 40
0.1669287837129397
 40
0.1812317585326879
 40
0.2116652227656953
 40
0.2441747359928532
 40
0.2772224041078426
 40
0.3089188256465443
 40
0.338835991149595
 40
0.3676644464918555
 40
0.4055513562120157
 40
0.444106517462051
 40
0.4834149257707461
 40
0.5117677087938013
 40
0.539072698520613
 40
0.5676904879235544
 40
0.5999229417347402
 40
0.6367754573046382
 40
0.6784136627470062
 40
0.7245462973450883
 40
0.7746358265186219
 40
0.8463941492268748
 40
0.9221648665881712
 40
1.0
 40
1.0
 40
1.0
 40
1.0
 10
4951.025648267962
 20
3129.287825819659
 30
0.0
 10
4951.028035708247
 20
3129.29826496495
 30
0.0
 10
4951.061741836002
 20
3129.445645892937
 30
0.0
 10
4951.086033941567
 20
3130.04706094529
 30
0.0
 10
4951.180543216989
 20
3131.190351362921
 30
0.0
 10
4951.370150868669
 20
3132.633100659258
 30
0.0
 10
4951.597272062871
 20
3134.151959787391
 30
0.0
 10
4951.80455113194
 20
3135.429941446929
 30
0.0
 10
4952.058654181545
 20
3136.885851279402
 30
0.0
 10
4952.46014575598
 20
3139.037567012813
 30
0.0
 10
4953.05479688711
 20
3141.961174879352
 30
0.0
 10
4953.854445673767
 20
3145.519213881132
 30
0.0
 10
4954.72562526126
 20
3149.074041306413
 30
0.0
 10
4955.637915910047
 20
3152.538380259289
 30
0.0
 10
4956.566109119364
 20
3155.864154385537
 30
0.0
 10
4957.60426998007
 20
3159.415171093924
 30
0.0
 10
4958.779817461728
 20
3163.267121326914
 30
0.0
 10
4960.105722106992
 20
3167.461994383037
 30
0.0
 10
4961.342002750579
 20
3171.290249774216
 30
0.0
 10
4962.472902293825
 20
3174.766840411943
 30
0.0
 10
4963.452474023098
 20
3177.781586267109
 30
0.0
 10
4964.301111201991
 20
3180.412203744868
 30
0.0
 10
4965.025191982133
 20
3182.682699061353
 30
0.0
 10
4965.655445444765
 20
3184.687306217433
 30
0.0
 10
4966.209218952104
 20
3186.47777822934
 30
0.0
 10
4966.699274475683
 20
3188.091124409945
 30
0.0
 10
4967.189903348262
 20
3189.7379987789
 30
0.0
 10
4967.663075876851
 20
3191.3670026855
 30
0.0
 10
4968.122779936967
 20
3192.992940104079
 30
0.0
 10
4968.404730214632
 20
3194.029666741506
 30
0.0
 10
4968.547600016577
 20
3194.554996706019
 30
0.0
  0
SPLINE
  5
1A9
330
1F
100
AcDbEntity
  8
Warndon
  6
SLD-Solid
370
    15
100
AcDbSpline
210
0.0
220
0.0
230
1.0
 70
     8
 71
     3
 72
    36
 73
    32
 74
     0
 42
0.000000001
 43
0.0000000001
 40
0.0
 40
0.0
 40
0.0
 40
0.0
 40
0.0627345882394874
 40
0.1235594069778048
 40
0.1806417294636302
 40
0.2199731052062114
 40
0.255614378886698
 40
0.2870750821018361
 40
0.3141260711646238
 40
0.3370707545565059
 40
0.3573016198305284
 40
0.3772216330606176
 40
0.4035040513093579
 40
0.4311092150134072
 40
0.4585596310640996
 40
0.4850611483551743
 40
0.5276967975007203
 40
0.5744079589595098
 40
0.5994411200086847
 40
0.6238101977429695
 40
0.6355662912049683
 40
0.6472175885011311
 40
0.6591438302797074
 40
0.6716946155623179
 40
0.699524070513823
 40
0.7317786213593088
 40
0.7685515500687665
 40
0.8094643412905874
 40
0.8693365020225336
 40
0.9335490140278013
 40
1.0
 40
1.0
 40
1.0
 40
1.0
 10
4185.127285262612
 20
3128.946547386387
 30
0.0
 10
4185.238435145006
 20
3128.645619557423
 30
0.0
 10
4185.457351279469
 20
3128.052924759651
 30
0.0
 10
4186.039056695566
 20
3127.128485295311
 30
0.0
 10
4186.649616497599
 20
3126.098455824483
 30
0.0
 10
4187.334170728619
 20
3124.951619703862
 30
0.0
 10
4188.048990835265
 20
3123.743904071014
 30
0.0
 10
4188.887678026992
 20
3122.314306411553
 30
0.0
 10
4189.869252749236
 20
3120.618947678722
 30
0.0
 10
4191.024374904074
 20
3118.588946707167
 30
0.0
 10
4192.41585331754
 20
3116.07929248547
 30
0.0
 10
4194.020944952636
 20
3113.080998258857
 30
0.0
 10
4195.739373355376
 20
3109.711356985154
 30
0.0
 10
4197.49591306063
 20
3106.037744335024
 30
0.0
 10
4199.156591418691
 20
3102.299972356107
 30
0.0
 10
4201.02448287082
 20
3097.749933206408
 30
0.0
 10
4203.075703047262
 20
3092.169551963887
 30
0.0
 10
4204.823531272635
 20
3086.63969440921
 30
0.0
 10
4206.135295245971
 20
3081.953157389473
 30
0.0
 10
4206.917994424985
 20
3078.89700541903
 30
0.0
 10
4207.477025064527
 20
3076.566486041925
 30
0.0
 10
4207.850593415866
 20
3074.942521035894
 30
0.0
 10
4208.179096190799
 20
3073.45743044244
 30
0.0
 10
4208.576346756444
 20
3071.595588006059
 30
0.0
 10
4208.975777916012
 20
3069.617104879269
 30
0.0
 10
4209.323710506885
 20
3067.800502584832
 30
0.0
 10
4209.584181819
 20
3066.380058371382
 30
0.0
 10
4209.801033132244
 20
3065.163632283213
 30
0.0
 10
4209.962841750902
 20
3064.231764363571
 30
0.0
 10
4210.103760597887
 20
3063.569206449267
 30
0.0
 10
4210.217227643401
 20
3063.269293641099
 30
0.0
 10
4210.274933101823
 20
3063.116768244818
 30
0.0
  0
SPLINE
  5
1AA
330
1F
100
AcDbEntity
  8
Warndon
  6
SLD-Solid
370
    15
100
AcDbSpline
210
0.0
220
0.0
230
1.0
 70
     8
 71
     3
 72
    34
 73
    30
 74
     0
 42
0.000000001
 43
0.0000000001
 40
0.0
 40
0.0
 40
0.0
 40
0.0
 40
0.043719735233541
 40
0.1056948454777513
 40
0.1332125343420239
 40
0.1584859634077826
 40
0.1817535689544532
 40
0.2034444577013168
 40
0.2242279309487683
 40
0.244962014803848
 40
0.2882896747613271
 40
0.3438550075573033
 40
0.399481771113099
 40
0.4509185734723499
 40
0.498519349884846
 40
0.5436340347187758
 40
0.6158178148898381
 40
0.6880518521158678
 40
0.7256054855373055
 40
0.7650797609454772
 40
0.8045523596236051
 40
0.8230810950691623
 40
0.8408883845158724
 40
0.8590617007104757
 40
0.8788310507717229
 40
0.9009765971007157
 40
0.9258920182211742
 40
0.9636099781743132
 40
1.0
 40
1.0
 40
1.0
 40
1.0
 10
4925.911347870378
 20
3063.4492591449
 30
0.0
 10
4925.95715901681
 20
3063.583216179714
 30
0.0
 10
4926.067909962979
 20
3063.90706462069
 30
0.0
 10
4926.228784449296
 20
3064.881260201461
 30
0.0
 10
4926.448112078431
 20
3066.09925982721
 30
0.0
 10
4926.638991997463
 20
3067.1454575396
 30
0.0
 10
4926.869057417607
 20
3068.365324030473
 30
0.0
 10
4927.143614801731
 20
3069.772831972648
 30
0.0
 10
4927.469534806302
 20
3071.379979198552
 30
0.0
 10
4927.978359651663
 20
3073.784117570685
 30
0.0
 10
4928.795509914639
 20
3077.388429314627
 30
0.0
 10
4929.948192234088
 20
3081.949420843492
 30
0.0
 10
4931.285351474964
 20
3086.661839115386
 30
0.0
 10
4932.711995993411
 20
3091.165114015721
 30
0.0
 10
4934.171724419371
 20
3095.330618372758
 30
0.0
 10
4935.975653114409
 20
3100.032288142984
 30
0.0
 10
4938.258962981489
 20
3105.368171663199
 30
0.0
 10
4940.678701066853
 20
3110.37410204212
 30
0.0
 10
4942.790177861674
 20
3114.430329702432
 30
0.0
 10
4944.477958345789
 20
3117.535745398577
 30
0.0
 10
4945.934185480454
 20
3120.121072254916
 30
0.0
 10
4947.094185337387
 20
3122.136939345836
 30
0.0
 10
4947.904386909128
 20
3123.528031298319
 30
0.0
 10
4948.619091912917
 20
3124.742966154986
 30
0.0
 10
4949.230694381238
 20
3125.77442296835
 30
0.0
 10
4949.750673969053
 20
3126.646393102102
 30
0.0
 10
4950.244806875383
 20
3127.467845800204
 30
0.0
 10
4950.647213527457
 20
3128.148201821899
 30
0.0
 10
4950.7729449342
 20
3128.460502225944
 30
0.0
 10
4950.834684149407
 20
3128.613854378392
 30
0.0
  0
SPLINE
  5
1AB
330
1F
100
AcDbEntity
  8
Warndon
  6
SLD-Solid
370
    15
100
AcDbSpline
210
0.0
220
0.0
230
1.0
 70
     8
 71
     3
 72
    31
 73
    27
 74
     0
 42
0.000000001
 43
0.0000000001
 40
0.0
 40
0.0
 40
0.0
 40
0.0
 40
0.0045377654167341
 40
0.0238745011131271
 40
0.0414305460134529
 40
0.0577455414241888
 40
0.0736747327856858
 40
0.0901133633654199
 40
0.1248759611605833
 40
0.1619744110143022
 40
0.1984294816661309
 40
0.2331996867160222
 40
0.2849344893009376
 40
0.3332463492754288
 40
0.3632420083685509
 40
0.3931318355408119
 40
0.4237653548078953
 40
0.4557436072546109
 40
0.5011042815332148
 40
0.5499816051311245
 40
0.6024550081627553
 40
0.6704764798521711
 40
0.7442479237637195
 40
0.8237193920593409
 40
0.9088781004054292
 40
1.0
 40
1.0
 40
1.0
 40
1.0
 10
4210.315271319158
 20
3063.119705337997
 30
0.0
 10
4210.333134188736
 20
3063.065491494191
 30
0.0
 10
4210.427115930938
 20
3062.780256724337
 30
0.0
 10
4210.832822110177
 20
3062.133301421724
 30
0.0
 10
4211.506374783701
 20
3061.129698119807
 30
0.0
 10
4212.270009195591
 20
3059.89063373968
 30
0.0
 10
4213.104386238295
 20
3058.42864455574
 30
0.0
 10
4214.259045225539
 20
3056.226221708232
 30
0.0
 10
4215.653176152213
 20
3053.210681147374
 30
0.0
 10
4217.226643297101
 20
3049.538253750714
 30
0.0
 10
4218.767286657934
 20
3045.802646152443
 30
0.0
 10
4220.453771717773
 20
3041.523283345553
 30
0.0
 10
4222.215011166691
 20
3036.822292772859
 30
0.0
 10
4223.840131319191
 20
3032.234483376989
 30
0.0
 10
4225.138116042169
 20
3028.415810329539
 30
0.0
 10
4226.155739532996
 20
3025.331907774321
 30
0.0
 10
4227.10526476552
 20
3022.378207333201
 30
0.0
 10
4228.102498701958
 20
3019.204961671155
 30
0.0
 10
4229.124016950549
 20
3015.879793148406
 30
0.0
 10
4230.150348010754
 20
3012.475003172706
 30
0.0
 10
4231.18478850472
 20
3009.005323117828
 30
0.0
 10
4232.2432725928
 20
3005.403085409885
 30
0.0
 10
4233.385948545018
 20
3001.42956112221
 30
0.0
 10
4234.627472666239
 20
2997.013252362611
 30
0.0
 10
4236.019933518839
 20
2991.96467453487
 30
0.0
 10
4237.085125760907
 20
2988.021675268075
 30
0.0
 10
4237.635738455431
 20
2985.983484071166
 30
0.0
  0
SPLINE
  5
1AC
330
1F
100
AcDbEntity
  8
Warndon
  6
SLD-Solid
370
    15
100
AcDbSpline
210
0.0
220
0.0
230
1.0
 70
     8
 71
     3
 72
    32
 73
    28
 74
     0
 42
0.000000001
 43
0.0000000001
 40
0.0
 40
0.0
 40
0.0
 40
0.0
 40
0.0796715199105396
 40
0.1565656225820336
 40
0.2297802278596366
 40
0.2983305591307713
 40
0.3612520565659757
 40
0.4177373576641016
 40
0.455621561667279
 40
0.4898056716333062
 40
0.5209321128748035
 40
0.5500421054026717
 40
0.5787178638843546
 40
0.6082458163984748
 40
0.6391087350922169
 40
0.6712016516749287
 40
0.7371231389843
 40
0.802482424166298
 40
0.8362037003788932
 40
0.8720035429444394
 40
0.9086557644943997
 40
0.9260503219678868
 40
0.9425317769722207
 40
0.9586038249866712
 40
0.9753155700976561
 40
0.9934881289404774
 40
1.0
 40
1.0
 40
1.0
 40
1.0
 10
4898.4596952089
 20
2985.983484071166
 30
0.0
 10
4898.829581982145
 20
2987.354700507788
 30
0.0
 10
4899.556460959765
 20
2990.049331604766
 30
0.0
 10
4900.545214685638
 20
2993.671024721709
 30
0.0
 10
4901.471631056181
 20
2997.029460858642
 30
0.0
 10
4902.350657255076
 20
3000.174264019504
 30
0.0
 10
4903.20713993097
 20
3003.192782548778
 30
0.0
 10
4904.007341658195
 20
3005.965974397538
 30
0.0
 10
4904.769872255826
 20
3008.567835386164
 30
0.0
 10
4905.490703280495
 20
3010.997499336768
 30
0.0
 10
4906.283829665913
 20
3013.646690929058
 30
0.0
 10
4907.174353426973
 20
3016.582542962924
 30
0.0
 10
4908.153607764099
 20
3019.751694362084
 30
0.0
 10
4909.201397530543
 20
3023.065881223502
 30
0.0
 10
4910.316465828831
 20
3026.499341531429
 30
0.0
 10
4911.902717182825
 20
3031.236355705587
 30
0.0
 10
4913.990663576567
 20
3037.165591668125
 30
0.0
 10
4916.276705073775
 20
3043.182469221056
 30
0.0
 10
4918.251782457292
 20
3048.063899063091
 30
0.0
 10
4919.855782541871
 20
3051.852123528571
 30
0.0
 10
4921.266566925658
 20
3055.035831661108
 30
0.0
 10
4922.49714491443
 20
3057.506193217352
 30
0.0
 10
4923.417633302999
 20
3059.195470116413
 30
0.0
 10
4924.299367469103
 20
3060.673458518059
 30
0.0
 10
4925.080619511856
 20
3061.876264774022
 30
0.0
 10
4925.614771644614
 20
3062.660696156425
 30
0.0
 10
4925.736230164314
 20
3063.026004989435
 30
0.0
 10
4925.768271504645
 20
3063.122375212563
 30
0.0
  0
SPLINE
  5
1AD
330
1F
100
AcDbEntity
  8
Warndon
  6
SLD-Solid
370
    15
100
AcDbSpline
210
0.0
220
0.0
230
1.0
 70
     8
 71
     3
 72
    32
 73
    28
 74
     0
 42
0.000000001
 43
0.0000000001
 40
0.0
 40
0.0
 40
0.0
 40
0.0
 40
0.0852822467947174
 40
0.1679664311946445
 40
0.2454902607274159
 40
0.315344085329282
 40
0.3564537875303308
 40
0.3923970312710483
 40
0.4225533624667886
 40
0.4410745785096969
 40
0.4559682378597556
 40
0.467402754501158
 40
0.4720785889191487
 40
0.4763354514322224
 40
0.4805220512395535
 40
0.4850383016057295
 40
0.4962959014407139
 40
0.5115652766840025
 40
0.5310897510334893
 40
0.5635292288434184
 40
0.6027491608916451
 40
0.6480177659338585
 40
0.7091982738941557
 40
0.7764937854113752
 40
0.8484119379916258
 40
0.9234288009821934
 40
1.0
 40
1.0
 40
1.0
 40
1.0
 10
4237.635738455431
 20
2985.983484071166
 30
0.0
 10
4237.957435618078
 20
2984.784386803836
 30
0.0
 10
4238.591029670373
 20
2982.422721906175
 30
0.0
 10
4239.523638415984
 20
2978.89109810156
 30
0.0
 10
4240.423119684495
 20
2975.449215181544
 30
0.0
 10
4241.198158697093
 20
2972.45105750387
 30
0.0
 10
4241.846837363851
 20
2969.91886916077
 30
0.0
 10
4242.357911662952
 20
2967.909375940685
 30
0.0
 10
4242.804988509607
 20
2966.138452788711
 30
0.0
 10
4243.188879702304
 20
2964.606636374791
 30
0.0
 10
4243.500880266868
 20
2963.353739021577
 30
0.0
 10
4243.76246404919
 20
2962.296073988881
 30
0.0
 10
4243.962303929427
 20
2961.482872381948
 30
0.0
 10
4244.098400188477
 20
2960.926767564552
 30
0.0
 10
4244.228293189059
 20
2960.393684636641
 30
0.0
 10
4244.400924133296
 20
2959.681908318393
 30
0.0
 10
4244.586088063792
 20
2958.911971849988
 30
0.0
 10
4244.762066556194
 20
2958.173475268788
 30
0.0
 10
4244.940207446503
 20
2957.419060334796
 30
0.0
 10
4245.100525551778
 20
2956.732449443788
 30
0.0
 10
4245.240587241278
 20
2956.126502601208
 30
0.0
 10
4245.361680095136
 20
2955.598255804022
 30
0.0
 10
4245.459595323183
 20
2955.168834958845
 30
0.0
 10
4245.535952653503
 20
2954.83447587169
 30
0.0
 10
4245.592753948121
 20
2954.588285436628
 30
0.0
 10
4245.636685312471
 20
2954.401194749418
 30
0.0
 10
4245.661622651913
 20
2954.296597874183
 30
0.0
 10
4245.674219171428
 20
2954.243763184933
 30
0.0
  0
SPLINE
  5
1AE
330
1F
100
AcDbEntity
  8
Warndon
  6
SLD-Solid
370
    15
100
AcDbSpline
210
0.0
220
0.0
230
1.0
 70
     8
 71
     3
 72
    32
 73
    28
 74
     0
 42
0.000000001
 43
0.0000000001
 40
0.0
 40
0.0
 40
0.0
 40
0.0
 40
0.0765711990247929
 40
0.151588062021868
 40
0.223506214607679
 40
0.2908017261289966
 40
0.3519822340914454
 40
0.3972508391335516
 40
0.4364707711795468
 40
0.468910248984652
 40
0.4884347233284345
 40
0.5037040985638362
 40
0.5149616983885105
 40
0.5194779487490876
 40
0.5236645485511233
 40
0.5279214110597055
 40
0.5325972454742538
 40
0.5440317621115689
 40
0.5589254214600227
 40
0.577446637502816
 40
0.6076029686998384
 40
0.6435462124428693
 40
0.6846559146469078
 40
0.754509739254083
 40
0.8320335687927618
 40
0.914717753198923
 40
1.0
 40
1.0
 40
1.0
 40
1.0
 10
4890.421214503609
 20
2954.243763229845
 30
0.0
 10
4890.433811022671
 20
2954.296597917185
 30
0.0
 10
4890.458748361214
 20
2954.401194788637
 30
0.0
 10
4890.502679724231
 20
2954.588285470235
 30
0.0
 10
4890.559481017551
 20
2954.834475899837
 30
0.0
 10
4890.635838346629
 20
2955.168834981765
 30
0.0
 10
4890.73375357356
 20
2955.598255822251
 30
0.0
 10
4890.854846426438
 20
2956.126502615317
 30
0.0
 10
4890.994908115102
 20
2956.732449454392
 30
0.0
 10
4891.155226219666
 20
2957.419060342428
 30
0.0
 10
4891.333367109393
 20
2958.173475273989
 30
0.0
 10
4891.509345601328
 20
2958.911971853251
 30
0.0
 10
4891.694509531467
 20
2959.681908320181
 30
0.0
 10
4891.867140475479
 20
2960.393684637502
 30
0.0
 10
4891.997033475913
 20
2960.926767564798
 30
0.0
 10
4892.133129734822
 20
2961.482872381612
 30
0.0
 10
4892.332969614891
 20
2962.296073987862
 30
0.0
 10
4892.594553397008
 20
2963.353739019733
 30
0.0
 10
4892.906553961389
 20
2964.606636372213
 30
0.0
 10
4893.290445153937
 20
2966.138452785551
 30
0.0
 10
4893.737522000495
 20
2967.909375937154
 30
0.0
 10
4894.248596299554
 20
2969.918869157107
 30
0.0
 10
4894.897274966333
 20
2972.451057500329
 30
0.0
 10
4895.672313979045
 20
2975.449215178484
 30
0.0
 10
4896.571795247768
 20
2978.891098099348
 30
0.0
 10
4897.504403993651
 20
2982.422721905022
 30
0.0
 10
4898.137998046149
 20
2984.784386803447
 30
0.0
 10
4898.4596952089
 20
2985.983484071166
 30
0.0
  0
LINE
  5
1AF
330
1F
100
AcDbEntity
  8
Warndon
  6
SLD-Solid
370
    15
100
AcDbLine
 10
4948.135996340101
 20
3220.74903769361
 30
0.0
 11
4947.835486375318
 21
3220.749048729236
 31
0.0
  0
SPLINE
  5
1B0
330
1F
100
AcDbEntity
  8
Warndon
  6
SLD-Solid
370
    15
100
AcDbSpline
210
0.0
220
0.0
230
1.0
 70
     8
 71
     3
 72
    17
 73
    13
 74
     0
 42
0.000000001
 43
0.0000000001
 40
0.0
 40
0.0
 40
0.0
 40
0.0
 40
0.0867765674752038
 40
0.1814711491731735
 40
0.2832555740324403
 40
0.3911211059462544
 40
0.5037876417193993
 40
0.612110240622736
 40
0.7185662968348973
 40
0.8182775609353853
 40
0.9104159738094155
 40
1.0
 40
1.0
 40
1.0
 40
1.0
 10
4677.925161479079
 20
3220.749047122748
 30
0.0
 10
4674.839056433877
 20
3220.749047459337
 30
0.0
 10
4668.38525161863
 20
3220.749048163231
 30
0.0
 10
4658.200265416605
 20
3220.749049568404
 30
0.0
 10
4647.1764805939
 20
3220.749051269692
 30
0.0
 10
4635.415155123412
 20
3220.749053286427
 30
0.0
 10
4623.340611037655
 20
3220.749055541018
 30
0.0
 10
4611.262180498299
 20
3220.749058000817
 30
0.0
 10
4599.625783535787
 20
3220.74906062518
 30
0.0
 10
4588.565664140508
 20
3220.749063515912
 30
0.0
 10
4578.11948542064
 20
3220.749066733808
 30
0.0
 10
4571.373364011884
 20
3220.749069022928
 30
0.0
 10
4568.047716832165
 20
3220.7490701514
 30
0.0
  0
SPLINE
  5
1B1
330
1F
100
AcDbEntity
  8
Warndon
  6
SLD-Solid
370
    15
100
AcDbSpline
210
0.0
220
0.0
230
1.0
 70
     8
 71
     3
 72
    11
 73
     7
 74
     0
 42
0.000000001
 43
0.0000000001
 40
0.0
 40
0.0
 40
0.0
 40
0.0
 40
0.2203879276711368
 40
0.4867581209580862
 40
0.7469682826906132
 40
0.9999999999999998
 40
0.9999999999999998
 40
0.9999999999999998
 40
0.9999999999999998
 10
4186.090707291233
 20
3220.733619955267
 30
0.0
 10
4186.092880045654
 20
3220.731586962965
 30
0.0
 10
4186.097678883188
 20
3220.727096809974
 30
0.0
 10
4186.208199851017
 20
3220.717938017128
 30
0.0
 10
4186.411687226185
 20
3220.70678805318
 30
0.0
 10
4186.662921039535
 20
3220.697629275877
 30
0.0
 10
4186.786781008556
 20
3220.693113936728
 30
0.0
  0
SPLINE
  5
1B2
330
1F
100
AcDbEntity
  8
Warndon
  6
SLD-Solid
370
    15
100
AcDbSpline
210
0.0
220
0.0
230
1.0
 70
     8
 71
     3
 72
    64
 73
    60
 74
     0
 42
0.000000001
 43
0.0000000001
 40
0.0
 40
0.0
 40
0.0
 40
0.0
 40
0.0129849712538235
 40
0.0264168520449826
 40
0.0410508797724545
 40
0.0565874466278437
 40
0.0722520820880616
 40
0.087481836536152
 40
0.1011913944821342
 40
0.1141317308515186
 40
0.126192102391649
 40
0.1372800195831912
 40
0.1473144897344767
 40
0.1644863626791665
 40
0.1816132126460461
 40
0.1987497942491432
 40
0.2158684730043556
 40
0.2329515273284247
 40
0.2499850159780112
 40
0.2703452590633461
 40
0.2907628765844181
 40
0.3113688600929035
 40
0.3321823927962736
 40
0.3532236928556252
 40
0.3745145312593437
 40
0.3960768559183674
 40
0.4176458597672461
 40
0.4380773790862894
 40
0.4571781757378759
 40
0.4714485140862434
 40
0.4847768255055983
 40
0.4971226151806413
 40
0.5084462844577677
 40
0.5188183174560264
 40
0.5295551088212674
 40
0.5410744976592527
 40
0.5546827427495043
 40
0.5693114781412041
 40
0.5850043318779005
 40
0.6018085309627985
 40
0.6197735588801648
 40
0.6335269252951977
 40
0.6483708033082472
 40
0.6643440833384274
 40
0.6814877090431227
 40
0.6998446168661154
 40
0.7190979851989833
 40
0.7396087010727631
 40
0.7614218586888519
 40
0.784583609935307
 40
0.8041267879365802
 40
0.8246350019793204
 40
0.8461786975358871
 40
0.8688361784659683
 40
0.8926940581665364
 40
0.9173866000238051
 40
0.943428093606194
 40
0.9709266671843623
 40
1.0
 40
1.0
 40
1.0
 40
1.0
 10
4568.047716832165
 20
3220.7490701514
 30
0.0
 10
4564.519791704613
 20
3220.749068954496
 30
0.0
 10
4557.342519279551
 20
3220.749066519495
 30
0.0
 10
4546.191404373019
 20
3220.749063126101
 30
0.0
 10
4534.36270168263
 20
3220.749060118877
 30
0.0
 10
4521.957395037032
 20
3220.749057389117
 30
0.0
 10
4509.435758751546
 20
3220.749054902099
 30
0.0
 10
4497.469727415113
 20
3220.749052718998
 30
0.0
 10
4486.305953069462
 20
3220.74905085302
 30
0.0
 10
4476.058830807438
 20
3220.749049303186
 30
0.0
 10
4466.578569282396
 20
3220.749048038957
 30
0.0
 10
4457.931924007161
 20
3220.749047062253
 30
0.0
 10
4448.035117858601
 20
3220.749046207
 30
0.0
 10
4436.708833045187
 20
3220.749045664379
 30
0.0
 10
4423.791095781257
 20
3220.749044902323
 30
0.0
 10
4411.142275799072
 20
3220.749044178553
 30
0.0
 10
4398.78584522767
 20
3220.749043445927
 30
0.0
 10
4386.760347377276
 20
3220.749042716665
 30
0.0
 10
4374.326274281019
 20
3220.749041940288
 30
0.0
 10
4361.572920012849
 20
3220.749041111001
 30
0.0
 10
4348.583274225692
 20
3220.749040243103
 30
0.0
 10
4336.082265699422
 20
3220.749039394084
 30
0.0
 10
4324.074782845368
 20
3220.749038560994
 30
0.0
 10
4312.58838672189
 20
3220.749037738401
 30
0.0
 10
4301.645180978162
 20
3220.749036951217
 30
0.0
 10
4291.299702156116
 20
3220.749036108837
 30
0.0
 10
4281.766218022985
 20
3220.749035579089
 30
0.0
 10
4273.247956189231
 20
3220.74914018355
 30
0.0
 10
4266.273941362175
 20
3220.749160095702
 30
0.0
 10
4260.599498478115
 20
3220.748828884676
 30
0.0
 10
4256.009467327205
 20
3220.748009642458
 30
0.0
 10
4251.98508622457
 20
3220.746281669203
 30
0.0
 10
4248.470840418003
 20
3220.74350081837
 30
0.0
 10
4245.306246463264
 20
3220.738136814526
 30
0.0
 10
4242.223118752774
 20
3220.732867226633
 30
0.0
 10
4238.950072608722
 20
3220.728421370601
 30
0.0
 10
4235.470888087781
 20
3220.725372834195
 30
0.0
 10
4231.811971278633
 20
3220.724372832805
 30
0.0
 10
4228.098471654739
 20
3220.72564769304
 30
0.0
 10
4224.362683612497
 20
3220.728955599942
 30
0.0
 10
4221.004088399496
 20
3220.733600708514
 30
0.0
 10
4217.992236252452
 20
3220.73768488624
 30
0.0
 10
4215.302244976913
 20
3220.740470083056
 30
0.0
 10
4212.611120777724
 20
3220.742777152558
 30
0.0
 10
4209.944452215498
 20
3220.744592764386
 30
0.0
 10
4207.343120456776
 20
3220.745999594205
 30
0.0
 10
4204.828244243126
 20
3220.747060566786
 30
0.0
 10
4202.420261610508
 20
3220.747838831103
 30
0.0
 10
4200.128398845469
 20
3220.748389056902
 30
0.0
 10
4198.130438724723
 20
3220.748730057447
 30
0.0
 10
4196.395795477168
 20
3220.748937560573
 30
0.0
 10
4194.89512324028
 20
3220.749057169316
 30
0.0
 10
4193.51113670034
 20
3220.749120710759
 30
0.0
 10
4192.249478604643
 20
3220.749143150442
 30
0.0
 10
4191.12208353475
 20
3220.749137696826
 30
0.0
 10
4190.127898230354
 20
3220.749115945211
 30
0.0
 10
4189.268440871227
 20
3220.749087347975
 30
0.0
 10
4188.526451322928
 20
3220.74905821216
 30
0.0
 10
4188.151917220244
 20
3220.749044658887
 30
0.0
 10
4187.959437324968
 20
3220.749037693613
 30
0.0
  0
LINE
  5
1B3
330
1F
100
AcDbEntity
  8
Warndon
  6
SLD-Solid
370
    15
100
AcDbLine
 10
4187.997579186688
 20
3220.748752931795
 30
0.0
 11
4188.149210935571
 21
3220.740363278813
 31
0.0
  0
SPLINE
  5
1B4
330
1F
100
AcDbEntity
  8
Warndon
  6
SLD-Solid
370
    15
100
AcDbSpline
210
0.0
220
0.0
230
1.0
 70
     8
 71
     3
 72
    22
 73
    18
 74
     0
 42
0.000000001
 43
0.0000000001
 40
0.0
 40
0.0
 40
0.0
 40
0.0
 40
0.1205985700506201
 40
0.2342787393568354
 40
0.3405920876128408
 40
0.4391838996812723
 40
0.5297873741029649
 40
0.6122213896044344
 40
0.6863949482892903
 40
0.7445327461021009
 40
0.7964531171192099
 40
0.8423640305337656
 40
0.8826254691113389
 40
0.9177902548508022
 40
0.9486024847096075
 40
0.9758553939209173
 40
1.0
 40
1.0
 40
1.0
 40
1.0
 10
4187.847695097031
 20
3220.748752931795
 30
0.0
 10
4187.208030227731
 20
3220.726804820574
 30
0.0
 10
4185.965396263434
 20
3220.684167699538
 30
0.0
 10
4183.963393054717
 20
3220.335249877106
 30
0.0
 10
4181.947295974934
 20
3219.732109379016
 30
0.0
 10
4179.93663252631
 20
3218.834013946294
 30
0.0
 10
4177.972949105915
 20
3217.628285823468
 30
0.0
 10
4176.098278634114
 20
3216.10836440036
 30
0.0
 10
4174.416287802085
 20
3214.343797683914
 30
0.0
 10
4172.952915469723
 20
3212.392447888337
 30
0.0
 10
4171.715896037304
 20
3210.330258074933
 30
0.0
 10
4170.638693435184
 20
3208.068129029497
 30
0.0
 10
4169.725107960036
 20
3205.618744576804
 30
0.0
 10
4168.967537120034
 20
3202.997398097665
 30
0.0
 10
4168.373904252223
 20
3200.232482674631
 30
0.0
 10
4167.916848792454
 20
3197.410656953293
 30
0.0
 10
4167.792117586495
 20
3195.467716530617
 30
0.0
 10
4167.733523589944
 20
3194.554996706019
 30
0.0
  0
SPLINE
  5
1B5
330
1F
100
AcDbEntity
  8
Warndon
  6
SLD-Solid
370
    15
100
AcDbSpline
210
0.0
220
0.0
230
1.0
 70
     8
 71
     3
 72
    17
 73
    13
 74
     0
 42
0.000000001
 43
0.0000000001
 40
0.0
 40
0.0
 40
0.0
 40
0.0
 40
0.0945874812103717
 40
0.1924304219081875
 40
0.2990302592519508
 40
0.4122045356303374
 40
0.5263117124527091
 40
0.6372510500926297
 40
0.7371166967827049
 40
0.831379040186359
 40
0.919231384231926
 40
0.9999999999999998
 40
0.9999999999999998
 40
0.9999999999999998
 40
0.9999999999999998
 10
4568.047716832165
 20
3220.749070151189
 30
0.0
 10
4564.519791654683
 20
3220.749068954386
 30
0.0
 10
4557.342519126899
 20
3220.749066519589
 30
0.0
 10
4546.191404730159
 20
3220.749063126494
 30
0.0
 10
4534.362699614265
 20
3220.749060119529
 30
0.0
 10
4521.957402514733
 20
3220.749057390047
 30
0.0
 10
4509.435730036938
 20
3220.749054903136
 30
0.0
 10
4497.469825824856
 20
3220.749052720658
 30
0.0
 10
4486.305632689487
 20
3220.749050853463
 30
0.0
 10
4476.059922619839
 20
3220.749049308472
 30
0.0
 10
4466.574920535039
 20
3220.749048028601
 30
0.0
 10
4460.553892603619
 20
3220.749047383458
 30
0.0
 10
4457.669849646806
 20
3220.749047074438
 30
0.0
  0
LINE
  5
1B6
330
1F
100
AcDbEntity
  8
Warndon
  6
SLD-Solid
370
    15
100
AcDbLine
 10
4188.28487152304
 20
3220.749049698746
 30
0.0
 11
4187.959439938021
 21
3220.74903770385
 31
0.0
  0
SPLINE
  5
1B7
330
1F
100
AcDbEntity
  8
Warndon
  6
SLD-Solid
370
    15
100
AcDbSpline
210
0.0
220
0.0
230
1.0
 70
     8
 71
     3
 72
    22
 73
    18
 74
     0
 42
0.000000001
 43
0.0000000001
 40
0.0
 40
0.0
 40
0.0
 40
0.0
 40
0.0241445832374226
 40
0.0513974713762815
 40
0.0822096844880819
 40
0.1173744586497737
 40
0.157635890605617
 40
0.2035468017269788
 40
0.2554671740917658
 40
0.3136049762637858
 40
0.3877785429022586
 40
0.4702125687674816
 40
0.5608160551716951
 40
0.6594078799872028
 40
0.7657212407905344
 40
0.8794014213301316
 40
0.9999999999999998
 40
0.9999999999999998
 40
0.9999999999999998
 40
0.9999999999999998
 10
4968.361910074388
 20
3194.554996706019
 30
0.0
 10
4968.303316059913
 20
3195.467716698337
 30
0.0
 10
4968.17858480437
 20
3197.410657656085
 30
0.0
 10
4967.72152918339
 20
3200.232483882341
 30
0.0
 10
4967.127896139359
 20
3202.997399670242
 30
0.0
 10
4966.370325067938
 20
3205.618746419872
 30
0.0
 10
4965.456739300829
 20
3208.068131099928
 30
0.0
 10
4964.379536330191
 20
3210.33026033258
 30
0.0
 10
4963.142516453843
 20
3212.392450280554
 30
0.0
 10
4961.679143575652
 20
3214.343800149588
 30
0.0
 10
4959.997152107225
 20
3216.108366837422
 30
0.0
 10
4958.122480919342
 20
3217.628288110564
 30
0.0
 10
4956.158796737462
 20
3218.834015964372
 30
0.0
 10
4954.148132489912
 20
3219.732111017852
 30
0.0
 10
4952.132034569327
 20
3220.335251042575
 30
0.0
 10
4950.130030473506
 20
3220.684168319996
 30
0.0
 10
4948.887395839229
 20
3220.726805056908
 30
0.0
 10
4948.247730633536
 20
3220.748752970103
 30
0.0
  0
LINE
  5
1B8
330
1F
100
AcDbEntity
  8
Warndon
  6
SLD-Solid
370
    15
100
AcDbLine
 10
4947.94622374937
 20
3220.740363335283
 30
0.0
 11
4948.097853937809
 21
3220.748752970103
 31
0.0
  0
SPLINE
  5
1B9
330
1F
100
AcDbEntity
  8
Warndon
  6
SLD-Solid
370
    15
100
AcDbSpline
210
0.0
220
0.0
230
1.0
 70
     8
 71
     3
 72
    11
 73
     7
 74
     0
 42
0.000000001
 43
0.0000000001
 40
0.0
 40
0.0
 40
0.0
 40
0.0
 40
0.2530310701983939
 40
0.5132405665497297
 40
0.7796100787696922
 40
1.0
 40
1.0
 40
1.0
 40
1.0
 10
4949.308647166585
 20
3220.69311443771
 30
0.0
 10
4949.432507363603
 20
3220.697629736406
 30
0.0
 10
4949.683741639461
 20
3220.706788431658
 30
0.0
 10
4949.887229736888
 20
3220.717938296596
 30
0.0
 10
4949.997751592702
 20
3220.727097035807
 30
0.0
 10
4950.002550806331
 20
3220.731587170865
 30
0.0
 10
4950.004723744833
 20
3220.733620167956
 30
0.0
  0
SPLINE
  5
1BA
330
1F
100
AcDbEntity
  8
Warndon
  6
SLD-Solid
370
    15
100
AcDbSpline
210
0.0
220
0.0
230
1.0
 70
     8
 71
     3
 72
    65
 73
    61
 74
     0
 42
0.000000001
 43
0.0000000001
 40
0.0
 40
0.0
 40
0.0
 40
0.0
 40
0.0269665079073133
 40
0.0525760766700161
 40
0.0769228931351962
 40
0.1000940799004707
 40
0.1221700234308817
 40
0.1432246891424782
 40
0.1633259247844911
 40
0.1895212251469424
 40
0.2141747241084979
 40
0.2374078273255611
 40
0.2592898402348047
 40
0.2802737109847893
 40
0.2999469277047285
 40
0.3183561222194396
 40
0.3355463407992567
 40
0.3515608165648931
 40
0.3664407735723985
 40
0.3802253644072835
 40
0.3992412987391995
 40
0.4169548205682586
 40
0.4334248140426
 40
0.4487069812329473
 40
0.462852466984467
 40
0.4759079474457129
 40
0.4854338578714756
 40
0.4952107570560317
 40
0.50586795828665
 40
0.5173758443887904
 40
0.5297037013811888
 40
0.5428202907549153
 40
0.5586433204871893
 40
0.5753998481582043
 40
0.5930428924621149
 40
0.6111419895495552
 40
0.6290527062593298
 40
0.6467773134014853
 40
0.6678185543285866
 40
0.6886320285450728
 40
0.7092379541554346
 40
0.7296555143134667
 40
0.7500157001873951
 40
0.7670491409748905
 40
0.7841321472997058
 40
0.8012507779578394
 40
0.818387311415938
 40
0.8355141132681735
 40
0.8526859379498457
 40
0.8633630920349519
 40
0.8752199738596999
 40
0.8881587486741238
 40
0.9020662577452585
 40
0.9168046704906503
 40
0.9321990775683699
 40
0.9469999425565275
 40
0.9615457689343774
 40
0.9751700077790282
 40
0.987759515640551
 40
1.0
 40
1.0
 40
1.0
 40
1.0
 10
4948.135993726832
 20
3220.749037703847
 30
0.0
 10
4947.958385551205
 20
3220.749044098122
 30
0.0
 10
4947.612106341042
 20
3220.749056564915
 30
0.0
 10
4946.938377299417
 20
3220.749083067146
 30
0.0
 10
4946.164238253425
 20
3220.749109858633
 30
0.0
 10
4945.279285655226
 20
3220.749132154353
 30
0.0
 10
4944.286991391927
 20
3220.749143027747
 30
0.0
 10
4943.188693307101
 20
3220.749134530793
 30
0.0
 10
4941.848463577607
 20
3220.749092973128
 30
0.0
 10
4940.215754628041
 20
3220.748990306542
 30
0.0
 10
4938.228614641435
 20
3220.748771489606
 30
0.0
 10
4936.082495633194
 20
3220.748412273903
 30
0.0
 10
4933.783134293913
 20
3220.747869245771
 30
0.0
 10
4931.348515725891
 20
3220.747092093571
 30
0.0
 10
4928.798180782258
 20
3220.746022726782
 30
0.0
 10
4926.174549310974
 20
3220.744607258882
 30
0.0
 10
4923.502333244696
 20
3220.742791230669
 30
0.0
 10
4920.805385579045
 20
3220.740481650191
 30
0.0
 10
4918.109498431048
 20
3220.737693570265
 30
0.0
 10
4915.025448447791
 20
3220.73350823349
 30
0.0
 10
4911.521831511542
 20
3220.728679452949
 30
0.0
 10
4907.560325288114
 20
3220.725340821434
 30
0.0
 10
4903.628299912956
 20
3220.724338869893
 30
0.0
 10
4899.763199317301
 20
3220.725885358199
 30
0.0
 10
4895.999806526295
 20
3220.729782618239
 30
0.0
 10
4892.594163645783
 20
3220.734857649045
 30
0.0
 10
4889.499440944472
 20
3220.740633030842
 30
0.0
 10
4886.51400644364
 20
3220.744512060895
 30
0.0
 10
4883.16686272901
 20
3220.746780769014
 30
0.0
 10
4879.372388186205
 20
3220.748164125428
 30
0.0
 10
4875.097122958816
 20
3220.748856157643
 30
0.0
 10
4870.071098146727
 20
3220.749137483323
 30
0.0
 10
4864.184500120828
 20
3220.749151229106
 30
0.0
 10
4857.310531352407
 20
3220.749069827225
 30
0.0
 10
4849.67281336066
 20
3220.749027105319
 30
0.0
 10
4841.388545274345
 20
3220.749038739654
 30
0.0
 10
4832.615893073163
 20
3220.749036468053
 30
0.0
 10
4822.858427370547
 20
3220.749037987229
 30
0.0
 10
4812.020628481513
 20
3220.749038507042
 30
0.0
 10
4800.013174256744
 20
3220.74903941163
 30
0.0
 10
4787.512158192051
 20
3220.749040241674
 30
0.0
 10
4774.522514406347
 20
3220.749041114494
 30
0.0
 10
4761.769159632048
 20
3220.749041942411
 30
0.0
 10
4749.335086610092
 20
3220.749042719004
 30
0.0
 10
4737.309588843253
 20
3220.749043448119
 30
0.0
 10
4724.953157792953
 20
3220.749044180705
 30
0.0
 10
4712.304339535275
 20
3220.749044904366
 30
0.0
 10
4699.386595710285
 20
3220.749045666477
 30
0.0
 10
4687.896131100012
 20
3220.749046216498
 30
0.0
 10
4677.631650676963
 20
3220.749047113701
 30
0.0
 10
4668.381087213129
 20
3220.749048178638
 30
0.0
 10
4658.201516516419
 20
3220.749049565933
 30
0.0
 10
4647.176113029075
 20
3220.749051272365
 30
0.0
 10
4635.415261475749
 20
3220.749053287359
 30
0.0
 10
4623.340583520831
 20
3220.749055542182
 30
0.0
 10
4611.262187866541
 20
3220.749058001642
 30
0.0
 10
4599.625781893531
 20
3220.749060625799
 30
0.0
 10
4588.565664654658
 20
3220.749063516267
 30
0.0
 10
4578.119485366141
 20
3220.749066733886
 30
0.0
 10
4571.373363993584
 20
3220.749069022812
 30
0.0
 10
4568.047716832165
 20
3220.749070151189
 30
0.0
  0
SPLINE
  5
1BB
330
1F
100
AcDbEntity
  8
Warndon
  6
SLD-Solid
370
    15
100
AcDbSpline
210
0.0
220
0.0
230
1.0
 70
     8
 71
     3
 72
    21
 73
    17
 74
     0
 42
0.000000001
 43
0.0000000001
 40
0.0
 40
0.0
 40
0.0
 40
0.0
 40
0.0990246579400304
 40
0.2814378599962865
 40
0.3946709921765372
 40
0.423358644165151
 40
0.4306355934613599
 40
0.4325062615798674
 40
0.4329996441135619
 40
0.4331358486659147
 40
0.4331763293631113
 40
0.4331983956965849
 40
0.5799821275994575
 40
0.7255578045492812
 40
0.8664967384455561
 40
1.0
 40
1.0
 40
1.0
 40
1.0
 10
4568.047602003381
 20
2759.169351074039
 30
0.0
 10
4568.047573996957
 20
2759.13845581503
 30
0.0
 10
4568.047494399933
 20
2759.050648436945
 30
0.0
 10
4568.04737663756
 20
2758.433590405593
 30
0.0
 10
4568.047527863891
 20
2757.818314177154
 30
0.0
 10
4568.047664362467
 20
2757.494363920799
 30
0.0
 10
4568.047703435083
 20
2757.410261895323
 30
0.0
 10
4568.047713421928
 20
2757.388690483819
 30
0.0
 10
4568.047715947522
 20
2757.383087269362
 30
0.0
 10
4568.047716550512
 20
2757.381584955903
 30
0.0
 10
4568.047716717319
 20
2757.381139294476
 30
0.0
 10
4568.047776736176
 20
2757.051851216736
 30
0.0
 10
4568.047655405718
 20
2756.327106110218
 30
0.0
 10
4568.047658928771
 20
2755.111540169316
 30
0.0
 10
4568.047686964894
 20
2753.850227749875
 30
0.0
 10
4568.047706931126
 20
2753.018993867746
 30
0.0
 10
4568.047716643761
 20
2752.614637554402
 30
0.0
  0
SPLINE
  5
1BC
330
1F
100
AcDbEntity
  8
Warndon
  6
SLD-Solid
370
    15
100
AcDbSpline
210
0.0
220
0.0
230
1.0
 70
     8
 71
     3
 72
    20
 73
    16
 74
     0
 42
0.000000001
 43
0.0000000001
 40
0.0
 40
0.0
 40
0.0
 40
0.0
 40
0.133635497656002
 40
0.2747155000375838
 40
0.4204385791784312
 40
0.5673727140221955
 40
0.5673941728519912
 40
0.5675691764642906
 40
0.5680606455152038
 40
0.5699286136276529
 40
0.5772046712444713
 40
0.6059085838339227
 40
0.7192461054183154
 40
0.9018542686171418
 40
1.0
 40
1.0
 40
1.0
 40
1.0
 10
4568.047717065224
 20
2752.614635768167
 30
0.0
 10
4568.047726796952
 20
2753.018985943846
 30
0.0
 10
4568.047746802534
 20
2753.850211648472
 30
0.0
 10
4568.047773911507
 20
2755.111520005381
 30
0.0
 10
4568.047781005635
 20
2756.327096874957
 30
0.0
 10
4568.047650735322
 20
2757.051850569748
 30
0.0
 10
4568.047716964845
 20
2757.381444497145
 30
0.0
 10
4568.047717692155
 20
2757.382985356613
 30
0.0
 10
4568.047720109581
 20
2757.388659498721
 30
0.0
 10
4568.047730333342
 20
2757.410197123788
 30
0.0
 10
4568.047769023787
 20
2757.494244160334
 30
0.0
 10
4568.047906160892
 20
2757.818144480655
 30
0.0
 10
4568.048056758458
 20
2758.433336615711
 30
0.0
 10
4568.047939646541
 20
2759.049495444708
 30
0.0
 10
4568.047860276689
 20
2759.137262061583
 30
0.0
 10
4568.047832530637
 20
2759.167943448272
 30
0.0
  0
SPLINE
  5
1BD
330
1F
100
AcDbEntity
  8
Warndon
  6
SLD-Solid
370
    15
100
AcDbSpline
210
0.0
220
0.0
230
1.0
 70
    24
 71
     3
 72
    45
 73
    41
 74
     0
 42
0.000000001
 43
0.0000000001
 40
0.0
 40
0.0
 40
0.0
 40
0.0
 40
0.0056343131472095
 40
0.011374550040197
 40
0.0236004995760232
 40
0.0304851390717895
 40
0.0373397452913573
 40
0.0524338024701877
 40
0.0685488262258355
 40
0.0854031837347043
 40
0.1027644019761803
 40
0.1204925103190749
 40
0.13872351329686
 40
0.1568872359165199
 40
0.1759702671987059
 40
0.1951629516054374
 40
0.2157255154854159
 40
0.2368521744161634
 40
0.2599135284310873
 40
0.2838629320716719
 40
0.3102346770209627
 40
0.3379346538201439
 40
0.368396794374197
 40
0.4004296743835885
 40
0.4351204445455582
 40
0.4723825669900809
 40
0.5118859955400641
 40
0.5538875224722136
 40
0.5982288054007499
 40
0.6454154806624501
 40
0.6959696900653475
 40
0.7504039487870749
 40
0.7785048202178507
 40
0.808958370758474
 40
0.8385096440918104
 40
0.8708067836228948
 40
0.9008471389572216
 40
0.9348535032513691
 40
0.9673580017611774
 40
1.0
 40
1.0
 40
1.0
 40
1.0
 10
4568.047716832165
 20
2622.749139836952
 30
0.0
 10
4566.418993252614
 20
2622.749139836952
 30
0.0
 10
4563.130926477975
 20
2622.749139836952
 30
0.0
 10
4556.308971871863
 20
2622.749139836952
 30
0.0
 10
4549.126822415774
 20
2622.749139836952
 30
0.0
 10
4541.635229264381
 20
2622.749139836952
 30
0.0
 10
4533.330453443667
 20
2622.749139836952
 30
0.0
 10
4522.404868065319
 20
2622.749139836952
 30
0.0
 10
4508.727491392408
 20
2622.749139836952
 30
0.0
 10
4494.588724415442
 20
2622.749139836952
 30
0.0
 10
4480.271607180631
 20
2622.749139836952
 30
0.0
 10
4465.944185817752
 20
2622.749139836952
 30
0.0
 10
4451.88585476015
 20
2622.749139836952
 30
0.0
 10
4438.081438125958
 20
2622.749139836952
 30
0.0
 10
4424.75788680427
 20
2622.749139836952
 30
0.0
 10
4411.729729886045
 20
2622.749139836952
 30
0.0
 10
4399.241727633889
 20
2622.749139836952
 30
0.0
 10
4387.079461725628
 20
2622.749139836952
 30
0.0
 10
4375.505658229078
 20
2622.749139836952
 30
0.0
 10
4364.383024035993
 20
2622.749139836952
 30
0.0
 10
4353.967895170603
 20
2622.749139836952
 30
0.0
 10
4344.154638917717
 20
2622.749139836952
 30
0.0
 10
4335.178433896963
 20
2622.749139836952
 30
0.0
 10
4327.030467440857
 20
2622.749139836952
 30
0.0
 10
4319.829013810323
 20
2622.749139836952
 30
0.0
 10
4313.532164853345
 20
2622.749139836952
 30
0.0
 10
4308.145958630968
 20
2622.749139836952
 30
0.0
 10
4303.679807487372
 20
2622.749139836952
 30
0.0
 10
4300.114642719985
 20
2622.749139836952
 30
0.0
 10
4297.384236879796
 20
2622.749139836952
 30
0.0
 10
4295.391415154457
 20
2622.749139836952
 30
0.0
 10
4294.293212455496
 20
2622.749139836952
 30
0.0
 10
4293.666762766071
 20
2622.749139836952
 30
0.0
 10
4293.311276287081
 20
2622.749139836952
 30
0.0
 10
4293.052160435514
 20
2622.749139836952
 30
0.0
 10
4292.882454276857
 20
2622.749139836952
 30
0.0
 10
4292.777337456313
 20
2622.749139836952
 30
0.0
 10
4292.723454724266
 20
2622.749139836952
 30
0.0
 10
4292.705352994802
 20
2622.749139836952
 30
0.0
 10
4292.704652342253
 20
2622.749139836952
 30
0.0
 10
4292.704301276573
 20
2622.749139836952
 30
0.0
  0
SPLINE
  5
1BE
330
1F
100
AcDbEntity
  8
Warndon
  6
SLD-Solid
370
    15
100
AcDbSpline
210
0.0
220
0.0
230
1.0
 70
    24
 71
     3
 72
    45
 73
    41
 74
     0
 42
0.000000001
 43
0.0000000001
 40
0.0
 40
0.0
 40
0.0
 40
0.0
 40
0.0326419982663859
 40
0.0651464968036416
 40
0.0991522603445192
 40
0.1291932164858816
 40
0.1614897623426441
 40
0.191041629401921
 40
0.2214945854834451
 40
0.2495960514209401
 40
0.3040303101886325
 40
0.3545845196342186
 40
0.4017711949357638
 40
0.4461124779017426
 40
0.4881133902179883
 40
0.5276174333957313
 40
0.5648789494068243
 40
0.5995703259693324
 40
0.6316024846500403
 40
0.6620653460657807
 40
0.6897645599679353
 40
0.7161370678964056
 40
0.7400858105181811
 40
0.7631478256646373
 40
0.7842738036312471
 40
0.8048370479995226
 40
0.8240290235443556
 40
0.8431127638293439
 40
0.8612758128873066
 40
0.879507489558777
 40
0.8972355979166414
 40
0.9145968161727775
 40
0.9314511736958785
 40
0.9475661974651339
 40
0.9626602546567101
 40
0.9695142285479169
 40
0.9763995004040481
 40
0.9886254499501983
 40
0.9943656868480328
 40
1.0
 40
1.0
 40
1.0
 40
1.0
 10
4843.391132387759
 20
2622.749139836952
 30
0.0
 10
4843.390781316949
 20
2622.749139836952
 30
0.0
 10
4843.390080654166
 20
2622.749139836952
 30
0.0
 10
4843.37197911207
 20
2622.749139836952
 30
0.0
 10
4843.31809641151
 20
2622.749139836952
 30
0.0
 10
4843.212981261629
 20
2622.749139836952
 30
0.0
 10
4843.043274267277
 20
2622.749139836952
 30
0.0
 10
4842.784161612897
 20
2622.749139836952
 30
0.0
 10
4842.428673185609
 20
2622.749139836952
 30
0.0
 10
4841.802226340568
 20
2622.749139836952
 30
0.0
 10
4840.704018422059
 20
2622.749139836952
 30
0.0
 10
4838.711196860433
 20
2622.749139836952
 30
0.0
 10
4835.980790740996
 20
2622.749139836952
 30
0.0
 10
4832.415643268907
 20
2622.749139836952
 30
0.0
 10
4827.949496985405
 20
2622.749139836952
 30
0.0
 10
4822.563332513921
 20
2622.749139836952
 30
0.0
 10
4816.26645360088
 20
2622.749139836952
 30
0.0
 10
4809.065071139261
 20
2622.749139836952
 30
0.0
 10
4800.917052921502
 20
2622.749139836952
 30
0.0
 10
4791.940956638817
 20
2622.749139836952
 30
0.0
 10
4782.127633990821
 20
2622.749139836952
 30
0.0
 10
4771.712612762669
 20
2622.749139836952
 30
0.0
 10
4760.589882786833
 20
2622.749139836952
 30
0.0
 10
4749.016213110027
 20
2622.749139836952
 30
0.0
 10
4736.853833815214
 20
2622.749139836952
 30
0.0
 10
4724.366000734982
 20
2622.749139836952
 30
0.0
 10
4711.337710971089
 20
2622.749139836952
 30
0.0
 10
4698.014330238015
 20
2622.749139836952
 30
0.0
 10
4684.209752210452
 20
2622.749139836952
 30
0.0
 10
4670.151428518276
 20
2622.749139836952
 30
0.0
 10
4655.82382657324
 20
2622.749139836952
 30
0.0
 10
4641.506709228676
 20
2622.749139836952
 30
0.0
 10
4627.367942266967
 20
2622.749139836952
 30
0.0
 10
4613.69056563502
 20
2622.749139836952
 30
0.0
 10
4602.765161622037
 20
2622.749139836952
 30
0.0
 10
4594.460386877361
 20
2622.749139836952
 30
0.0
 10
4586.968793937632
 20
2622.749139836952
 30
0.0
 10
4579.786461802213
 20
2622.749139836952
 30
0.0
 10
4572.964507184736
 20
2622.749139836952
 30
0.0
 10
4569.67644041118
 20
2622.749139836952
 30
0.0
 10
4568.047716832165
 20
2622.749139836952
 30
0.0
  0
LINE
  5
1BF
330
1F
100
AcDbEntity
  8
Warndon
  6
SLD-Solid
370
    15
100
AcDbLine
 10
4951.09522116473
 20
3130.093645612189
 30
0.0
 11
4950.967937984849
 21
3128.946547386388
 31
0.0
  0
SPLINE
  5
1C0
330
1F
100
AcDbEntity
  8
Warndon
  6
SLD-Solid
370
    15
100
AcDbSpline
210
0.0
220
0.0
230
1.0
 70
    24
 71
     3
 72
    54
 73
    50
 74
     0
 42
0.000000001
 43
0.0000000001
 40
0.0
 40
0.0
 40
0.0
 40
0.0
 40
0.0283360594740352
 40
0.0680389295797228
 40
0.1068646452311736
 40
0.1365653767933925
 40
0.1654037609257754
 40
0.1932609088631321
 40
0.2201571045022738
 40
0.2510285806664307
 40
0.2807751900993913
 40
0.3095282144409525
 40
0.3374208553537616
 40
0.3645859834983179
 40
0.3910923190672447
 40
0.416937529800627
 40
0.4421181360410592
 40
0.4666337129571847
 40
0.4904873451671803
 40
0.5136862410015901
 40
0.5362462505524227
 40
0.5569544508664906
 40
0.5771401679988183
 40
0.5968288326959225
 40
0.6160481130204604
 40
0.6348280239430854
 40
0.6569198576423318
 40
0.6784578074695333
 40
0.6994810095589052
 40
0.7200304968118196
 40
0.7401468092443185
 40
0.7598662773152746
 40
0.7781254640151562
 40
0.7960850113980506
 40
0.8137544236878349
 40
0.8311319661441785
 40
0.848209681050233
 40
0.865971398536576
 40
0.8833075983458058
 40
0.9001338113494281
 40
0.9163729280814569
 40
0.9319658067390305
 40
0.9468317109095842
 40
0.9578297565110052
 40
0.9680086598904729
 40
0.9771680945839802
 40
0.9853368268749939
 40
0.9928353865654864
 40
1.0
 40
1.0
 40
1.0
 40
1.0
 10
4185.150242642595
 20
3128.946547386388
 30
0.0
 10
4185.15951193366
 20
3128.946547386388
 30
0.0
 10
4185.181768826595
 20
3128.946547386388
 30
0.0
 10
4185.317234104993
 20
3128.946547386388
 30
0.0
 10
4185.58428176298
 20
3128.946547386388
 30
0.0
 10
4185.983225934506
 20
3128.946547386388
 30
0.0
 10
4186.490748278917
 20
3128.946547386388
 30
0.0
 10
4187.167680441767
 20
3128.946547386388
 30
0.0
 10
4188.087316758241
 20
3128.946547386388
 30
0.0
 10
4189.319879347229
 20
3128.946547386388
 30
0.0
 10
4190.960567318091
 20
3128.946547386388
 30
0.0
 10
4192.971380013631
 20
3128.946547386388
 30
0.0
 10
4195.387983849055
 20
3128.946547386388
 30
0.0
 10
4198.243388740476
 20
3128.946547386388
 30
0.0
 10
4201.563517820989
 20
3128.946547386387
 30
0.0
 10
4205.371894376692
 20
3128.946547386387
 30
0.0
 10
4209.689553336582
 20
3128.946547386387
 30
0.0
 10
4214.537586516231
 20
3128.946547386387
 30
0.0
 10
4219.93642460066
 20
3128.946547386387
 30
0.0
 10
4225.909552134809
 20
3128.946547386387
 30
0.0
 10
4232.350899806935
 20
3128.946547386387
 30
0.0
 10
4239.213628779147
 20
3128.946547386387
 30
0.0
 10
4246.453269425026
 20
3128.946547386387
 30
0.0
 10
4254.209772265792
 20
3128.946547386387
 30
0.0
 10
4262.4821509997
 20
3128.946547386387
 30
0.0
 10
4271.848811596497
 20
3128.946547386387
 30
0.0
 10
4282.453374872833
 20
3128.946547386387
 30
0.0
 10
4294.434552480641
 20
3128.946547386387
 30
0.0
 10
4307.09661172685
 20
3128.946547386387
 30
0.0
 10
4320.408757392431
 20
3128.946547386387
 30
0.0
 10
4334.326889305867
 20
3128.946547386387
 30
0.0
 10
4348.524024027537
 20
3128.946547386387
 30
0.0
 10
4362.902398216374
 20
3128.946547386387
 30
0.0
 10
4377.372976815179
 20
3128.946547386387
 30
0.0
 10
4392.156881989075
 20
3128.946547386387
 30
0.0
 10
4407.177173810037
 20
3128.946547386387
 30
0.0
 10
4422.652238729512
 20
3128.946547386387
 30
0.0
 10
4438.501595885386
 20
3128.946547386387
 30
0.0
 10
4454.599596129125
 20
3128.946547386387
 30
0.0
 10
4470.484353246134
 20
3128.946547386387
 30
0.0
 10
4486.020982039148
 20
3128.946547386387
 30
0.0
 10
4501.080665185148
 20
3128.946547386387
 30
0.0
 10
4514.550146704386
 20
3128.946547386387
 30
0.0
 10
4526.310879639559
 20
3128.946547386387
 30
0.0
 10
4536.234922799621
 20
3128.946547386388
 30
0.0
 10
4545.248525362211
 20
3128.946547386388
 30
0.0
 10
4553.392215607772
 20
3128.946547386388
 30
0.0
 10
4560.884580453376
 20
3128.946547386388
 30
0.0
 10
4565.696534636354
 20
3128.946547386388
 30
0.0
 10
4568.047716832165
 20
3128.946547386388
 30
0.0
  0
SPLINE
  5
1C2
330
1F
100
AcDbEntity
  8
Warndon
  6
SLD-Solid
370
    15
100
AcDbSpline
210
0.0
220
0.0
230
1.0
 70
    24
 71
     3
 72
    53
 73
    49
 74
     0
 42
0.000000001
 43
0.0000000001
 40
0.0
 40
0.0
 40
0.0
 40
0.0
 40
0.0074319972056039
 40
0.0152822682553571
 40
0.0239721658717182
 40
0.0338652545604578
 40
0.0454354583056991
 40
0.0579435231095363
 40
0.0711113594695166
 40
0.0858136241985978
 40
0.1010846469989866
 40
0.1168812326145427
 40
0.1331363327882475
 40
0.1497784991199132
 40
0.1677901487727744
 40
0.1861453493674468
 40
0.2048289081863873
 40
0.2238338456071549
 40
0.2431678870504532
 40
0.2628508855942732
 40
0.2817497937914049
 40
0.3010017342147226
 40
0.3206337034051568
 40
0.3406726055369413
 40
0.3611433555496872
 40
0.3824580138600827
 40
0.4042909410254989
 40
0.4266841775213173
 40
0.4496752730630813
 40
0.4732975599275981
 40
0.497580351630378
 40
0.5225452735896785
 40
0.5508078146659443
 40
0.5799165641530163
 40
0.6098714494213602
 40
0.6406667567106796
 40
0.672361235883484
 40
0.6996055098335176
 40
0.7277404653315585
 40
0.7568900319733723
 40
0.787176459970219
 40
0.8187176179178251
 40
0.8514966641369154
 40
0.8833534597149968
 40
0.9159462581605161
 40
0.9490914197328194
 40
0.9826049867845441
 40
1.0
 40
1.0
 40
1.0
 40
1.0
 10
4568.047716832165
 20
3194.554996706019
 30
0.0
 10
4565.454547701195
 20
3194.554996706019
 30
0.0
 10
4560.122265517192
 20
3194.554996706019
 30
0.0
 10
4551.758317904568
 20
3194.554996706019
 30
0.0
 10
4542.540527225557
 20
3194.554996706019
 30
0.0
 10
4532.038617409646
 20
3194.554996706019
 30
0.0
 10
4520.231227314378
 20
3194.554996706019
 30
0.0
 10
4507.328209914282
 20
3194.554996706019
 30
0.0
 10
4493.412371555322
 20
3194.554996706019
 30
0.0
 10
4478.65428667068
 20
3194.554996706019
 30
0.0
 10
4463.153067179393
 20
3194.554996706019
 30
0.0
 10
4447.330158077271
 20
3194.554996706019
 30
0.0
 10
4431.304986094589
 20
3194.554996706019
 30
0.0
 10
4414.874328134176
 20
3194.554996706019
 30
0.0
 10
4398.183415260979
 20
3194.554996706019
 30
0.0
 10
4381.362739655855
 20
3194.554996706019
 30
0.0
 10
4364.831001480091
 20
3194.554996706019
 30
0.0
 10
4348.692538452804
 20
3194.554996706019
 30
0.0
 10
4333.037341805687
 20
3194.554996706019
 30
0.0
 10
4318.227707991416
 20
3194.554996706019
 30
0.0
 10
4304.28146431473
 20
3194.554996706019
 30
0.0
 10
4291.208565445828
 20
3194.554996706019
 30
0.0
 10
4278.775214315571
 20
3194.554996706019
 30
0.0
 10
4267.008454431915
 20
3194.554996706019
 30
0.0
 10
4255.866214841545
 20
3194.554996706019
 30
0.0
 10
4245.390623779623
 20
3194.554996706019
 30
0.0
 10
4235.601308302797
 20
3194.554996706019
 30
0.0
 10
4226.556249311389
 20
3194.554996706019
 30
0.0
 10
4218.252510713476
 20
3194.554996706019
 30
0.0
 10
4210.68631051039
 20
3194.554996706019
 30
0.0
 10
4203.857707641981
 20
3194.554996706019
 30
0.0
 10
4197.539667881613
 20
3194.554996706019
 30
0.0
 10
4191.791037436666
 20
3194.554996706019
 30
0.0
 10
4186.661077323274
 20
3194.554996706019
 30
0.0
 10
4182.279160029523
 20
3194.554996706019
 30
0.0
 10
4178.60028992227
 20
3194.554996706019
 30
0.0
 10
4175.753142302725
 20
3194.554996706019
 30
0.0
 10
4173.560098855415
 20
3194.554996706019
 30
0.0
 10
4171.87767485896
 20
3194.554996706019
 30
0.0
 10
4170.537589112511
 20
3194.554996706019
 30
0.0
 10
4169.502594852416
 20
3194.554996706019
 30
0.0
 10
4168.737655866169
 20
3194.554996706019
 30
0.0
 10
4168.213751325395
 20
3194.554996706019
 30
0.0
 10
4167.874700386824
 20
3194.554996706019
 30
0.0
 10
4167.675768966342
 20
3194.554996706019
 30
0.0
 10
4167.578043853179
 20
3194.554996706019
 30
0.0
 10
4167.549661438513
 20
3194.554996706019
 30
0.0
 10
4167.549854261284
 20
3194.554996706019
 30
0.0
 10
4167.549920147126
 20
3194.554996706019
 30
0.0
  0
SPLINE
  5
1C3
330
1F
100
AcDbEntity
  8
Warndon
  6
SLD-Solid
370
    15
100
AcDbSpline
210
0.0
220
0.0
230
1.0
 70
    24
 71
     3
 72
    55
 73
    51
 74
     0
 42
0.000000001
 43
0.0000000001
 40
0.0
 40
0.0
 40
0.0
 40
0.0
 40
0.0218990080881077
 40
0.0598296757042651
 40
0.0972233327412258
 40
0.1338119411057622
 40
0.1618211528804145
 40
0.1890389457207634
 40
0.2153564178493432
 40
0.2407935734517537
 40
0.2700271907612659
 40
0.2982366189449768
 40
0.3255456490915055
 40
0.3520799161105748
 40
0.3779647834510261
 40
0.4032654014915986
 40
0.4279802965347863
 40
0.4521070787828398
 40
0.4756464006798201
 40
0.4986023903492247
 40
0.5209831951404082
 40
0.5428037300163363
 40
0.5628837033650445
 40
0.5825052905839661
 40
0.6016912769965704
 40
0.6204668664359405
 40
0.6388598066981518
 40
0.6605566638177733
 40
0.6817693907237858
 40
0.7025279208162136
 40
0.7228646578973489
 40
0.7428107653055481
 40
0.7623917218454307
 40
0.7805396850941238
 40
0.7983982482999992
 40
0.8159707803643371
 40
0.8332502575375869
 40
0.8502234019096333
 40
0.8678620669805855
 40
0.8850606702408214
 40
0.9017333130310511
 40
0.9178050946955863
 40
0.9332252455191717
 40
0.9479208319558388
 40
0.9587819413771544
 40
0.9688109694079651
 40
0.9777982778463018
 40
0.9857707424312371
 40
0.9930564848145488
 40
1.0
 40
1.0
 40
1.0
 40
1.0
 10
4968.544735353572
 20
3194.554996706019
 30
0.0
 10
4968.54478678755
 20
3194.554996706019
 30
0.0
 10
4968.544927308904
 20
3194.554996706019
 30
0.0
 10
4968.502626510584
 20
3194.554996706019
 30
0.0
 10
4968.359691231858
 20
3194.554996706019
 30
0.0
 10
4968.089734799287
 20
3194.554996706019
 30
0.0
 10
4967.689579970389
 20
3194.554996706019
 30
0.0
 10
4967.179683716785
 20
3194.554996706019
 30
0.0
 10
4966.499679082891
 20
3194.554996706019
 30
0.0
 10
4965.574997924001
 20
3194.554996706019
 30
0.0
 10
4964.333990372804
 20
3194.554996706019
 30
0.0
 10
4962.679592278336
 20
3194.554996706019
 30
0.0
 10
4960.648743518139
 20
3194.554996706019
 30
0.0
 10
4958.204296326952
 20
3194.554996706019
 30
0.0
 10
4955.311995140875
 20
3194.554996706019
 30
0.0
 10
4951.943626595607
 20
3194.554996706019
 30
0.0
 10
4948.072135310383
 20
3194.554996706019
 30
0.0
 10
4943.673188305979
 20
3194.554996706019
 30
0.0
 10
4938.7223423421
 20
3194.554996706019
 30
0.0
 10
4933.195789031307
 20
3194.554996706019
 30
0.0
 10
4927.066949508646
 20
3194.554996706019
 30
0.0
 10
4920.442599078981
 20
3194.554996706019
 30
0.0
 10
4913.367664460343
 20
3194.554996706019
 30
0.0
 10
4905.885388107055
 20
3194.554996706019
 30
0.0
 10
4897.848931385084
 20
3194.554996706019
 30
0.0
 10
4889.256242455754
 20
3194.554996706019
 30
0.0
 10
4879.49953629625
 20
3194.554996706019
 30
0.0
 10
4868.422974322992
 20
3194.554996706019
 30
0.0
 10
4855.877378616062
 20
3194.554996706019
 30
0.0
 10
4842.585698790653
 20
3194.554996706019
 30
0.0
 10
4828.579451191989
 20
3194.554996706019
 30
0.0
 10
4813.90756551529
 20
3194.554996706019
 30
0.0
 10
4798.921524961635
 20
3194.554996706019
 30
0.0
 10
4783.730285985988
 20
3194.554996706019
 30
0.0
 10
4768.432702828225
 20
3194.554996706019
 30
0.0
 10
4752.801330429272
 20
3194.554996706019
 30
0.0
 10
4736.922961249701
 20
3194.554996706019
 30
0.0
 10
4720.572067058537
 20
3194.554996706019
 30
0.0
 10
4703.838219601467
 20
3194.554996706019
 30
0.0
 10
4686.858603287935
 20
3194.554996706019
 30
0.0
 10
4670.123120636078
 20
3194.554996706019
 30
0.0
 10
4653.77177604198
 20
3194.554996706019
 30
0.0
 10
4637.934582063309
 20
3194.554996706019
 30
0.0
 10
4623.778730530733
 20
3194.554996706019
 30
0.0
 10
4611.432660222759
 20
3194.554996706019
 30
0.0
 10
4601.040640322231
 20
3194.554996706019
 30
0.0
 10
4591.637665795983
 20
3194.554996706019
 30
0.0
 10
4583.181700011016
 20
3194.554996706019
 30
0.0
 10
4575.43534648216
 20
3194.554996706019
 30
0.0
 10
4570.470456605302
 20
3194.554996706019
 30
0.0
 10
4568.047716832165
 20
3194.554996706019
 30
0.0
  0
SPLINE
  5
1C5
330
1F
100
AcDbEntity
  8
Warndon
  6
SLD-Solid
370
    15
100
AcDbSpline
210
0.0
220
0.0
230
1.0
 70
    24
 71
     3
 72
    54
 73
    50
 74
     0
 42
0.000000001
 43
0.0000000001
 40
0.0
 40
0.0
 40
0.0
 40
0.0
 40
0.006823421724429
 40
0.0139367875364344
 40
0.021631876359314
 40
0.0301969049574897
 40
0.0397146880730411
 40
0.05002004198618
 40
0.0609363260507041
 40
0.07230582700095
 40
0.0871468924694006
 40
0.1025492013986168
 40
0.1184630645624724
 40
0.134820651553964
 40
0.1515518526457166
 40
0.1696453706928708
 40
0.1880749496863465
 40
0.2068317578908187
 40
0.2259151523365136
 40
0.2453407693355864
 40
0.2651387390444454
 40
0.2841771531115451
 40
0.3036079020422384
 40
0.3234654498410628
 40
0.3437839323909247
 40
0.3645959654132643
 40
0.3863288819573408
 40
0.4086555207371638
 40
0.4316214346379025
 40
0.4552680366004401
 40
0.4796328397719955
 40
0.5047495514927999
 40
0.5306418733288522
 40
0.5600312153026642
 40
0.5903767577741146
 40
0.6216765632968368
 40
0.6539230721516976
 40
0.6871775576005394
 40
0.7116655697678901
 40
0.7368609806201661
 40
0.7628466714446179
 40
0.7897045501443344
 40
0.8175156498577603
 40
0.8463519290606255
 40
0.8761614563522046
 40
0.9099006743881609
 40
0.9444405532988783
 40
0.9795813086721619
 40
0.9999999999999998
 40
0.9999999999999998
 40
0.9999999999999998
 40
0.9999999999999998
 10
4568.047716832165
 20
3128.946547386388
 30
0.0
 10
4570.29047924903
 20
3128.946547386388
 30
0.0
 10
4574.871304612153
 20
3128.946547386388
 30
0.0
 10
4581.981162791287
 20
3128.946547386388
 30
0.0
 10
4589.660834533826
 20
3128.946547386388
 30
0.0
 10
4598.122893808172
 20
3128.946547386388
 30
0.0
 10
4607.428027900017
 20
3128.946547386388
 30
0.0
 10
4617.481442180447
 20
3128.946547386387
 30
0.0
 10
4628.106168226813
 20
3128.946547386387
 30
0.0
 10
4640.152772290506
 20
3128.946547386387
 30
0.0
 10
4653.56277563626
 20
3128.946547386387
 30
0.0
 10
4668.288973078271
 20
3128.946547386388
 30
0.0
 10
4683.305115413928
 20
3128.946547386388
 30
0.0
 10
4698.496712614489
 20
3128.946547386388
 30
0.0
 10
4714.057669516967
 20
3128.946547386388
 30
0.0
 10
4729.853747665136
 20
3128.946547386388
 30
0.0
 10
4745.765195812025
 20
3128.946547386388
 30
0.0
 10
4761.400847067377
 20
3128.946547386388
 30
0.0
 10
4776.668482861802
 20
3128.946547386388
 30
0.0
 10
4791.488868132176
 20
3128.946547386388
 30
0.0
 10
4805.522650463672
 20
3128.946547386388
 30
0.0
 10
4818.757374630247
 20
3128.946547386387
 30
0.0
 10
4831.187772425916
 20
3128.946547386387
 30
0.0
 10
4843.036055038592
 20
3128.946547386387
 30
0.0
 10
4854.275863038592
 20
3128.946547386387
 30
0.0
 10
4864.94719536445
 20
3128.946547386388
 30
0.0
 10
4875.008776930082
 20
3128.946547386388
 30
0.0
 10
4884.438765674673
 20
3128.946547386388
 30
0.0
 10
4893.177269892015
 20
3128.946547386388
 30
0.0
 10
4901.222502780467
 20
3128.946547386388
 30
0.0
 10
4908.573555506809
 20
3128.946547386388
 30
0.0
 10
4915.225304210096
 20
3128.946547386388
 30
0.0
 10
4921.396145879119
 20
3128.946547386388
 30
0.0
 10
4927.02612789802
 20
3128.946547386388
 30
0.0
 10
4932.063647728568
 20
3128.946547386388
 30
0.0
 10
4936.377834308804
 20
3128.946547386388
 30
0.0
 10
4940.007730991522
 20
3128.946547386388
 30
0.0
 10
4942.69716674227
 20
3128.946547386388
 30
0.0
 10
4944.698893504449
 20
3128.946547386388
 30
0.0
 10
4946.196540500974
 20
3128.946547386388
 30
0.0
 10
4947.43907271698
 20
3128.946547386388
 30
0.0
 10
4948.448836711086
 20
3128.946547386388
 30
0.0
 10
4949.248253413093
 20
3128.946547386388
 30
0.0
 10
4949.858114936994
 20
3128.946547386388
 30
0.0
 10
4950.319571499583
 20
3128.946547386388
 30
0.0
 10
4950.641707549145
 20
3128.946547386388
 30
0.0
 10
4950.838172699644
 20
3128.946547386388
 30
0.0
 10
4950.928009654124
 20
3128.946547386388
 30
0.0
 10
4950.942595836176
 20
3128.946547386388
 30
0.0
 10
4950.9479564142
 20
3128.946547386388
 30
0.0
  0
SPLINE
  5
1C6
330
1F
100
AcDbEntity
  8
Warndon
  6
SLD-Solid
370
    15
100
AcDbSpline
210
0.0
220
0.0
230
1.0
 70
    24
 71
     3
 72
    55
 73
    51
 74
     0
 42
0.000000001
 43
0.0000000001
 40
0.0
 40
0.0
 40
0.0
 40
0.0
 40
0.0065947596238056
 40
0.0134697469162405
 40
0.0209069628938255
 40
0.0291849657869732
 40
0.0383837951036281
 40
0.0483438026541043
 40
0.0588942672594179
 40
0.0698827608389755
 40
0.0842264821093745
 40
0.0991126388122677
 40
0.1144932068747738
 40
0.1303026289786677
 40
0.1464731448684644
 40
0.163960324627965
 40
0.1817723034764629
 40
0.1999005456420416
 40
0.2183444297017151
 40
0.2371190679736473
 40
0.2562535809119102
 40
0.2746539919463768
 40
0.2934335901719524
 40
0.3126256846577197
 40
0.3322632673469301
 40
0.352377860964038
 40
0.3733824780492303
 40
0.394960920934173
 40
0.4171572159651772
 40
0.4400113882794051
 40
0.4635596939077209
 40
0.4878347106117471
 40
0.512859345685914
 40
0.5412638110182002
 40
0.570592433274792
 40
0.6008433399357739
 40
0.6320092246184361
 40
0.6641493072346557
 40
0.687816692958498
 40
0.7121677714795444
 40
0.7372826466208921
 40
0.7632404814408968
 40
0.7901195935478188
 40
0.8179895299914372
 40
0.8468000996625782
 40
0.8794086708206096
 40
0.9127910716234261
 40
0.946754212704986
 40
0.9811046803437889
 40
1.0
 40
1.0
 40
1.0
 40
1.0
 10
4568.047716832165
 20
3128.946547386388
 30
0.0
 10
4565.804954415301
 20
3128.946547386388
 30
0.0
 10
4561.224129052178
 20
3128.946547386388
 30
0.0
 10
4554.114270873043
 20
3128.946547386388
 30
0.0
 10
4546.434599130504
 20
3128.946547386388
 30
0.0
 10
4537.972539856158
 20
3128.946547386388
 30
0.0
 10
4528.667405764314
 20
3128.946547386388
 30
0.0
 10
4518.613991483883
 20
3128.946547386387
 30
0.0
 10
4507.989265437518
 20
3128.946547386387
 30
0.0
 10
4495.942661373824
 20
3128.946547386387
 30
0.0
 10
4482.53265802807
 20
3128.946547386388
 30
0.0
 10
4467.80646058606
 20
3128.946547386388
 30
0.0
 10
4452.790318250403
 20
3128.946547386388
 30
0.0
 10
4437.598721049841
 20
3128.946547386388
 30
0.0
 10
4422.037764147363
 20
3128.946547386387
 30
0.0
 10
4406.241685999194
 20
3128.946547386388
 30
0.0
 10
4390.330237852305
 20
3128.946547386388
 30
0.0
 10
4374.694586596953
 20
3128.946547386388
 30
0.0
 10
4359.426950802529
 20
3128.946547386388
 30
0.0
 10
4344.606565532155
 20
3128.946547386387
 30
0.0
 10
4330.572783200658
 20
3128.946547386387
 30
0.0
 10
4317.338059034084
 20
3128.946547386387
 30
0.0
 10
4304.907661238414
 20
3128.946547386387
 30
0.0
 10
4293.059378625737
 20
3128.946547386387
 30
0.0
 10
4281.819570625739
 20
3128.946547386387
 30
0.0
 10
4271.14823829988
 20
3128.946547386388
 30
0.0
 10
4261.086656734248
 20
3128.946547386388
 30
0.0
 10
4251.656667989659
 20
3128.946547386388
 30
0.0
 10
4242.918163772315
 20
3128.946547386388
 30
0.0
 10
4234.872930883863
 20
3128.946547386387
 30
0.0
 10
4227.521878157521
 20
3128.946547386387
 30
0.0
 10
4220.870129454237
 20
3128.946547386388
 30
0.0
 10
4214.699287785202
 20
3128.946547386388
 30
0.0
 10
4209.069305766353
 20
3128.946547386387
 30
0.0
 10
4204.031785935597
 20
3128.946547386388
 30
0.0
 10
4199.717599356179
 20
3128.946547386388
 30
0.0
 10
4196.08770267026
 20
3128.946547386388
 30
0.0
 10
4193.398266930794
 20
3128.946547386388
 30
0.0
 10
4191.396540136436
 20
3128.946547386388
 30
0.0
 10
4189.898893255826
 20
3128.946547386388
 30
0.0
 10
4188.656360585182
 20
3128.946547386388
 30
0.0
 10
4187.646598375066
 20
3128.946547386388
 30
0.0
 10
4186.847174655319
 20
3128.946547386388
 30
0.0
 10
4186.237340753622
 20
3128.946547386388
 30
0.0
 10
4185.77577221689
 20
3128.946547386388
 30
0.0
 10
4185.454114835624
 20
3128.946547386388
 30
0.0
 10
4185.255767263773
 20
3128.946547386388
 30
0.0
 10
4185.15804905435
 20
3128.946547386388
 30
0.0
 10
4185.129255841676
 20
3128.946547386388
 30
0.0
 10
4185.129290235807
 20
3128.946547386388
 30
0.0
 10
4185.129302441244
 20
3128.946547386388
 30
0.0
  0
SPLINE
  5
1C7
330
1F
100
AcDbEntity
  8
Warndon
  6
SLD-Solid
370
    15
100
AcDbSpline
210
0.0
220
0.0
230
1.0
 70
    24
 71
     3
 72
    30
 73
    26
 74
     0
 42
0.000000001
 43
0.0000000001
 40
0.0
 40
0.0
 40
0.0
 40
0.0
 40
0.0078125000000003
 40
0.0078125000000003
 40
0.0156250000000007
 40
0.0156250000000007
 40
0.0312500000000004
 40
0.0312500000000004
 40
0.0625000000000008
 40
0.0625000000000008
 40
0.1250000000000018
 40
0.250000000000002
 40
0.5000000000000014
 40
0.5000000000000014
 40
0.6250000000000026
 40
0.6250000000000026
 40
0.7500000000000038
 40
0.8750000000000049
 40
0.9375000000000049
 40
0.9687500000000042
 40
0.9687500000000042
 40
0.9765625000000024
 40
0.9765625000000024
 40
0.9843750000000005
 40
1.0
 40
1.0
 40
1.0
 40
1.0
 10
4568.047716832165
 20
3063.116768244818
 30
0.0
 10
4568.047716832165
 20
3063.321755550154
 30
0.0
 10
4568.047716832165
 20
3063.538052326208
 30
0.0
 10
4568.047716832165
 20
3063.984806506544
 30
0.0
 10
4568.047716832165
 20
3064.214511656619
 30
0.0
 10
4568.047716832165
 20
3064.902074195429
 30
0.0
 10
4568.047716832165
 20
3065.354413030085
 30
0.0
 10
4568.047716832165
 20
3066.698047139042
 30
0.0
 10
4568.047716832165
 20
3067.58017236679
 30
0.0
 10
4568.047716832165
 20
3070.194725833044
 30
0.0
 10
4568.047716832165
 20
3075.287093593639
 30
0.0
 10
4568.047716832165
 20
3086.285883730106
 30
0.0
 10
4568.047716832165
 20
3094.451951547777
 30
0.0
 10
4568.047716832165
 20
3102.114289178084
 30
0.0
 10
4568.047716832165
 20
3104.582470960804
 30
0.0
 10
4568.047716832165
 20
3109.417189424692
 30
0.0
 10
4568.047716832165
 20
3114.157511234661
 30
0.0
 10
4568.047716832165
 20
3120.110067151549
 30
0.0
 10
4568.047716832165
 20
3124.429263238786
 30
0.0
 10
4568.047716832165
 20
3126.327807829853
 30
0.0
 10
4568.047716832165
 20
3127.126487730983
 30
0.0
 10
4568.047716832165
 20
3127.286549736096
 30
0.0
 10
4568.047716832165
 20
3127.607715133307
 30
0.0
 10
4568.047716832165
 20
3128.09156000918
 30
0.0
 10
4568.047716832165
 20
3128.593461773132
 30
0.0
 10
4568.047716832165
 20
3128.946547386388
 30
0.0
  0
SPLINE
  5
1C8
330
1F
100
AcDbEntity
  8
Warndon
  6
SLD-Solid
370
    15
100
AcDbSpline
210
0.0
220
0.0
230
1.0
 70
    24
 71
     3
 72
    55
 73
    51
 74
     0
 42
0.000000001
 43
0.0000000001
 40
0.0
 40
0.0
 40
0.0
 40
0.0
 40
0.022881707028756
 40
0.0633267741626893
 40
0.1031632775557923
 40
0.1420874261190449
 40
0.1718331586623937
 40
0.2006818765634518
 40
0.2285095930336762
 40
0.2553352839143312
 40
0.2860695170748853
 40
0.3156211895657697
 40
0.344121803016468
 40
0.3717047312966373
 40
0.3985029545861145
 40
0.4245847712672268
 40
0.4499467356507534
 40
0.4745839992604637
 40
0.4984945264065037
 40
0.5216795420852233
 40
0.5441442016368598
 40
0.5659044286738575
 40
0.5858011970491848
 40
0.605122177651138
 40
0.6238946703219113
 40
0.6421477436875858
 40
0.6599123111280083
 40
0.6807176258146768
 40
0.7009097891130437
 40
0.7205386607940097
 40
0.7396549578636933
 40
0.7583100898356527
 40
0.7765538721791847
 40
0.79342060844935
 40
0.8099976892752222
 40
0.8263031876543866
 40
0.84234360515455
 40
0.8581198006058333
 40
0.8745497272263104
 40
0.8906127905280744
 40
0.9062339359005722
 40
0.921339274854138
 40
0.9358619240481482
 40
0.9497161245334224
 40
0.9599824120685324
 40
0.9695194417852583
 40
0.9781582702701332
 40
0.9859280926325178
 40
0.9931103991348782
 40
1.0
 40
1.0
 40
1.0
 40
1.0
 10
4210.278038171868
 20
3063.116768244818
 30
0.0
 10
4210.278237987881
 20
3063.116768244818
 30
0.0
 10
4210.278790993105
 20
3063.116768244818
 30
0.0
 10
4210.321512424876
 20
3063.116768244818
 30
0.0
 10
4210.463833165664
 20
3063.116768244818
 30
0.0
 10
4210.731514233553
 20
3063.116768244818
 30
0.0
 10
4211.127755760979
 20
3063.116768244818
 30
0.0
 10
4211.632109487818
 20
3063.116768244818
 30
0.0
 10
4212.304587807635
 20
3063.116768244818
 30
0.0
 10
4213.217022425571
 20
3063.116768244818
 30
0.0
 10
4214.437500107983
 20
3063.116768244818
 30
0.0
 10
4216.058577284901
 20
3063.116768244818
 30
0.0
 10
4218.040728074885
 20
3063.116768244818
 30
0.0
 10
4220.41750034819
 20
3063.116768244818
 30
0.0
 10
4223.220121701579
 20
3063.116768244818
 30
0.0
 10
4226.471242919121
 20
3063.116768244818
 30
0.0
 10
4230.189335443351
 20
3063.116768244818
 30
0.0
 10
4234.390714519506
 20
3063.116768244818
 30
0.0
 10
4239.091676911584
 20
3063.116768244818
 30
0.0
 10
4244.307818514449
 20
3063.116768244818
 30
0.0
 10
4250.058193955757
 20
3063.116768244818
 30
0.0
 10
4256.237748970439
 20
3063.116768244818
 30
0.0
 10
4262.796913147184
 20
3063.116768244818
 30
0.0
 10
4269.689459244263
 20
3063.116768244818
 30
0.0
 10
4277.04548435015
 20
3063.116768244818
 30
0.0
 10
4284.859655408216
 20
3063.116768244818
 30
0.0
 10
4293.668352554681
 20
3063.116768244818
 30
0.0
 10
4303.597714487974
 20
3063.116768244818
 30
0.0
 10
4314.771477854361
 20
3063.116768244818
 30
0.0
 10
4326.532855286749
 20
3063.116768244818
 30
0.0
 10
4338.852080969678
 20
3063.116768244818
 30
0.0
 10
4351.691953869458
 20
3063.116768244818
 30
0.0
 10
4364.760543289734
 20
3063.116768244818
 30
0.0
 10
4377.976102300739
 20
3063.116768244818
 30
0.0
 10
4391.263638180554
 20
3063.116768244818
 30
0.0
 10
4404.835227804474
 20
3063.116768244818
 30
0.0
 10
4418.628026655021
 20
3063.116768244818
 30
0.0
 10
4432.850203815211
 20
3063.116768244818
 30
0.0
 10
4447.434283066499
 20
3063.116768244818
 30
0.0
 10
4462.271118016041
 20
3063.116768244818
 30
0.0
 10
4476.938899363407
 20
3063.116768244818
 30
0.0
 10
4491.310063472977
 20
3063.116768244818
 30
0.0
 10
4505.257504990788
 20
3063.116768244818
 30
0.0
 10
4517.745122738141
 20
3063.116768244818
 30
0.0
 10
4528.66852140436
 20
3063.116768244818
 30
0.0
 10
4537.923117895587
 20
3063.116768244818
 30
0.0
 10
4546.379717810128
 20
3063.116768244818
 30
0.0
 10
4554.076691394022
 20
3063.116768244818
 30
0.0
 10
4561.205721673064
 20
3063.116768244818
 30
0.0
 10
4565.798898891957
 20
3063.116768244818
 30
0.0
 10
4568.047716832165
 20
3063.116768244817
 30
0.0
  0
LINE
  5
1C9
330
1F
100
AcDbEntity
  8
Warndon
  6
SLD-Solid
370
    15
100
AcDbLine
 10
4950.967937984849
 20
3128.946547386388
 30
0.0
 11
4950.23652300576
 21
3127.461660947389
 31
0.0
  0
SPLINE
  5
1CB
330
1F
100
AcDbEntity
  8
Warndon
  6
SLD-Solid
370
    15
100
AcDbSpline
210
0.0
220
0.0
230
1.0
 70
    24
 71
     3
 72
    54
 73
    50
 74
     0
 42
0.000000001
 43
0.0000000001
 40
0.0
 40
0.0
 40
0.0
 40
0.0
 40
0.0270774110408894
 40
0.0668317104043334
 40
0.1057077190883155
 40
0.1354469236016083
 40
0.1643226636401731
 40
0.1922158964358239
 40
0.2191469321601914
 40
0.2500583978037168
 40
0.2798435396158188
 40
0.3086338092924454
 40
0.3365625810395036
 40
0.3637628976319886
 40
0.3903035682794758
 40
0.4161822577009488
 40
0.4413954817316153
 40
0.4659428149898116
 40
0.4898273460893857
 40
0.5130562926982196
 40
0.5356455254397961
 40
0.5563805501967514
 40
0.5765924149714694
 40
0.5963065834522773
 40
0.6155507595417578
 40
0.6343549970905665
 40
0.656475447527258
 40
0.6780412966164086
 40
0.6990917311873681
 40
0.7196678372936268
 40
0.7398102074648847
 40
0.7595552192208072
 40
0.7778380580248493
 40
0.7958208693730208
 40
0.8135131698005302
 40
0.8309132223199442
 40
0.8480130589063573
 40
0.8657977840982987
 40
0.8831564404172503
 40
0.9000044493173234
 40
0.9162646014485041
 40
0.93187767839838
 40
0.9467628391721801
 40
0.9577751311321275
 40
0.9679672197912536
 40
0.9771385191919346
 40
0.9853178328801474
 40
0.9928261058573141
 40
1.0
 40
1.0
 40
1.0
 40
1.0
 10
4950.943414731742
 20
3128.946547386388
 30
0.0
 10
4950.934478515915
 20
3128.946547386388
 30
0.0
 10
4950.912422397355
 20
3128.946547386388
 30
0.0
 10
4950.778078324009
 20
3128.946547386388
 30
0.0
 10
4950.511175805754
 20
3128.946547386388
 30
0.0
 10
4950.112202238917
 20
3128.946547386388
 30
0.0
 10
4949.604686784556
 20
3128.946547386388
 30
0.0
 10
4948.927752868971
 20
3128.946547386388
 30
0.0
 10
4948.00811701505
 20
3128.946547386388
 30
0.0
 10
4946.775554287433
 20
3128.946547386388
 30
0.0
 10
4945.134866353782
 20
3128.946547386388
 30
0.0
 10
4943.124053648772
 20
3128.946547386388
 30
0.0
 10
4940.707449815771
 20
3128.946547386388
 30
0.0
 10
4937.852044923726
 20
3128.946547386388
 30
0.0
 10
4934.531915843374
 20
3128.946547386388
 30
0.0
 10
4930.72353928763
 20
3128.946547386388
 30
0.0
 10
4926.405880327751
 20
3128.946547386387
 30
0.0
 10
4921.5578471481
 20
3128.946547386388
 30
0.0
 10
4916.159009063672
 20
3128.946547386387
 30
0.0
 10
4910.185881529521
 20
3128.946547386388
 30
0.0
 10
4903.744533857395
 20
3128.946547386387
 30
0.0
 10
4896.881804885183
 20
3128.946547386388
 30
0.0
 10
4889.642164239305
 20
3128.946547386388
 30
0.0
 10
4881.885661398538
 20
3128.946547386388
 30
0.0
 10
4873.613282664631
 20
3128.946547386388
 30
0.0
 10
4864.246622067834
 20
3128.946547386388
 30
0.0
 10
4853.642058791498
 20
3128.946547386388
 30
0.0
 10
4841.660881183689
 20
3128.946547386387
 30
0.0
 10
4828.99882193748
 20
3128.946547386387
 30
0.0
 10
4815.686676271901
 20
3128.946547386387
 30
0.0
 10
4801.768544358463
 20
3128.946547386387
 30
0.0
 10
4787.571409636793
 20
3128.946547386387
 30
0.0
 10
4773.193035447956
 20
3128.946547386388
 30
0.0
 10
4758.722456849151
 20
3128.946547386388
 30
0.0
 10
4743.938551675255
 20
3128.946547386388
 30
0.0
 10
4728.918259854292
 20
3128.946547386387
 30
0.0
 10
4713.443194934819
 20
3128.946547386388
 30
0.0
 10
4697.593837778943
 20
3128.946547386388
 30
0.0
 10
4681.495837535205
 20
3128.946547386388
 30
0.0
 10
4665.611080418198
 20
3128.946547386388
 30
0.0
 10
4650.074451625182
 20
3128.946547386387
 30
0.0
 10
4635.014768479182
 20
3128.946547386387
 30
0.0
 10
4621.545286959945
 20
3128.946547386387
 30
0.0
 10
4609.784554024771
 20
3128.946547386387
 30
0.0
 10
4599.860510864708
 20
3128.946547386388
 30
0.0
 10
4590.84690830212
 20
3128.946547386388
 30
0.0
 10
4582.703218056559
 20
3128.946547386388
 30
0.0
 10
4575.210853210955
 20
3128.946547386388
 30
0.0
 10
4570.398899027977
 20
3128.946547386388
 30
0.0
 10
4568.047716832165
 20
3128.946547386388
 30
0.0
  0
SPLINE
  5
1CC
330
1F
100
AcDbEntity
  8
Warndon
  6
SLD-Solid
370
    15
100
AcDbSpline
210
0.0
220
0.0
230
1.0
 70
    24
 71
     3
 72
    53
 73
    49
 74
     0
 42
0.000000001
 43
0.0000000001
 40
0.0
 40
0.0
 40
0.0
 40
0.0
 40
0.0077678639782278
 40
0.0159280786926388
 40
0.0248762425658096
 40
0.0349409595126549
 40
0.0460371097853186
 40
0.0579332763732703
 40
0.0704161537218272
 40
0.0883559499350487
 40
0.1070860370940748
 40
0.1264888504352985
 40
0.1464361757174786
 40
0.1637146775604146
 40
0.1812998810819218
 40
0.1991934550704726
 40
0.217404791321984
 40
0.2359611960356382
 40
0.2549074473421231
 40
0.2731725047485296
 40
0.2918714542936616
 40
0.3110487475235075
 40
0.3307481527974255
 40
0.3510127380224258
 40
0.3722716403023022
 40
0.3942123696792177
 40
0.4168836455123465
 40
0.4403308169359351
 40
0.4645960381677709
 40
0.4897181924441242
 40
0.5157230212207318
 40
0.5403434198843846
 40
0.5657139359662448
 40
0.5918327130869927
 40
0.6186949581631114
 40
0.6462958180377451
 40
0.6746970999769971
 40
0.6997811510185223
 40
0.7256400385907485
 40
0.7523595767175277
 40
0.7800245995245631
 40
0.8087190616231556
 40
0.8385173235281534
 40
0.8693621993828056
 40
0.9043117482569584
 40
0.9401222251034823
 40
0.9765787901656848
 40
1.0
 40
1.0
 40
1.0
 40
1.0
 10
4568.047716832165
 20
3063.116768244819
 30
0.0
 10
4570.504272782175
 20
3063.116768244819
 30
0.0
 10
4575.541464035047
 20
3063.116768244819
 30
0.0
 10
4583.408068381653
 20
3063.116768244819
 30
0.0
 10
4591.996411865479
 20
3063.116768244819
 30
0.0
 10
4601.500231034917
 20
3063.116768244819
 30
0.0
 10
4611.912032744631
 20
3063.116768244819
 30
0.0
 10
4623.048405420759
 20
3063.116768244819
 30
0.0
 10
4636.265313515965
 20
3063.116768244819
 30
0.0
 10
4651.491421065653
 20
3063.116768244819
 30
0.0
 10
4668.631182630568
 20
3063.116768244819
 30
0.0
 10
4686.069219678799
 20
3063.116768244819
 30
0.0
 10
4702.683551945313
 20
3063.116768244819
 30
0.0
 10
4718.326198044058
 20
3063.116768244819
 30
0.0
 10
4732.937065048715
 20
3063.116768244819
 30
0.0
 10
4747.290826690965
 20
3063.116768244819
 30
0.0
 10
4761.312737328136
 20
3063.116768244819
 30
0.0
 10
4774.938910171327
 20
3063.116768244819
 30
0.0
 10
4787.862821380866
 20
3063.116768244819
 30
0.0
 10
4800.079705244911
 20
3063.116768244819
 30
0.0
 10
4811.590998738597
 20
3063.116768244819
 30
0.0
 10
4822.602330667817
 20
3063.116768244819
 30
0.0
 10
4833.088321678309
 20
3063.116768244819
 30
0.0
 10
4843.086012524629
 20
3063.116768244819
 30
0.0
 10
4852.555349494065
 20
3063.116768244819
 30
0.0
 10
4861.471317441186
 20
3063.116768244819
 30
0.0
 10
4869.771290919648
 20
3063.116768244819
 30
0.0
 10
4877.446725355961
 20
3063.116768244819
 30
0.0
 10
4884.490005795582
 20
3063.116768244819
 30
0.0
 10
4890.888741006497
 20
3063.116768244819
 30
0.0
 10
4896.479056789161
 20
3063.116768244819
 30
0.0
 10
4901.35658548267
 20
3063.116768244819
 30
0.0
 10
4905.59628196122
 20
3063.116768244819
 30
0.0
 10
4909.351464779949
 20
3063.116768244819
 30
0.0
 10
4912.638337950732
 20
3063.116768244819
 30
0.0
 10
4915.475197814403
 20
3063.116768244819
 30
0.0
 10
4917.7640542039
 20
3063.116768244819
 30
0.0
 10
4919.606339805694
 20
3063.116768244819
 30
0.0
 10
4921.085108060021
 20
3063.116768244819
 30
0.0
 10
4922.314468393551
 20
3063.116768244819
 30
0.0
 10
4923.315451949029
 20
3063.116768244819
 30
0.0
 10
4924.109223079366
 20
3063.116768244819
 30
0.0
 10
4924.715139408964
 20
3063.116768244819
 30
0.0
 10
4925.173749778405
 20
3063.116768244819
 30
0.0
 10
4925.494045884267
 20
3063.116768244819
 30
0.0
 10
4925.689900570709
 20
3063.116768244819
 30
0.0
 10
4925.781024738734
 20
3063.116768244819
 30
0.0
 10
4925.796102933858
 20
3063.116768244819
 30
0.0
 10
4925.80200077446
 20
3063.116768244819
 30
0.0
  0
SPLINE
  5
1CD
330
1F
100
AcDbEntity
  8
Warndon
  6
SLD-Solid
370
    15
100
AcDbSpline
210
0.0
220
0.0
230
1.0
 70
    24
 71
     3
 72
    53
 73
    49
 74
     0
 42
0.000000001
 43
0.0000000001
 40
0.0
 40
0.0
 40
0.0
 40
0.0
 40
0.0078707718124023
 40
0.0161390921817287
 40
0.0252058003762995
 40
0.0354038536206755
 40
0.0466470045096523
 40
0.0587007702448054
 40
0.0713490194221955
 40
0.0895264801438339
 40
0.108504701501507
 40
0.1281645612461479
 40
0.1483761465679114
 40
0.1658835521619198
 40
0.1837017225856525
 40
0.2018323487355137
 40
0.2202849468289316
 40
0.2390871848147055
 40
0.2582844340394264
 40
0.2767914649798748
 40
0.2957381362158632
 40
0.3151694881827242
 40
0.3351298690783764
 40
0.3556629173688726
 40
0.377203455320625
 40
0.399434853142137
 40
0.4224064756214607
 40
0.446164272673341
 40
0.4707509569701499
 40
0.496205926869128
 40
0.5225552648460745
 40
0.5475018319274662
 40
0.5732084539026828
 40
0.5996732497992897
 40
0.6268913630355094
 40
0.6548578761603821
 40
0.6836354152560857
 40
0.709051777132641
 40
0.7352532404916831
 40
0.7623267562121069
 40
0.7903582822930721
 40
0.8194328855676232
 40
0.8496259116707845
 40
0.8808794171536693
 40
0.9162919739267886
 40
0.9525768641543091
 40
0.9895164019053371
 40
1.0
 40
1.0
 40
1.0
 40
1.0
 10
4568.047716832165
 20
3063.116768244819
 30
0.0
 10
4565.591160882155
 20
3063.116768244819
 30
0.0
 10
4560.553969629284
 20
3063.116768244819
 30
0.0
 10
4552.687365282676
 20
3063.116768244819
 30
0.0
 10
4544.099021798851
 20
3063.116768244819
 30
0.0
 10
4534.595202629414
 20
3063.116768244819
 30
0.0
 10
4524.183400919699
 20
3063.116768244819
 30
0.0
 10
4513.047028243572
 20
3063.116768244819
 30
0.0
 10
4499.830120148366
 20
3063.116768244819
 30
0.0
 10
4484.604012598678
 20
3063.116768244819
 30
0.0
 10
4467.464251033763
 20
3063.116768244819
 30
0.0
 10
4450.026213985531
 20
3063.116768244819
 30
0.0
 10
4433.411881719017
 20
3063.116768244819
 30
0.0
 10
4417.769235620273
 20
3063.116768244819
 30
0.0
 10
4403.158368615615
 20
3063.116768244819
 30
0.0
 10
4388.804606973366
 20
3063.116768244819
 30
0.0
 10
4374.782696336193
 20
3063.116768244819
 30
0.0
 10
4361.156523493003
 20
3063.116768244819
 30
0.0
 10
4348.232612283464
 20
3063.116768244819
 30
0.0
 10
4336.01572841942
 20
3063.116768244819
 30
0.0
 10
4324.504434925734
 20
3063.116768244819
 30
0.0
 10
4313.493102996513
 20
3063.116768244819
 30
0.0
 10
4303.00711198602
 20
3063.116768244819
 30
0.0
 10
4293.009421139702
 20
3063.116768244819
 30
0.0
 10
4283.540084170264
 20
3063.116768244819
 30
0.0
 10
4274.624116223145
 20
3063.116768244819
 30
0.0
 10
4266.324142744682
 20
3063.116768244819
 30
0.0
 10
4258.648708308371
 20
3063.116768244819
 30
0.0
 10
4251.605427868748
 20
3063.116768244819
 30
0.0
 10
4245.206692657834
 20
3063.116768244819
 30
0.0
 10
4239.616376875168
 20
3063.116768244819
 30
0.0
 10
4234.738848181669
 20
3063.116768244819
 30
0.0
 10
4230.499151703082
 20
3063.116768244819
 30
0.0
 10
4226.74396888449
 20
3063.116768244819
 30
0.0
 10
4223.457095713174
 20
3063.116768244819
 30
0.0
 10
4220.620235851574
 20
3063.116768244819
 30
0.0
 10
4218.331379454407
 20
3063.116768244819
 30
0.0
 10
4216.489093878454
 20
3063.116768244819
 30
0.0
 10
4215.010325526399
 20
3063.116768244819
 30
0.0
 10
4213.780965576646
 20
3063.116768244819
 30
0.0
 10
4212.779980511408
 20
3063.116768244819
 30
0.0
 10
4211.986215334803
 20
3063.116768244819
 30
0.0
 10
4211.380275517519
 20
3063.116768244819
 30
0.0
 10
4210.921760552563
 20
3063.116768244819
 30
0.0
 10
4210.601055939724
 20
3063.116768244819
 30
0.0
 10
4210.406809770744
 20
3063.116768244819
 30
0.0
 10
4210.323477551439
 20
3063.116768244819
 30
0.0
 10
4210.30989514023
 20
3063.116768244819
 30
0.0
 10
4210.30689254376
 20
3063.116768244819
 30
0.0
  0
SPLINE
  5
1D0
330
1F
100
AcDbEntity
  8
Warndon
  6
SLD-Solid
370
    15
100
AcDbSpline
210
0.0
220
0.0
230
1.0
 70
     8
 71
     3
 72
    22
 73
    18
 74
     0
 42
0.000000001
 43
0.0000000001
 40
0.0
 40
0.0
 40
0.0
 40
0.0
 40
0.0728480173228432
 40
0.1352438017551735
 40
0.1895682510429882
 40
0.238202352820879
 40
0.2835268487057197
 40
0.3279218150435495
 40
0.4374447424766365
 40
0.5544183518739808
 40
0.6777412115873749
 40
0.8063993038431606
 40
0.8644665490728444
 40
0.9235943296942419
 40
0.9554850037976486
 40
0.9884325559369131
 40
1.0
 40
1.0
 40
1.0
 40
1.0
 10
4237.635618165472
 20
2985.983484071166
 30
0.0
 10
4237.127575474423
 20
2987.86463816991
 30
0.0
 10
4236.184384053207
 20
2991.357038393708
 30
0.0
 10
4234.838451198851
 20
2996.24576318782
 30
0.0
 10
4233.643653547018
 20
3000.504266287447
 30
0.0
 10
4232.549969478885
 20
3004.31681449413
 30
0.0
 10
4231.508902268807
 20
3007.868081797309
 30
0.0
 10
4229.984904677448
 20
3012.974894581717
 30
0.0
 10
4227.877756308772
 20
3019.907732590506
 30
0.0
 10
4225.006788371212
 20
3028.814170870223
 30
0.0
 10
4221.741983824981
 20
3038.128691200315
 30
0.0
 10
4218.738149909198
 20
3045.861288005601
 30
0.0
 10
4216.179961141007
 20
3051.91941889077
 30
0.0
 10
4214.552843212689
 20
3055.561421710324
 30
0.0
 10
4213.041972437194
 20
3058.515156503918
 30
0.0
 10
4211.993551445025
 20
3060.270403168098
 30
0.0
 10
4211.377889289519
 20
3061.289522947835
 30
0.0
 10
4211.217906403905
 20
3061.554346311901
 30
0.0
  0
SPLINE
  5
1D3
330
1F
100
AcDbEntity
  8
Warndon
  6
SLD-Solid
370
    15
100
AcDbSpline
210
0.0
220
0.0
230
1.0
 70
    24
 71
     3
 72
    54
 73
    50
 74
     0
 42
0.000000001
 43
0.0000000001
 40
0.0
 40
0.0
 40
0.0
 40
0.0
 40
0.0195827500440832
 40
0.0612796770269297
 40
0.1020216408608441
 40
0.1331565430803504
 40
0.1633525387479173
 40
0.1924798507087154
 40
0.2205583410038435
 40
0.2527279082804554
 40
0.2836596875562122
 40
0.3134913217810636
 40
0.342362413581516
 40
0.3704121535083591
 40
0.3977120295793251
 40
0.4242584351864134
 40
0.4500462954223871
 40
0.475073479527667
 40
0.4993412697077433
 40
0.5228550620648621
 40
0.5456315238677059
 40
0.5664575007350498
 40
0.5866807996889465
 40
0.6063299955145711
 40
0.6254355143858092
 40
0.6440297133830385
 40
0.6658066670173615
 40
0.6869418341872663
 40
0.7074874031886514
 40
0.7274964595867841
 40
0.7470228137954926
 40
0.7661186077401212
 40
0.7837730455243815
 40
0.801124300526968
 40
0.8181912897811669
 40
0.8349808184875062
 40
0.851493785584743
 40
0.8686910140630379
 40
0.8855042461633846
 40
0.9018549221139814
 40
0.9176657027234821
 40
0.9328665811003974
 40
0.9473677932258624
 40
0.9581135315631909
 40
0.9680959546641203
 40
0.9771382292080634
 40
0.9852709137591409
 40
0.9927886445911397
 40
1.0
 40
1.0
 40
1.0
 40
1.0
 10
4925.783529307746
 20
3063.116768244818
 30
0.0
 10
4925.776827902316
 20
3063.116768244818
 30
0.0
 10
4925.755857407391
 20
3063.116768244818
 30
0.0
 10
4925.628918509133
 20
3063.116768244818
 30
0.0
 10
4925.364447484028
 20
3063.116768244818
 30
0.0
 10
4924.967556819784
 20
3063.116768244818
 30
0.0
 10
4924.463354967721
 20
3063.116768244818
 30
0.0
 10
4923.790838092977
 20
3063.116768244818
 30
0.0
 10
4922.878413624871
 20
3063.116768244818
 30
0.0
 10
4921.657932908545
 20
3063.116768244818
 30
0.0
 10
4920.036856543561
 20
3063.116768244818
 30
0.0
 10
4918.05470554765
 20
3063.116768244818
 30
0.0
 10
4915.677933326846
 20
3063.116768244818
 30
0.0
 10
4912.87531196
 20
3063.116768244818
 30
0.0
 10
4909.624190745917
 20
3063.116768244818
 30
0.0
 10
4905.906098220799
 20
3063.116768244818
 30
0.0
 10
4901.704719144872
 20
3063.116768244818
 30
0.0
 10
4897.003756752734
 20
3063.116768244818
 30
0.0
 10
4891.787615149886
 20
3063.116768244818
 30
0.0
 10
4886.037239708573
 20
3063.116768244818
 30
0.0
 10
4879.857684693893
 20
3063.116768244818
 30
0.0
 10
4873.298520517146
 20
3063.116768244818
 30
0.0
 10
4866.405974420068
 20
3063.116768244818
 30
0.0
 10
4859.04994931418
 20
3063.116768244818
 30
0.0
 10
4851.235778256114
 20
3063.116768244818
 30
0.0
 10
4842.42708110965
 20
3063.116768244818
 30
0.0
 10
4832.497719176356
 20
3063.116768244818
 30
0.0
 10
4821.323955809969
 20
3063.116768244818
 30
0.0
 10
4809.562578377581
 20
3063.116768244818
 30
0.0
 10
4797.243352694652
 20
3063.116768244818
 30
0.0
 10
4784.403479794871
 20
3063.116768244818
 30
0.0
 10
4771.334890374596
 20
3063.116768244818
 30
0.0
 10
4758.119331363591
 20
3063.116768244818
 30
0.0
 10
4744.831795483777
 20
3063.116768244818
 30
0.0
 10
4731.260205859857
 20
3063.116768244818
 30
0.0
 10
4717.467407009308
 20
3063.116768244818
 30
0.0
 10
4703.24522984912
 20
3063.116768244818
 30
0.0
 10
4688.661150597831
 20
3063.116768244818
 30
0.0
 10
4673.824315648289
 20
3063.116768244818
 30
0.0
 10
4659.156534300923
 20
3063.116768244818
 30
0.0
 10
4644.785370191353
 20
3063.116768244818
 30
0.0
 10
4630.837928673543
 20
3063.116768244818
 30
0.0
 10
4618.35031092619
 20
3063.116768244818
 30
0.0
 10
4607.42691225997
 20
3063.116768244818
 30
0.0
 10
4598.172315768743
 20
3063.116768244818
 30
0.0
 10
4589.715715854202
 20
3063.116768244818
 30
0.0
 10
4582.018742270309
 20
3063.116768244818
 30
0.0
 10
4574.889711991267
 20
3063.116768244818
 30
0.0
 10
4570.296534772373
 20
3063.116768244818
 30
0.0
 10
4568.047716832165
 20
3063.116768244818
 30
0.0
  0
SPLINE
  5
1D4
330
1F
100
AcDbEntity
  8
Warndon
  6
SLD-Solid
370
    15
100
AcDbSpline
210
0.0
220
0.0
230
1.0
 70
     8
 71
     3
 72
    22
 73
    18
 74
     0
 42
0.000000001
 43
0.0000000001
 40
0.0
 40
0.0
 40
0.0
 40
0.0
 40
0.0728642131354175
 40
0.1352738696052738
 40
0.1896103964846433
 40
0.2382553107571773
 40
0.283589883334114
 40
0.3279947197079509
 40
0.4375419966411424
 40
0.5545416119988876
 40
0.6778918892590542
 40
0.8065785852081834
 40
0.8646587401402154
 40
0.9237996662457049
 40
0.9556974303894397
 40
0.9886523075376587
 40
1.0
 40
1.0
 40
1.0
 40
1.0
 10
4898.459815498858
 20
2985.983484071166
 30
0.0
 10
4898.967858189909
 20
2987.86463816991
 30
0.0
 10
4899.911049611124
 20
2991.357038393707
 30
0.0
 10
4901.256982465475
 20
2996.245763187824
 30
0.0
 10
4902.451780117323
 20
3000.504266287438
 30
0.0
 10
4903.545464185406
 20
3004.316814494158
 30
0.0
 10
4904.586531395658
 20
3007.868081797211
 30
0.0
 10
4906.11052898609
 20
3012.974894582293
 30
0.0
 10
4908.217677363875
 20
3019.907732584471
 30
0.0
 10
4911.088645259922
 20
3028.814170894317
 30
0.0
 10
4914.35344997259
 20
3038.128691103612
 30
0.0
 10
4917.35728335615
 20
3045.861288295178
 30
0.0
 10
4919.915473144894
 20
3051.91941843964
 30
0.0
 10
4921.542588494019
 20
3055.561423131147
 30
0.0
 10
4923.053464963619
 20
3058.515153792018
 30
0.0
 10
4924.098821551803
 20
3060.265304679161
 30
0.0
 10
4924.711403827052
 20
3061.279339914376
 30
0.0
 10
4924.86831109741
 20
3061.539075638429
 30
0.0
  0
LINE
  5
1D5
330
1F
100
AcDbEntity
  8
Warndon
  6
SLD-Solid
370
    15
100
AcDbLine
 10
4925.679710422016
 20
3062.883519537937
 30
0.0
 11
4925.820480775691
 21
3063.116768244818
 31
0.0
  0
SPLINE
  5
1D6
330
1F
100
AcDbEntity
  8
Warndon
  6
SLD-Solid
370
    15
100
AcDbSpline
210
0.0
220
0.0
230
1.0
 70
     8
 71
     3
 72
     8
 73
     4
 74
     0
 42
0.000000001
 43
0.0000000001
 40
0.0
 40
0.0
 40
0.0
 40
0.0
 40
1.0
 40
1.0
 40
1.0
 40
1.0
 10
4843.391132387759
 20
2622.74913983693
 30
0.0
 10
4851.618358307674
 20
2739.865516191199
 30
0.0
 10
4868.908009060781
 20
2876.199367096769
 30
0.0
 10
4898.459815498858
 20
2985.983484071166
 30
0.0
  0
SPLINE
  5
1D9
330
1F
100
AcDbEntity
  8
Warndon
  6
SLD-Solid
370
    15
100
AcDbSpline
210
0.0
220
0.0
230
1.0
 70
     8
 71
     3
 72
     8
 73
     4
 74
     0
 42
0.000000001
 43
0.0000000001
 40
0.0
 40
0.0
 40
0.0
 40
0.0
 40
1.0
 40
1.0
 40
1.0
 40
1.0
 10
4292.704301276573
 20
2622.74913983693
 30
0.0
 10
4284.477075356658
 20
2739.865516191199
 30
0.0
 10
4267.187424603549
 20
2876.199367096769
 30
0.0
 10
4237.635618165472
 20
2985.983484071166
 30
0.0
  0
SPLINE
  5
1DA
330
1F
100
AcDbEntity
  8
Warndon
  6
SLD-Solid
370
    15
100
AcDbSpline
210
0.0
220
0.0
230
1.0
 70
    24
 71
     3
 72
    18
 73
    14
 74
     0
 42
0.000000001
 43
0.0000000001
 40
0.0
 40
0.0
 40
0.0
 40
0.0
 40
60.3065486933611
 40
120.61309738672
 40
180.91964608008
 40
241.226194773446
 40
321.634926364587
 40
402.043657955733
 40
482.4523895468799
 40
603.0654869336
 40
723.67858432032
 40
844.2916817070399
 40
964.9047790937599
 40
964.9047790937599
 40
964.9047790937599
 40
964.9047790937599
 10
4568.047716832165
 20
2622.74913983693
 30
0.0
 10
4561.553229988931
 20
2622.74913983693
 30
0.0
 10
4548.564256302465
 20
2622.74913983693
 30
0.0
 10
4523.21683508941
 20
2622.74913983693
 30
0.0
 10
4494.863899540632
 20
2622.74913983693
 30
0.0
 10
4462.768187391682
 20
2622.74913983693
 30
0.0
 10
4429.0014841969
 20
2622.74913983693
 30
0.0
 10
4395.118045417462
 20
2622.74913983693
 30
0.0
 10
4359.106519207482
 20
2622.74913983693
 30
0.0
 10
4325.002810793004
 20
2622.74913983693
 30
0.0
 10
4301.484842172699
 20
2622.74913983693
 30
0.0
 10
4292.712383035171
 20
2622.74913983693
 30
0.0
 10
4292.706995196105
 20
2622.74913983693
 30
0.0
 10
4292.704301276573
 20
2622.74913983693
 30
0.0
  0
SPLINE
  5
1DB
330
1F
100
AcDbEntity
  8
Warndon
  6
SLD-Solid
370
    15
100
AcDbSpline
210
0.0
220
0.0
230
1.0
 70
    24
 71
     3
 72
    18
 73
    14
 74
     0
 42
0.000000001
 43
0.0000000001
 40
0.0
 40
0.0
 40
0.0
 40
0.0
 40
60.3065486933611
 40
120.61309738672
 40
180.91964608008
 40
241.226194773446
 40
321.634926364587
 40
402.043657955733
 40
482.4523895468799
 40
603.0654869336
 40
723.67858432032
 40
844.2916817070399
 40
964.9047790937599
 40
964.9047790937599
 40
964.9047790937599
 40
964.9047790937599
 10
4568.047716832165
 20
2622.74913983693
 30
0.0
 10
4574.542203675399
 20
2622.74913983693
 30
0.0
 10
4587.531177361864
 20
2622.74913983693
 30
0.0
 10
4612.87859857492
 20
2622.74913983693
 30
0.0
 10
4641.231534123698
 20
2622.74913983693
 30
0.0
 10
4673.327246272648
 20
2622.74913983693
 30
0.0
 10
4707.09394946743
 20
2622.74913983693
 30
0.0
 10
4740.977388246867
 20
2622.74913983693
 30
0.0
 10
4776.98891445685
 20
2622.74913983693
 30
0.0
 10
4811.092622871326
 20
2622.74913983693
 30
0.0
 10
4834.610591491632
 20
2622.74913983693
 30
0.0
 10
4843.38305062916
 20
2622.74913983693
 30
0.0
 10
4843.388438468226
 20
2622.74913983693
 30
0.0
 10
4843.391132387759
 20
2622.74913983693
 30
0.0
  0
SPLINE
  5
1DC
330
1F
100
AcDbEntity
  8
Warndon
  6
SLD-Solid
370
    15
100
AcDbSpline
210
0.0
220
0.0
230
1.0
 70
     8
 71
     3
 72
     8
 73
     4
 74
     0
 42
0.000000001
 43
0.0000000001
 40
0.0
 40
0.0
 40
0.0
 40
0.0
 40
1.0
 40
1.0
 40
1.0
 40
1.0
 10
4843.391132387759
 20
2622.74913983693
 30
0.0
 10
4851.618358307674
 20
2739.865516191199
 30
0.0
 10
4868.908009060781
 20
2876.199367096769
 30
0.0
 10
4898.459815498858
 20
2985.983484071166
 30
0.0
  0
SPLINE
  5
1DF
330
1F
100
AcDbEntity
  8
Warndon
  6
SLD-Solid
370
    15
100
AcDbSpline
210
0.0
220
0.0
230
1.0
 70
     8
 71
     3
 72
     8
 73
     4
 74
     0
 42
0.000000001
 43
0.0000000001
 40
0.0
 40
0.0
 40
0.0
 40
0.0
 40
1.0
 40
1.0
 40
1.0
 40
1.0
 10
4292.704301276573
 20
2622.74913983693
 30
0.0
 10
4284.477075356658
 20
2739.865516191199
 30
0.0
 10
4267.187424603549
 20
2876.199367096769
 30
0.0
 10
4237.635618165472
 20
2985.983484071166
 30
0.0
  0
LINE
  5
1E0
330
1F
100
AcDbEntity
  8
Warndon
  6
SLD-Solid
370
    15
100
AcDbLine
 10
4568.047716832165
 20
2743.4351167496
 30
0.0
 11
4568.222721832165
 21
2743.4351167496
 31
0.0
  0
SPLINE
  5
1E1
330
1F
100
AcDbEntity
  8
Warndon
  6
SLD-Solid
370
    15
100
AcDbSpline
210
0.0
220
0.0
230
1.0
 70
     8
 71
     3
 72
    16
 73
    12
 74
     0
 42
0.000000001
 43
0.0000000001
 40
0.0
 40
0.0
 40
0.0
 40
0.0
 40
0.007638395730199
 40
0.114058152515414
 40
0.2222914738263963
 40
0.3322695604693763
 40
0.4658143593264671
 40
0.6007986470903809
 40
0.7372390625703617
 40
0.8733897809230574
 40
1.0
 40
1.0
 40
1.0
 40
1.0
 10
4187.052496225486
 20
3220.700688397972
 30
0.0
 10
4186.96194728638
 20
3220.716766328563
 30
0.0
 10
4185.60985123485
 20
3220.956845413797
 30
0.0
 10
4182.891522846577
 20
3220.365771964138
 30
0.0
 10
4179.257536649086
 20
3218.95193132818
 30
0.0
 10
4175.811113691891
 20
3216.40352872541
 30
0.0
 10
4172.82857272244
 20
3212.916376675869
 30
0.0
 10
4170.505146735029
 20
3208.596951677926
 30
0.0
 10
4168.945187196528
 20
3203.934888713109
 30
0.0
 10
4167.922272961797
 20
3199.228328771952
 30
0.0
 10
4167.669837992726
 20
3196.074604891678
 30
0.0
 10
4167.548203296757
 20
3194.554996706019
 30
0.0
  0
SPLINE
  5
1E2
330
1F
100
AcDbEntity
  8
Warndon
  6
SLD-Solid
370
    15
100
AcDbSpline
210
0.0
220
0.0
230
1.0
 70
    24
 71
     3
 72
    15
 73
    11
 74
     0
 42
0.000000001
 43
0.0000000001
 40
0.0
 40
0.0
 40
0.0
 40
0.0
 40
0.1286878690102764
 40
0.2670724671757334
 40
0.4057508745760548
 40
0.5429480435898772
 40
0.678680186983215
 40
0.7904577800136091
 40
0.90046046158385
 40
1.0
 40
1.0
 40
1.0
 40
1.0
 10
4568.047716832165
 20
3194.554996706019
 30
0.0
 10
4568.047716832165
 20
3196.074624495683
 30
0.0
 10
4568.047716832165
 20
3199.228385188868
 30
0.0
 10
4568.047716832165
 20
3203.934607154119
 30
0.0
 10
4568.047716832165
 20
3208.597942704191
 30
0.0
 10
4568.047716832165
 20
3212.912634201675
 30
0.0
 10
4568.047716832165
 20
3216.416180626584
 30
0.0
 10
4568.047716832165
 20
3218.914034885249
 30
0.0
 10
4568.047716832165
 20
3220.463009635297
 30
0.0
 10
4568.047716832165
 20
3220.630050014432
 30
0.0
 10
4568.047716832165
 20
3220.709399761882
 30
0.0
  0
SPLINE
  5
1E3
330
1F
100
AcDbEntity
  8
Warndon
  6
SLD-Solid
370
    15
100
AcDbSpline
210
0.0
220
0.0
230
1.0
 70
    24
 71
     3
 72
    55
 73
    51
 74
     0
 42
0.000000001
 43
0.0000000001
 40
0.0
 40
0.0
 40
0.0
 40
0.0
 40
0.0262592263507061
 40
0.0640208050987198
 40
0.101247767175072
 40
0.1376732693576156
 40
0.165557620532278
 40
0.1926540807920535
 40
0.2188542338262357
 40
0.2441779946449548
 40
0.2732812931498356
 40
0.3013649682007298
 40
0.328552259045322
 40
0.3549682405329401
 40
0.38073771726216
 40
0.4059255491817208
 40
0.4305302691636248
 40
0.45454949806346
 40
0.4779838854167959
 40
0.5008375409446137
 40
0.5231185756766835
 40
0.5448418380874444
 40
0.5648322981167393
 40
0.5843664154285239
 40
0.6034668737729288
 40
0.6221587646283679
 40
0.6404697120956659
 40
0.6620698480858374
 40
0.683188012037697
 40
0.7038540039129446
 40
0.7241000830628887
 40
0.7439572739046923
 40
0.7634509416625265
 40
0.7815180041847709
 40
0.7992969567634432
 40
0.816791153281799
 40
0.8339936013010431
 40
0.8508910821018666
 40
0.8684511168164384
 40
0.8855730514456773
 40
0.9021713702528208
 40
0.9181715064773598
 40
0.9335229167273347
 40
0.9481529925828954
 40
0.9589656849102276
 40
0.9689500051332171
 40
0.9778972495835724
 40
0.9858341741926068
 40
0.993087437898094
 40
1.0
 40
1.0
 40
1.0
 40
1.0
 10
4167.550012911736
 20
3194.554996706019
 30
0.0
 10
4167.549791395977
 20
3194.554996706019
 30
0.0
 10
4167.549251333711
 20
3194.554996706019
 30
0.0
 10
4167.59259697471
 20
3194.554996706019
 30
0.0
 10
4167.735797563387
 20
3194.554996706019
 30
0.0
 10
4168.005687983749
 20
3194.554996706019
 30
0.0
 10
4168.405856196438
 20
3194.554996706019
 30
0.0
 10
4168.915749308991
 20
3194.554996706019
 30
0.0
 10
4169.59575474307
 20
3194.554996706019
 30
0.0
 10
4170.520435690431
 20
3194.554996706019
 30
0.0
 10
4171.761443305141
 20
3194.554996706019
 30
0.0
 10
4173.415841382526
 20
3194.554996706019
 30
0.0
 10
4175.446690147081
 20
3194.554996706019
 30
0.0
 10
4177.891137337149
 20
3194.554996706019
 30
0.0
 10
4180.783438523515
 20
3194.554996706019
 30
0.0
 10
4184.151807068707
 20
3194.554996706019
 30
0.0
 10
4188.023298353953
 20
3194.554996706019
 30
0.0
 10
4192.422245358352
 20
3194.554996706019
 30
0.0
 10
4197.373091322232
 20
3194.554996706019
 30
0.0
 10
4202.899644633023
 20
3194.554996706019
 30
0.0
 10
4209.028484155683
 20
3194.554996706019
 30
0.0
 10
4215.652834585348
 20
3194.554996706019
 30
0.0
 10
4222.727769203987
 20
3194.554996706019
 30
0.0
 10
4230.210045557276
 20
3194.554996706019
 30
0.0
 10
4238.246502279246
 20
3194.554996706019
 30
0.0
 10
4246.839191208577
 20
3194.554996706019
 30
0.0
 10
4256.595897368081
 20
3194.554996706019
 30
0.0
 10
4267.672459341339
 20
3194.554996706019
 30
0.0
 10
4280.218055048268
 20
3194.554996706019
 30
0.0
 10
4293.509734873677
 20
3194.554996706019
 30
0.0
 10
4307.515982472341
 20
3194.554996706019
 30
0.0
 10
4322.187868149041
 20
3194.554996706019
 30
0.0
 10
4337.173908702695
 20
3194.554996706019
 30
0.0
 10
4352.365147678344
 20
3194.554996706019
 30
0.0
 10
4367.662730836105
 20
3194.554996706019
 30
0.0
 10
4383.294103235058
 20
3194.554996706019
 30
0.0
 10
4399.17247241463
 20
3194.554996706019
 30
0.0
 10
4415.523366605794
 20
3194.554996706019
 30
0.0
 10
4432.257214062864
 20
3194.554996706019
 30
0.0
 10
4449.236830376396
 20
3194.554996706019
 30
0.0
 10
4465.972313028252
 20
3194.554996706019
 30
0.0
 10
4482.32365762235
 20
3194.554996706019
 30
0.0
 10
4498.160851601021
 20
3194.554996706019
 30
0.0
 10
4512.316703133598
 20
3194.554996706019
 30
0.0
 10
4524.66277344157
 20
3194.554996706019
 30
0.0
 10
4535.054793342101
 20
3194.554996706019
 30
0.0
 10
4544.457767868347
 20
3194.554996706019
 30
0.0
 10
4552.913733653314
 20
3194.554996706019
 30
0.0
 10
4560.660087182171
 20
3194.554996706019
 30
0.0
 10
4565.624977059028
 20
3194.554996706019
 30
0.0
 10
4568.047716832165
 20
3194.554996706019
 30
0.0
  0
SPLINE
  5
1E5
330
1F
100
AcDbEntity
  8
Warndon
  6
SLD-Solid
370
    15
100
AcDbSpline
210
0.0
220
0.0
230
1.0
 70
    24
 71
     3
 72
    50
 73
    46
 74
     0
 42
0.000000001
 43
0.0000000001
 40
0.0
 40
0.0
 40
0.0
 40
0.0
 40
0.0081854885061608
 40
0.0168316574524502
 40
0.026402578308664
 40
0.0372986754830612
 40
0.050041921632185
 40
0.0638181136642438
 40
0.078320968037541
 40
0.0945138184416941
 40
0.1113330903213509
 40
0.128731209079418
 40
0.1466343287870016
 40
0.1649637572645513
 40
0.1848015138099011
 40
0.2050176521290433
 40
0.2255954391943157
 40
0.2465271877558866
 40
0.267821406474433
 40
0.2894999612276201
 40
0.3103149308174856
 40
0.3315187247233196
 40
0.3531410765240486
 40
0.3752116180673262
 40
0.3977577902880955
 40
0.4212334302521327
 40
0.4452798836379878
 40
0.4699434531848183
 40
0.4952654955773064
 40
0.5212827224773564
 40
0.5480274193444015
 40
0.5755234040846772
 40
0.6066513362857594
 40
0.6387112695397011
 40
0.6717031238534395
 40
0.7056206061784253
 40
0.7405284227182542
 40
0.7705348510183811
 40
0.8015222624071943
 40
0.8336271510535762
 40
0.8669841614778976
 40
0.901723112355928
 40
0.9378254545186731
 40
0.9729120438746106
 40
1.0
 40
1.0
 40
1.0
 40
1.0
 10
4568.047716832165
 20
3194.554996706019
 30
0.0
 10
4570.640885963136
 20
3194.554996706019
 30
0.0
 10
4575.97316814714
 20
3194.554996706019
 30
0.0
 10
4584.337115759762
 20
3194.554996706019
 30
0.0
 10
4593.554906438774
 20
3194.554996706019
 30
0.0
 10
4604.056816254685
 20
3194.554996706019
 30
0.0
 10
4615.864206349953
 20
3194.554996706019
 30
0.0
 10
4628.767223750048
 20
3194.554996706019
 30
0.0
 10
4642.683062109008
 20
3194.554996706019
 30
0.0
 10
4657.441146993651
 20
3194.554996706019
 30
0.0
 10
4672.942366484937
 20
3194.554996706019
 30
0.0
 10
4688.765275587059
 20
3194.554996706019
 30
0.0
 10
4704.790447569741
 20
3194.554996706019
 30
0.0
 10
4721.221105530154
 20
3194.554996706019
 30
0.0
 10
4737.912018403352
 20
3194.554996706019
 30
0.0
 10
4754.732694008474
 20
3194.554996706019
 30
0.0
 10
4771.264432184241
 20
3194.554996706019
 30
0.0
 10
4787.402895211527
 20
3194.554996706019
 30
0.0
 10
4803.058091858642
 20
3194.554996706019
 30
0.0
 10
4817.867725672915
 20
3194.554996706019
 30
0.0
 10
4831.813969349601
 20
3194.554996706019
 30
0.0
 10
4844.886868218503
 20
3194.554996706019
 30
0.0
 10
4857.320219348761
 20
3194.554996706019
 30
0.0
 10
4869.086979232416
 20
3194.554996706019
 30
0.0
 10
4880.229218822786
 20
3194.554996706019
 30
0.0
 10
4890.704809884709
 20
3194.554996706019
 30
0.0
 10
4900.494125361532
 20
3194.554996706019
 30
0.0
 10
4909.539184352946
 20
3194.554996706019
 30
0.0
 10
4917.842922950841
 20
3194.554996706019
 30
0.0
 10
4925.409123153995
 20
3194.554996706019
 30
0.0
 10
4932.237726022139
 20
3194.554996706019
 30
0.0
 10
4938.555765783573
 20
3194.554996706019
 30
0.0
 10
4944.304396223953
 20
3194.554996706019
 30
0.0
 10
4949.434356355484
 20
3194.554996706019
 30
0.0
 10
4953.816273578627
 20
3194.554996706019
 30
0.0
 10
4957.49514396073
 20
3194.554996706019
 30
0.0
 10
4960.342290569915
 20
3194.554996706019
 30
0.0
 10
4962.535337337415
 20
3194.554996706019
 30
0.0
 10
4964.217748824763
 20
3194.554996706019
 30
0.0
 10
4965.557883910565
 20
3194.554996706019
 30
0.0
 10
4966.592683033531
 20
3194.554996706019
 30
0.0
 10
4967.358395314818
 20
3194.554996706019
 30
0.0
 10
4967.879309073106
 20
3194.554996706019
 30
0.0
 10
4968.200586875426
 20
3194.554996706019
 30
0.0
 10
4968.305298996627
 20
3194.554996706019
 30
0.0
 10
4968.350919552804
 20
3194.554996706019
 30
0.0
  0
SPLINE
  5
1E6
330
1F
100
AcDbEntity
  8
Warndon
  6
SLD-Solid
370
    15
100
AcDbSpline
210
0.0
220
0.0
230
1.0
 70
     8
 71
     3
 72
    16
 73
    12
 74
     0
 42
0.000000001
 43
0.0000000001
 40
0.0
 40
0.0
 40
0.0
 40
0.0
 40
0.1266102190774826
 40
0.2627609374307617
 40
0.3992013529113259
 40
0.5341856406758169
 40
0.6677304395334788
 40
0.777708526176931
 40
0.8859418474883668
 40
0.9923616042740452
 40
1.0
 40
1.0
 40
1.0
 40
1.0
 10
4968.547230367573
 20
3194.554996706019
 30
0.0
 10
4968.425595671605
 20
3196.074604891678
 30
0.0
 10
4968.173160702534
 20
3199.228328771952
 30
0.0
 10
4967.150246467801
 20
3203.934888713109
 30
0.0
 10
4965.590286929302
 20
3208.596951677928
 30
0.0
 10
4963.266860941891
 20
3212.916376675869
 30
0.0
 10
4960.284319972441
 20
3216.40352872541
 30
0.0
 10
4956.837897015244
 20
3218.951931328181
 30
0.0
 10
4953.203910817754
 20
3220.365771964134
 30
0.0
 10
4950.485582429532
 20
3220.956845413799
 30
0.0
 10
4949.133486378053
 20
3220.71676632858
 30
0.0
 10
4949.042937438996
 20
3220.700688397997
 30
0.0
  0
LINE
  5
1E7
330
1F
100
AcDbEntity
  8
Bounding Box
100
AcDbLine
 10
4167.547716829494
 20
3220.749139836929
 30
0.0
 11
4968.547716829494
 21
3220.749139836929
 31
0.0
  0
LINE
  5
1E8
330
1F
100
AcDbEntity
  8
Bounding Box
100
AcDbLine
 10
4167.547716829494
 20
3220.749139836929
 30
0.0
 11
4167.547716829494
 21
2622.74913983693
 31
0.0
  0
LINE
  5
1E9
330
1F
100
AcDbEntity
  8
Bounding Box
100
AcDbLine
 10
4167.547716829494
 20
2622.74913983693
 30
0.0
 11
4968.547716829494
 21
2622.74913983693
 31
0.0
  0
LINE
  5
1EA
330
1F
100
AcDbEntity
  8
Bounding Box
100
AcDbLine
 10
4968.547716829494
 20
3220.749139836929
 30
0.0
 11
4968.547716829494
 21
2622.74913983693
 31
0.0
  0
SPLINE
  5
271
330
1F
100
AcDbEntity
  8
Warndon
  6
SLD-Solid
370
    15
100
AcDbSpline
210
0.0
220
0.0
230
1.0
 70
     9
 71
     3
 72
    49
 73
    45
 74
     0
 42
0.000000001
 43
0.0000000001
 40
0.0
 40
0.0
 40
0.0
 40
0.0
 40
201.8335536256564
 40
269.1114048342151
 40
358.8152064456099
 40
448.5190080570127
 40
538.2228096684148
 40
672.7785120855187
 40
807.3342145026227
 40
941.8899169197265
 40
1076.445619336829
 40
1076.445619336829
 40
1076.445619336829
 40
1211.001321753933
 40
1345.557024171036
 40
1480.11272658814
 40
1614.668429005244
 40
1704.372230616646
 40
1794.076032228049
 40
1883.779833839445
 40
1951.057685048004
 40
2152.891238673659
 40
2152.891238673659
 40
2152.891238673659
 40
2354.724792299315
 40
2422.002643507874
 40
2511.70644511927
 40
2601.410246730672
 40
2691.114048342074
 40
2825.669750759178
 40
2960.225453176282
 40
3094.781155593387
 40
3229.33685801049
 40
3229.33685801049
 40
3229.33685801049
 40
3363.892560427593
 40
3498.448262844696
 40
3633.003965261801
 40
3767.559667678905
 40
3857.263469290307
 40
3946.967270901709
 40
4036.671072513104
 40
4103.948923721662
 40
4305.782477347319
 40
4305.782477347319
 40
4305.782477347319
 40
4305.782477347319
 10
3355.628180664167
 20
4317.265653274769
 30
0.0
 10
3352.241395846887
 20
4350.580599854398
 30
0.0
 10
3343.234196304649
 20
4394.021687424138
 30
0.0
 10
3325.219342361039
 20
4445.148772901553
 30
0.0
 10
3293.792625333118
 20
4500.51614290399
 30
0.0
 10
3244.265911622614
 20
4555.101314215434
 30
0.0
 10
3169.078965998146
 20
4608.489898713695
 30
0.0
 10
3060.234171598803
 20
4652.265892425909
 30
0.0
 10
2908.619103582231
 20
4678.702884676027
 30
0.0
 10
2732.582251503973
 20
4687.778592166291
 30
0.0
 10
2580.612870944103
 20
4687.769641928881
 30
0.0
 10
2534.628180664168
 20
4687.765166810178
 30
0.0
 10
2488.643490384232
 20
4687.769641928881
 30
0.0
 10
2336.674109824361
 20
4687.778592166291
 30
0.0
 10
2160.637257746105
 20
4678.702884676027
 30
0.0
 10
2009.022189729532
 20
4652.265892425909
 30
0.0
 10
1900.177395330189
 20
4608.489898713695
 30
0.0
 10
1824.99044970572
 20
4555.101314215434
 30
0.0
 10
1775.463735995218
 20
4500.51614290399
 30
0.0
 10
1744.037018967295
 20
4445.148772901553
 30
0.0
 10
1726.022165023687
 20
4394.021687424138
 30
0.0
 10
1717.014965481448
 20
4350.580599854398
 30
0.0
 10
1713.628180664167
 20
4317.265653274769
 30
0.0
 10
1717.014965481448
 20
4283.950706695139
 30
0.0
 10
1726.022165023687
 20
4240.509619125399
 30
0.0
 10
1744.037018967295
 20
4189.382533647985
 30
0.0
 10
1775.463735995218
 20
4134.015163645551
 30
0.0
 10
1824.99044970572
 20
4079.429992334104
 30
0.0
 10
1900.177395330189
 20
4026.041407835843
 30
0.0
 10
2009.022189729532
 20
3982.26541412363
 30
0.0
 10
2160.637257746105
 20
3955.828421873512
 30
0.0
 10
2336.674109824361
 20
3946.752714383247
 30
0.0
 10
2488.643490384232
 20
3946.761664620657
 30
0.0
 10
2534.628180664168
 20
3946.766139739361
 30
0.0
 10
2580.612870944103
 20
3946.761664620657
 30
0.0
 10
2732.582251503973
 20
3946.752714383247
 30
0.0
 10
2908.619103582231
 20
3955.828421873512
 30
0.0
 10
3060.234171598803
 20
3982.26541412363
 30
0.0
 10
3169.078965998146
 20
4026.041407835843
 30
0.0
 10
3244.265911622614
 20
4079.429992334104
 30
0.0
 10
3293.792625333118
 20
4134.015163645551
 30
0.0
 10
3325.219342361039
 20
4189.382533647985
 30
0.0
 10
3343.234196304649
 20
4240.509619125399
 30
0.0
 10
3352.241395846887
 20
4283.950706695139
 30
0.0
 10
3355.628180664167
 20
4317.265653274769
 30
0.0
  0
ENDSEC
  0
SECTION
  2
OBJECTS
  0
DICTIONARY
  5
C
330
0
100
AcDbDictionary
281
     1
  3
ACAD_CIP_PREVIOUS_PRODUCT_INFO
350
25B
  3
ACAD_COLOR
350
254
  3
ACAD_DETAILVIEWSTYLE
350
203
  3
ACAD_GROUP
350
D
  3
ACAD_IMAGE_VARS
350
221
  3
ACAD_LAYOUT
350
1A
  3
ACAD_MATERIAL
350
43
  3
ACAD_MLEADERSTYLE
350
202
  3
ACAD_MLINESTYLE
350
17
  3
ACAD_PLOTSETTINGS
350
19
  3
ACAD_PLOTSTYLENAME
350
E
  3
ACAD_SCALELIST
350
47
  3
ACAD_SECTIONVIEWSTYLE
350
204
  3
ACAD_TABLESTYLE
350
201
  3
ACAD_VISUALSTYLE
350
205
  3
ACDB_RECOMPOSE_DATA
350
2C2
  3
AcDbVariableDictionary
350
1FF
  3
AcDsDecomposeData
350
2C8
  3
APPDATA
350
21F
  0
SUN
  5
220
330
29
100
AcDbSun
 90
        1
290
     0
 63
     7
421
 16777215
 40
1.0
291
     1
 91
  2455826
 92
 54000000
292
     0
 70
     0
 71
   256
280
     1
1001
ACAD
1000
AcDbSavedByObjectVersion
1070
     0
1000
AcDbSavedByObjectVersion
1070
     0
1000
AcDbSavedByObjectVersion
1070
     0
  0
DICTIONARY
  5
222
330
2
100
AcDbDictionary
280
     1
281
     1
  3
ACAD_LAYERSTATES
360
223
  3
ACLYDICTIONARY
360
24B
  0
DICTIONARY
  5
2B4
330
10
100
AcDbDictionary
280
     1
281
     1
  3
ADSK_XREC_LAYER_RECONCILED
360
2B5
  0
DICTIONARY
  5
2B6
330
225
100
AcDbDictionary
280
     1
281
     1
  3
ADSK_XREC_LAYER_RECONCILED
360
2B7
  0
DICTIONARY
  5
2B8
330
227
100
AcDbDictionary
280
     1
281
     1
  3
ADSK_XREC_LAYER_RECONCILED
360
2B9
  0
DICTIONARY
  5
275
330
1F
100
AcDbDictionary
280
     1
281
     1
  3
ACAD_SORTENTS
360
276
  0
XRECORD
  5
25B
102
{ACAD_REACTORS
330
C
102
}
330
C
100
AcDbXrecord
280
     1
300
ACD
300
2019
300
ACD_F_S
  0
DICTIONARY
  5
254
102
{ACAD_REACTORS
330
C
102
}
330
C
100
AcDbDictionary
281
     1
  0
DICTIONARY
  5
203
102
{ACAD_REACTORS
330
C
102
}
330
C
100
AcDbDictionary
281
     1
  3
Metric50
350
257
  0
DICTIONARY
  5
D
102
{ACAD_REACTORS
330
C
102
}
330
C
100
AcDbDictionary
281
     1
  0
RASTERVARIABLES
  5
221
102
{ACAD_REACTORS
330
C
102
}
330
C
100
AcDbRasterVariables
 90
        0
 70
     1
 71
     1
 72
     1
  0
DICTIONARY
  5
1A
102
{ACAD_REACTORS
330
C
102
}
330
C
100
AcDbDictionary
281
     1
  3
Layout1
350
1E
  3
Layout2
350
26
  3
Model
350
22
  0
DICTIONARY
  5
43
102
{ACAD_REACTORS
330
C
102
}
330
C
100
AcDbDictionary
281
     1
  3
ByBlock
350
45
  3
ByLayer
350
44
  3
Global
350
46
  0
DICTIONARY
  5
202
102
{ACAD_REACTORS
330
C
102
}
330
C
100
AcDbDictionary
281
     1
  3
Standard
350
255
  0
DICTIONARY
  5
17
102
{ACAD_REACTORS
330
C
102
}
330
C
100
AcDbDictionary
281
     1
  3
Standard
350
18
  0
DICTIONARY
  5
19
102
{ACAD_REACTORS
330
C
102
}
330
C
100
AcDbDictionary
281
     1
  0
ACDBDICTIONARYWDFLT
  5
E
102
{ACAD_REACTORS
330
C
102
}
330
C
100
AcDbDictionary
281
     1
  3
Normal
350
F
100
AcDbDictionaryWithDefault
340
F
  0
DICTIONARY
  5
47
102
{ACAD_REACTORS
330
C
102
}
330
C
100
AcDbDictionary
281
     1
  3
A0
350
48
  3
A1
350
49
  3
A2
350
4A
  3
A3
350
4B
  3
A4
350
4C
  3
A5
350
4D
  3
A6
350
4E
  3
A7
350
4F
  3
A8
350
50
  3
A9
350
51
  3
B0
350
52
  3
B1
350
53
  3
B2
350
54
  3
B3
350
55
  3
B4
350
56
  3
B5
350
57
  3
B6
350
58
  3
B7
350
59
  3
B8
350
5A
  3
B9
350
5B
  3
C0
350
5C
  3
C1
350
5D
  3
C2
350
5E
  3
C3
350
5F
  3
C4
350
60
  3
C5
350
61
  3
C6
350
62
  3
C7
350
63
  3
C8
350
64
  3
C9
350
65
  3
D0
350
66
  3
D1
350
67
  3
D2
350
68
  0
DICTIONARY
  5
204
102
{ACAD_REACTORS
330
C
102
}
330
C
100
AcDbDictionary
281
     1
  3
Metric50
350
256
  0
DICTIONARY
  5
201
102
{ACAD_REACTORS
330
C
102
}
330
C
100
AcDbDictionary
281
     1
  3
Standard
350
21E
  0
DICTIONARY
  5
205
102
{ACAD_REACTORS
330
C
102
}
330
C
100
AcDbDictionary
281
     1
  3
2dWireframe
350
20A
  3
Basic
350
20D
  3
Brighten
350
211
  3
ColorChange
350
215
  3
Conceptual
350
20F
  3
Dim
350
210
  3
EdgeColorOff
350
218
  3
Facepattern
350
214
  3
Flat
350
206
  3
FlatWithEdges
350
207
  3
Gouraud
350
208
  3
GouraudWithEdges
350
209
  3
Hidden
350
20C
  3
JitterOff
350
216
  3
Linepattern
350
213
  3
OverhangOff
350
217
  3
Realistic
350
20E
  3
Shaded
350
21D
  3
Shaded with edges
350
21C
  3
Shades of Gray
350
219
  3
Sketchy
350
21A
  3
Thicken
350
212
  3
Wireframe
350
20B
  3
X-Ray
350
21B
  0
XRECORD
  5
2C2
102
{ACAD_REACTORS
330
C
102
}
330
C
100
AcDbXrecord
280
     1
 90
        1
330
21E
  0
DICTIONARY
  5
1FF
102
{ACAD_REACTORS
330
C
102
}
330
C
100
AcDbDictionary
281
     1
  3
CANNOSCALE
350
200
  3
CMLEADERSTYLE
350
28D
  3
CTABLESTYLE
350
250
  3
CVIEWDETAILSTYLE
350
28E
  3
CVIEWSECTIONSTYLE
350
28F
  3
LAYEREVAL
350
290
  3
LAYERNOTIFY
350
291
  3
LIGHTINGUNITS
350
24C
  3
MSLTSCALE
350
251
  0
DICTIONARY
  5
2C8
102
{ACAD_REACTORS
330
C
102
}
330
C
100
AcDbDictionary
281
     1
  3
AcDsRecords
350
2CA
  3
AcDsSchemas
350
2C9
1001
ACAD
1070
     2
  0
DICTIONARY
  5
21F
102
{ACAD_REACTORS
330
C
102
}
330
C
100
AcDbDictionary
281
     1
  0
DICTIONARY
  5
223
102
{ACAD_REACTORS
330
222
102
}
330
222
100
AcDbDictionary
281
     1
  3
ARGON_LAYERP_1
350
224
  3
ARGON_LAYERP_2
350
23D
  3
ARGON_LAYERP_3
350
240
  3
ARGON_LAYERP_4
350
24A
  0
DICTIONARY
  5
24B
102
{ACAD_REACTORS
330
222
102
}
330
222
100
AcDbDictionary
281
     1
1001
ACAD
1000
<All
  0
XRECORD
  5
2B5
102
{ACAD_REACTORS
330
2B4
102
}
330
2B4
100
AcDbXrecord
280
     1
290
     1
  0
XRECORD
  5
2B7
102
{ACAD_REACTORS
330
2B6
102
}
330
2B6
100
AcDbXrecord
280
     1
290
     1
  0
XRECORD
  5
2B9
102
{ACAD_REACTORS
330
2B8
102
}
330
2B8
100
AcDbXrecord
280
     1
290
     1
  0
SORTENTSTABLE
  5
276
102
{ACAD_REACTORS
330
275
102
}
330
275
100
AcDbSortentsTable
330
1F
  0
ACDBDETAILVIEWSTYLE
  5
257
102
{ACAD_XDICTIONARY
360
2CD
102
}
102
{ACAD_REACTORS
330
203
102
}
330
203
100
AcDbModelDocViewStyle
 70
     0
  3
Metric50
290
     0
100
AcDbDetailViewStyle
 70
     0
 71
     0
 90
        3
 71
     1
340
11
 62
   256
 40
5.0
340
0
 62
   256
 40
5.0
300

 40
0.0
280
     1
 71
     2
340
16
 90
       25
 62
   256
 71
     3
340
11
 62
   256
 40
5.0
 90
        0
 40
15.0
 90
        1
300
%<\AcVar ViewDetailId>% (%<\AcVar ViewScale \f "%sn">%)
 71
     4
340
16
 90
       25
 62
   256
340
16
 90
       25
 62
   256
280
     0
  0
LAYOUT
  5
1E
102
{ACAD_REACTORS
330
1A
102
}
330
1A
100
AcDbPlotSettings
  1

  2
none_device
  4

  6

 40
0.0
 41
0.0
 42
0.0
 43
0.0
 44
0.0
 45
0.0
 46
0.0
 47
0.0
 48
0.0
 49
0.0
140
0.0
141
0.0
142
1.0
143
1.0
 70
   688
 72
     1
 73
     0
 74
     5
  7

 75
    16
147
1.0
 76
     0
 77
     2
 78
   300
148
0.0
149
0.0
100
AcDbLayout
  1
Layout1
 70
     1
 71
     1
 10
0.0
 20
0.0
 11
420.0
 21
297.0
 12
0.0
 22
0.0
 32
0.0
 14
1.000000000000000E+20
 24
1.000000000000000E+20
 34
1.000000000000000E+20
 15
-1.000000000000000E+20
 25
-1.000000000000000E+20
 35
-1.000000000000000E+20
146
0.0
 13
0.0
 23
0.0
 33
0.0
 16
1.0
 26
0.0
 36
0.0
 17
0.0
 27
1.0
 37
0.0
 76
     0
330
1B
  0
LAYOUT
  5
26
102
{ACAD_REACTORS
330
1A
102
}
330
1A
100
AcDbPlotSettings
  1

  2
none_device
  4

  6

 40
0.0
 41
0.0
 42
0.0
 43
0.0
 44
0.0
 45
0.0
 46
0.0
 47
0.0
 48
0.0
 49
0.0
140
0.0
141
0.0
142
1.0
143
1.0
 70
   688
 72
     1
 73
     0
 74
     5
  7

 75
    16
147
1.0
 76
     0
 77
     2
 78
   300
148
0.0
149
0.0
100
AcDbLayout
  1
Layout2
 70
     1
 71
     2
 10
0.0
 20
0.0
 11
0.0
 21
0.0
 12
0.0
 22
0.0
 32
0.0
 14
0.0
 24
0.0
 34
0.0
 15
0.0
 25
0.0
 35
0.0
146
0.0
 13
0.0
 23
0.0
 33
0.0
 16
1.0
 26
0.0
 36
0.0
 17
0.0
 27
1.0
 37
0.0
 76
     0
330
23
  0
LAYOUT
  5
22
102
{ACAD_REACTORS
330
1A
102
}
330
1A
100
AcDbPlotSettings
  1

  2
none_device
  4
Letter_(8.50_x_11.00_Inches)
  6

 40
6.349999999999999
 41
6.349999999999999
 42
6.350005079999999
 43
6.350005079999999
 44
215.9
 45
279.4
 46
0.0
 47
0.0
 48
0.0
 49
0.0
140
0.0
141
0.0
142
1.0
143
1.0
 70
  1712
 72
     1
 73
     0
 74
     0
  7

 75
     0
147
1.0
 76
     0
 77
     2
 78
   300
148
0.0
149
0.0
100
AcDbLayout
  1
Model
 70
     1
 71
     0
 10
0.0
 20
0.0
 11
8400.0
 21
5940.0
 12
0.0
 22
0.0
 32
0.0
 14
0.0
 24
0.0
 34
0.0
 15
8400.0
 25
5940.0
 35
0.0
146
0.0
 13
0.0
 23
0.0
 33
0.0
 16
1.0
 26
0.0
 36
0.0
 17
0.0
 27
1.0
 37
0.0
 76
     0
330
1F
331
29
  0
MATERIAL
  5
45
102
{ACAD_REACTORS
330
43
102
}
330
43
100
AcDbMaterial
  1
ByBlock
 73
     1
 78
     1
172
     1
176
     1
270
     1
274
     1
  0
MATERIAL
  5
44
102
{ACAD_REACTORS
330
43
102
}
330
43
100
AcDbMaterial
  1
ByLayer
 73
     1
 78
     1
172
     1
176
     1
270
     1
274
     1
  0
MATERIAL
  5
46
102
{ACAD_REACTORS
330
43
102
}
330
43
100
AcDbMaterial
  1
Global
 73
     1
 78
     1
172
     1
176
     1
270
     1
274
     1
  0
MLEADERSTYLE
  5
255
102
{ACAD_REACTORS
330
202
102
}
330
202
100
AcDbMLeaderStyle
179
     2
170
     2
171
     1
172
     0
 90
        2
 40
0.0
 41
0.0
173
     1
 91
-1056964608
340
14
 92
       -2
290
     1
 42
2.0
291
     1
 43
0.36
  3
Standard
 44
4.0
300

342
11
174
     1
178
     6
175
     1
176
     0
 93
-1056964608
 45
4.0
292
     0
297
     0
 46
4.0
 94
-1056964608
 47
1.0
 49
1.0
140
1.0
293
     1
141
0.0
294
     1
177
     0
142
1.0
295
     0
296
     0
143
0.125
271
     0
272
     9
273
     9
298
     1
  0
MLINESTYLE
  5
18
102
{ACAD_REACTORS
330
17
102
}
330
17
100
AcDbMlineStyle
  2
STANDARD
 70
     0
  3

 62
   256
 51
90.0
 52
90.0
 71
     2
 49
0.5
 62
   256
  6
BYLAYER
 49
-0.5
 62
   256
  6
BYLAYER
  0
ACDBPLACEHOLDER
  5
F
102
{ACAD_REACTORS
330
E
102
}
330
E
  0
SCALE
  5
48
102
{ACAD_REACTORS
330
47
102
}
330
47
100
AcDbScale
 70
     0
300
1:1
140
1.0
141
1.0
290
     1
  0
SCALE
  5
49
102
{ACAD_REACTORS
330
47
102
}
330
47
100
AcDbScale
 70
     0
300
1:2
140
1.0
141
2.0
290
     0
  0
SCALE
  5
4A
102
{ACAD_REACTORS
330
47
102
}
330
47
100
AcDbScale
 70
     0
300
1:4
140
1.0
141
4.0
290
     0
  0
SCALE
  5
4B
102
{ACAD_REACTORS
330
47
102
}
330
47
100
AcDbScale
 70
     0
300
1:5
140
1.0
141
5.0
290
     0
  0
SCALE
  5
4C
102
{ACAD_REACTORS
330
47
102
}
330
47
100
AcDbScale
 70
     0
300
1:8
140
1.0
141
8.0
290
     0
  0
SCALE
  5
4D
102
{ACAD_REACTORS
330
47
102
}
330
47
100
AcDbScale
 70
     0
300
1:10
140
1.0
141
10.0
290
     0
  0
SCALE
  5
4E
102
{ACAD_REACTORS
330
47
102
}
330
47
100
AcDbScale
 70
     0
300
1:16
140
1.0
141
16.0
290
     0
  0
SCALE
  5
4F
102
{ACAD_REACTORS
330
47
102
}
330
47
100
AcDbScale
 70
     0
300
1:20
140
1.0
141
20.0
290
     0
  0
SCALE
  5
50
102
{ACAD_REACTORS
330
47
102
}
330
47
100
AcDbScale
 70
     0
300
1:30
140
1.0
141
30.0
290
     0
  0
SCALE
  5
51
102
{ACAD_REACTORS
330
47
102
}
330
47
100
AcDbScale
 70
     0
300
1:40
140
1.0
141
40.0
290
     0
  0
SCALE
  5
52
102
{ACAD_REACTORS
330
47
102
}
330
47
100
AcDbScale
 70
     0
300
1:50
140
1.0
141
50.0
290
     0
  0
SCALE
  5
53
102
{ACAD_REACTORS
330
47
102
}
330
47
100
AcDbScale
 70
     0
300
1:100
140
1.0
141
100.0
290
     0
  0
SCALE
  5
54
102
{ACAD_REACTORS
330
47
102
}
330
47
100
AcDbScale
 70
     0
300
2:1
140
2.0
141
1.0
290
     0
  0
SCALE
  5
55
102
{ACAD_REACTORS
330
47
102
}
330
47
100
AcDbScale
 70
     0
300
4:1
140
4.0
141
1.0
290
     0
  0
SCALE
  5
56
102
{ACAD_REACTORS
330
47
102
}
330
47
100
AcDbScale
 70
     0
300
8:1
140
8.0
141
1.0
290
     0
  0
SCALE
  5
57
102
{ACAD_REACTORS
330
47
102
}
330
47
100
AcDbScale
 70
     0
300
10:1
140
10.0
141
1.0
290
     0
  0
SCALE
  5
58
102
{ACAD_REACTORS
330
47
102
}
330
47
100
AcDbScale
 70
     0
300
100:1
140
100.0
141
1.0
290
     0
  0
SCALE
  5
59
102
{ACAD_REACTORS
330
47
102
}
330
47
100
AcDbScale
 70
     0
300
1/128" = 1'-0"
140
0.0078125
141
12.0
290
     0
  0
SCALE
  5
5A
102
{ACAD_REACTORS
330
47
102
}
330
47
100
AcDbScale
 70
     0
300
1/64" = 1'-0"
140
0.015625
141
12.0
290
     0
  0
SCALE
  5
5B
102
{ACAD_REACTORS
330
47
102
}
330
47
100
AcDbScale
 70
     0
300
1/32" = 1'-0"
140
0.03125
141
12.0
290
     0
  0
SCALE
  5
5C
102
{ACAD_REACTORS
330
47
102
}
330
47
100
AcDbScale
 70
     0
300
1/16" = 1'-0"
140
0.0625
141
12.0
290
     0
  0
SCALE
  5
5D
102
{ACAD_REACTORS
330
47
102
}
330
47
100
AcDbScale
 70
     0
300
3/32" = 1'-0"
140
0.09375
141
12.0
290
     0
  0
SCALE
  5
5E
102
{ACAD_REACTORS
330
47
102
}
330
47
100
AcDbScale
 70
     0
300
1/8" = 1'-0"
140
0.125
141
12.0
290
     0
  0
SCALE
  5
5F
102
{ACAD_REACTORS
330
47
102
}
330
47
100
AcDbScale
 70
     0
300
3/16" = 1'-0"
140
0.1875
141
12.0
290
     0
  0
SCALE
  5
60
102
{ACAD_REACTORS
330
47
102
}
330
47
100
AcDbScale
 70
     0
300
1/4" = 1'-0"
140
0.25
141
12.0
290
     0
  0
SCALE
  5
61
102
{ACAD_REACTORS
330
47
102
}
330
47
100
AcDbScale
 70
     0
300
3/8" = 1'-0"
140
0.375
141
12.0
290
     0
  0
SCALE
  5
62
102
{ACAD_REACTORS
330
47
102
}
330
47
100
AcDbScale
 70
     0
300
1/2" = 1'-0"
140
0.5
141
12.0
290
     0
  0
SCALE
  5
63
102
{ACAD_REACTORS
330
47
102
}
330
47
100
AcDbScale
 70
     0
300
3/4" = 1'-0"
140
0.75
141
12.0
290
     0
  0
SCALE
  5
64
102
{ACAD_REACTORS
330
47
102
}
330
47
100
AcDbScale
 70
     0
300
1" = 1'-0"
140
1.0
141
12.0
290
     0
  0
SCALE
  5
65
102
{ACAD_REACTORS
330
47
102
}
330
47
100
AcDbScale
 70
     0
300
1-1/2" = 1'-0"
140
1.5
141
12.0
290
     0
  0
SCALE
  5
66
102
{ACAD_REACTORS
330
47
102
}
330
47
100
AcDbScale
 70
     0
300
3" = 1'-0"
140
3.0
141
12.0
290
     0
  0
SCALE
  5
67
102
{ACAD_REACTORS
330
47
102
}
330
47
100
AcDbScale
 70
     0
300
6" = 1'-0"
140
6.0
141
12.0
290
     0
  0
SCALE
  5
68
102
{ACAD_REACTORS
330
47
102
}
330
47
100
AcDbScale
 70
     0
300
1'-0" = 1'-0"
140
12.0
141
12.0
290
     0
  0
ACDBSECTIONVIEWSTYLE
  5
256
102
{ACAD_XDICTIONARY
360
2CB
102
}
102
{ACAD_REACTORS
330
204
102
}
330
204
100
AcDbModelDocViewStyle
 70
     0
  3
Metric50
290
     0
100
AcDbSectionViewStyle
 70
     0
 71
     0
 90
      102
 71
     1
340
11
 62
   256
 40
5.0
340
0
340
0
 62
   256
 40
5.0
300
I, O, Q, S, X, Z
 40
10.0
 90
        0
 40
2.5
 90
        0
 71
     2
340
16
 90
       25
 62
   256
340
16
 90
       50
 62
   256
 40
5.0
 40
2.5
 40
5.0
 71
     3
340
11
 62
   256
 40
5.0
 90
        0
 40
15.0
 90
        1
300
%<\AcVar ViewSectionStartId>%-%<\AcVar ViewSectionEndId>% (%<\AcVar ViewScale \f "%sn">%)
 71
     4
 62
   256
 62
   257
300
ANSI31
 40
1.0
 90
        0
290
     0
290
     0
 90
        6
 40
0.0
 40
1.570796326794896
 40
0.2617993877991494
 40
1.308996938995747
 40
-0.2617993877991494
 40
1.832595714594046
  0
TABLESTYLE
  5
21E
102
{ACAD_XDICTIONARY
360
24D
102
}
102
{ACAD_REACTORS
330
201
102
}
330
201
100
AcDbTableStyle
280
     0
  3
Standard
 70
     0
 71
     0
 40
1.5
 41
1.5
280
     0
281
     0
  7
Standard
140
4.5
170
     2
 62
     0
 63
     7
283
     0
 90
        4
 91
        0
  1

274
    -2
284
     1
 64
     0
275
    -2
285
     1
 65
     0
276
    -2
286
     1
 66
     0
277
    -2
287
     1
 67
     0
278
    -2
288
     1
 68
     0
279
    -2
289
     1
 69
     0
  7
Standard
140
6.0
170
     5
 62
     0
 63
     7
283
     0
 90
        4
 91
        0
  1

274
    -2
284
     1
 64
     0
275
    -2
285
     1
 65
     0
276
    -2
286
     1
 66
     0
277
    -2
287
     1
 67
     0
278
    -2
288
     1
 68
     0
279
    -2
289
     1
 69
     0
  7
Standard
140
4.5
170
     5
 62
     0
 63
     7
283
     0
 90
        4
 91
        0
  1

274
    -2
284
     1
 64
     0
275
    -2
285
     1
 65
     0
276
    -2
286
     1
 66
     0
277
    -2
287
     1
 67
     0
278
    -2
288
     1
 68
     0
279
    -2
289
     1
 69
     0
  0
VISUALSTYLE
  5
20A
102
{ACAD_REACTORS
330
205
102
}
330
205
100
AcDbVisualStyle
  2
2dWireframe
 70
     4
177
     3
291
     0
 70
    58
 90
        0
176
     1
 90
        2
176
     1
 90
        0
176
     1
 90
        0
176
     1
 40
0.6
176
     1
 40
30.0
176
     1
 62
     7
420
 16777215
176
     1
 90
        1
176
     1
 90
        4
176
     1
 62
     7
176
     1
 62
   257
176
     1
 90
        1
176
     1
 90
        1
176
     1
 40
1.0
176
     1
 90
        0
176
     1
 62
   257
176
     1
 40
1.0
176
     1
 90
        1
176
     1
 90
        6
176
     1
 90
        2
176
     1
 62
     7
176
     1
 90
        5
176
     1
 90
        0
176
     1
 90
        0
176
     1
290
     0
176
     1
 90
        1
176
     1
 40
0.0
176
     1
 90
        0
176
     1
290
     1
176
     1
290
     1
176
     1
290
     0
176
     1
290
     0
176
     1
290
     0
176
     1
290
     0
176
     1
290
     0
176
     1
290
     0
176
     1
290
     0
176
     1
 90
       50
176
     1
 40
0.0
176
     1
 40
1.0
176
     1
 90
        0
176
     1
 62
    18
420
        0
176
     1
 90
       50
176
     1
 90
        3
176
     1
 62
     5
420
      255
176
     1
290
     0
176
     1
 90
       50
176
     1
 90
       50
176
     1
 90
       50
176
     1
290
     0
176
     1
 90
       50
176
     1
 62
   256
176
     0
 40
1.0
176
     0
 90
        2
176
     1
  1
strokes_ogs.tif
176
     1
290
     0
176
     1
 40
1.0
176
     1
 40
1.0
176
     1
1001
ACAD
1000
AcDbSavedByObjectVersion
1070
     0
  0
VISUALSTYLE
  5
20D
102
{ACAD_REACTORS
330
205
102
}
330
205
100
AcDbVisualStyle
  2
Basic
 70
     7
177
     3
291
     1
 70
    58
 90
        1
176
     1
 90
        0
176
     1
 90
        1
176
     1
 90
        0
176
     1
 40
0.6
176
     1
 40
30.0
176
     1
 62
     7
420
 16777215
176
     1
 90
        0
176
     1
 90
        4
176
     1
 62
     7
176
     1
 62
   257
176
     1
 90
        1
176
     1
 90
        1
176
     1
 40
1.0
176
     1
 90
        8
176
     1
 62
     7
176
     1
 40
1.0
176
     1
 90
        1
176
     1
 90
        6
176
     1
 90
        2
176
     1
 62
     7
176
     1
 90
        5
176
     1
 90
        0
176
     1
 90
        0
176
     1
290
     0
176
     1
 90
        1
176
     1
 40
0.0
176
     1
 90
        0
176
     1
290
     0
176
     1
290
     1
176
     1
290
     1
176
     1
290
     0
176
     1
290
     0
176
     1
290
     0
176
     1
290
     0
176
     1
290
     0
176
     1
290
     0
176
     1
 90
       50
176
     1
 40
0.0
176
     1
 40
1.0
176
     1
 90
        0
176
     1
 62
    18
420
        0
176
     1
 90
       50
176
     1
 90
        3
176
     1
 62
     5
420
      255
176
     1
290
     0
176
     1
 90
       50
176
     1
 90
       50
176
     1
 90
       50
176
     1
290
     0
176
     1
 90
       50
176
     1
 62
   256
176
     0
 40
1.0
176
     0
 90
        2
176
     1
  1
strokes_ogs.tif
176
     1
290
     0
176
     1
 40
1.0
176
     1
 40
1.0
176
     1
1001
ACAD
1000
AcDbSavedByObjectVersion
1070
     0
  0
VISUALSTYLE
  5
211
102
{ACAD_REACTORS
330
205
102
}
330
205
100
AcDbVisualStyle
  2
Brighten
 70
    12
177
     3
291
     1
 70
    58
 90
        2
176
     1
 90
        2
176
     1
 90
        0
176
     1
 90
        0
176
     1
 40
0.6
176
     1
 40
30.0
176
     1
 62
     7
420
 16777215
176
     1
 90
        1
176
     1
 90
        4
176
     1
 62
     7
176
     1
 62
   257
176
     1
 90
        1
176
     1
 90
        1
176
     1
 40
1.0
176
     1
 90
        8
176
     1
 62
     7
176
     1
 40
1.0
176
     1
 90
        1
176
     1
 90
        6
176
     1
 90
        2
176
     1
 62
     7
176
     1
 90
        5
176
     1
 90
        0
176
     1
 90
        0
176
     1
290
     0
176
     1
 90
        1
176
     1
 40
50.0
176
     1
 90
        0
176
     1
290
     0
176
     1
290
     1
176
     1
290
     1
176
     1
290
     0
176
     1
290
     0
176
     1
290
     0
176
     1
290
     0
176
     1
290
     0
176
     1
290
     0
176
     1
 90
       50
176
     1
 40
0.0
176
     1
 40
1.0
176
     1
 90
        0
176
     1
 62
    18
420
        0
176
     1
 90
       50
176
     1
 90
        3
176
     1
 62
     5
420
      255
176
     1
290
     0
176
     1
 90
       50
176
     1
 90
       50
176
     1
 90
       50
176
     1
290
     0
176
     1
 90
       50
176
     1
 62
   256
176
     0
 40
1.0
176
     0
 90
        2
176
     1
  1
strokes_ogs.tif
176
     1
290
     0
176
     1
 40
1.0
176
     1
 40
1.0
176
     1
1001
ACAD
1000
AcDbSavedByObjectVersion
1070
     0
  0
VISUALSTYLE
  5
215
102
{ACAD_REACTORS
330
205
102
}
330
205
100
AcDbVisualStyle
  2
ColorChange
 70
    16
177
     3
291
     1
 70
    58
 90
        2
176
     1
 90
        2
176
     1
 90
        3
176
     1
 90
        0
176
     1
 40
0.6
176
     1
 40
30.0
176
     1
 62
     8
420
  8421504
176
     1
 90
        1
176
     1
 90
        4
176
     1
 62
     7
176
     1
 62
   257
176
     1
 90
        1
176
     1
 90
        1
176
     1
 40
1.0
176
     1
 90
        8
176
     1
 62
     8
420
  8421504
176
     1
 40
1.0
176
     1
 90
        1
176
     1
 90
        6
176
     1
 90
        2
176
     1
 62
     7
176
     1
 90
        5
176
     1
 90
        0
176
     1
 90
        0
176
     1
290
     0
176
     1
 90
        1
176
     1
 40
0.0
176
     1
 90
        0
176
     1
290
     0
176
     1
290
     1
176
     1
290
     1
176
     1
290
     0
176
     1
290
     0
176
     1
290
     0
176
     1
290
     0
176
     1
290
     0
176
     1
290
     0
176
     1
 90
       50
176
     1
 40
0.0
176
     1
 40
1.0
176
     1
 90
        0
176
     1
 62
    18
420
        0
176
     1
 90
       50
176
     1
 90
        3
176
     1
 62
     5
420
      255
176
     1
290
     0
176
     1
 90
       50
176
     1
 90
       50
176
     1
 90
       50
176
     1
290
     0
176
     1
 90
       50
176
     1
 62
   256
176
     0
 40
1.0
176
     0
 90
        2
176
     1
  1
strokes_ogs.tif
176
     1
290
     0
176
     1
 40
1.0
176
     1
 40
1.0
176
     1
1001
ACAD
1000
AcDbSavedByObjectVersion
1070
     0
  0
VISUALSTYLE
  5
20F
102
{ACAD_REACTORS
330
205
102
}
330
205
100
AcDbVisualStyle
  2
Conceptual
 70
     9
177
     3
291
     0
 70
    58
 90
        3
176
     1
 90
        2
176
     1
 90
        0
176
     1
 90
        0
176
     1
 40
0.6
176
     1
 40
30.0
176
     1
 62
     7
420
 16777215
176
     1
 90
        2
176
     1
 90
        2
176
     1
 62
     7
176
     1
 62
   257
176
     1
 90
        1
176
     1
 90
        1
176
     1
 40
179.0
176
     1
 90
        8
176
     1
 62
     7
176
     1
 40
1.0
176
     1
 90
        1
176
     1
 90
        6
176
     1
 90
        2
176
     1
 62
     7
176
     1
 90
        3
176
     1
 90
        0
176
     1
 90
        0
176
     1
290
     0
176
     1
 90
        1
176
     1
 40
0.0
176
     1
 90
        0
176
     1
290
     0
176
     1
290
     1
176
     1
290
     1
176
     1
290
     0
176
     1
290
     0
176
     1
290
     0
176
     1
290
     0
176
     1
290
     0
176
     1
290
     0
176
     1
 90
       50
176
     1
 40
0.0
176
     1
 40
1.0
176
     1
 90
        0
176
     1
 62
    18
420
        0
176
     1
 90
       50
176
     1
 90
        3
176
     1
 62
     5
420
      255
176
     1
290
     0
176
     1
 90
       50
176
     1
 90
       50
176
     1
 90
       50
176
     1
290
     0
176
     1
 90
       50
176
     1
 62
   256
176
     0
 40
1.0
176
     0
 90
        2
176
     1
  1
strokes_ogs.tif
176
     1
290
     0
176
     1
 40
1.0
176
     1
 40
1.0
176
     1
1001
ACAD
1000
AcDbSavedByObjectVersion
1070
     0
  0
VISUALSTYLE
  5
210
102
{ACAD_REACTORS
330
205
102
}
330
205
100
AcDbVisualStyle
  2
Dim
 70
    11
177
     3
291
     1
 70
    58
 90
        2
176
     1
 90
        2
176
     1
 90
        0
176
     1
 90
        0
176
     1
 40
0.6
176
     1
 40
30.0
176
     1
 62
     7
420
 16777215
176
     1
 90
        1
176
     1
 90
        4
176
     1
 62
     7
176
     1
 62
   257
176
     1
 90
        1
176
     1
 90
        1
176
     1
 40
1.0
176
     1
 90
        8
176
     1
 62
     7
176
     1
 40
1.0
176
     1
 90
        1
176
     1
 90
        6
176
     1
 90
        2
176
     1
 62
     7
176
     1
 90
        5
176
     1
 90
        0
176
     1
 90
        0
176
     1
290
     0
176
     1
 90
        1
176
     1
 40
-50.0
176
     1
 90
        0
176
     1
290
     0
176
     1
290
     1
176
     1
290
     1
176
     1
290
     0
176
     1
290
     0
176
     1
290
     0
176
     1
290
     0
176
     1
290
     0
176
     1
290
     0
176
     1
 90
       50
176
     1
 40
0.0
176
     1
 40
1.0
176
     1
 90
        0
176
     1
 62
    18
420
        0
176
     1
 90
       50
176
     1
 90
        3
176
     1
 62
     5
420
      255
176
     1
290
     0
176
     1
 90
       50
176
     1
 90
       50
176
     1
 90
       50
176
     1
290
     0
176
     1
 90
       50
176
     1
 62
   256
176
     0
 40
1.0
176
     0
 90
        2
176
     1
  1
strokes_ogs.tif
176
     1
290
     0
176
     1
 40
1.0
176
     1
 40
1.0
176
     1
1001
ACAD
1000
AcDbSavedByObjectVersion
1070
     0
  0
VISUALSTYLE
  5
218
102
{ACAD_REACTORS
330
205
102
}
330
205
100
AcDbVisualStyle
  2
EdgeColorOff
 70
    22
177
     3
291
     1
 70
    58
 90
        2
176
     1
 90
        2
176
     1
 90
        0
176
     1
 90
        0
176
     1
 40
0.6
176
     1
 40
30.0
176
     1
 62
     7
420
 16777215
176
     1
 90
        1
176
     1
 90
        4
176
     1
 62
     7
176
     1
 62
   257
176
     1
 90
        1
176
     1
 90
        1
176
     1
 40
1.0
176
     1
 90
        8
176
     1
 62
     7
176
     1
 40
1.0
176
     1
 90
        1
176
     1
 90
        6
176
     1
 90
        2
176
     1
 62
     7
176
     1
 90
        5
176
     1
 90
        0
176
     1
 90
        0
176
     1
290
     0
176
     1
 90
        1
176
     1
 40
0.0
176
     1
 90
        0
176
     1
290
     0
176
     1
290
     1
176
     1
290
     1
176
     1
290
     0
176
     1
290
     0
176
     1
290
     0
176
     1
290
     0
176
     1
290
     0
176
     1
290
     0
176
     1
 90
       50
176
     1
 40
0.0
176
     1
 40
1.0
176
     1
 90
        0
176
     1
 62
    18
420
        0
176
     1
 90
       50
176
     1
 90
        3
176
     1
 62
     5
420
      255
176
     1
290
     0
176
     1
 90
       50
176
     1
 90
       50
176
     1
 90
       50
176
     1
290
     0
176
     1
 90
       50
176
     1
 62
   256
176
     0
 40
1.0
176
     0
 90
        2
176
     1
  1
strokes_ogs.tif
176
     1
290
     0
176
     1
 40
1.0
176
     1
 40
1.0
176
     1
1001
ACAD
1000
AcDbSavedByObjectVersion
1070
     0
  0
VISUALSTYLE
  5
214
102
{ACAD_REACTORS
330
205
102
}
330
205
100
AcDbVisualStyle
  2
Facepattern
 70
    15
177
     3
291
     1
 70
    58
 90
        2
176
     1
 90
        2
176
     1
 90
        0
176
     1
 90
        0
176
     1
 40
0.6
176
     1
 40
30.0
176
     1
 62
     7
420
 16777215
176
     1
 90
        1
176
     1
 90
        4
176
     1
 62
     7
176
     1
 62
   257
176
     1
 90
        1
176
     1
 90
        1
176
     1
 40
1.0
176
     1
 90
        8
176
     1
 62
     7
176
     1
 40
1.0
176
     1
 90
        1
176
     1
 90
        6
176
     1
 90
        2
176
     1
 62
     7
176
     1
 90
        5
176
     1
 90
        0
176
     1
 90
        0
176
     1
290
     0
176
     1
 90
        1
176
     1
 40
0.0
176
     1
 90
        0
176
     1
290
     0
176
     1
290
     1
176
     1
290
     1
176
     1
290
     0
176
     1
290
     0
176
     1
290
     0
176
     1
290
     0
176
     1
290
     0
176
     1
290
     0
176
     1
 90
       50
176
     1
 40
0.0
176
     1
 40
1.0
176
     1
 90
        0
176
     1
 62
    18
420
        0
176
     1
 90
       50
176
     1
 90
        3
176
     1
 62
     5
420
      255
176
     1
290
     0
176
     1
 90
       50
176
     1
 90
       50
176
     1
 90
       50
176
     1
290
     0
176
     1
 90
       50
176
     1
 62
   256
176
     0
 40
1.0
176
     0
 90
        2
176
     1
  1
strokes_ogs.tif
176
     1
290
     0
176
     1
 40
1.0
176
     1
 40
1.0
176
     1
1001
ACAD
1000
AcDbSavedByObjectVersion
1070
     0
  0
VISUALSTYLE
  5
206
102
{ACAD_REACTORS
330
205
102
}
330
205
100
AcDbVisualStyle
  2
Flat
 70
     0
177
     3
291
     1
 70
    58
 90
        2
176
     1
 90
        1
176
     1
 90
        1
176
     1
 90
        2
176
     1
 40
0.6
176
     1
 40
30.0
176
     1
 62
     7
420
 16777215
176
     1
 90
        0
176
     1
 90
        0
176
     1
 62
     7
176
     1
 62
   257
176
     1
 90
        1
176
     1
 90
        1
176
     1
 40
1.0
176
     1
 90
        8
176
     1
 62
     7
176
     1
 40
1.0
176
     1
 90
        1
176
     1
 90
        6
176
     1
 90
        2
176
     1
 62
     7
176
     1
 90
        5
176
     1
 90
        0
176
     1
 90
        0
176
     1
290
     0
176
     1
 90
       13
176
     1
 40
0.0
176
     1
 90
        0
176
     1
290
     0
176
     1
290
     1
176
     1
290
     1
176
     1
290
     0
176
     1
290
     0
176
     1
290
     0
176
     1
290
     0
176
     1
290
     0
176
     1
290
     0
176
     1
 90
       50
176
     1
 40
0.0
176
     1
 40
1.0
176
     1
 90
        0
176
     1
 62
    18
420
        0
176
     1
 90
       50
176
     1
 90
        3
176
     1
 62
     5
420
      255
176
     1
290
     0
176
     1
 90
       50
176
     1
 90
       50
176
     1
 90
       50
176
     1
290
     0
176
     1
 90
       50
176
     1
 62
   256
176
     0
 40
1.0
176
     0
 90
        2
176
     1
  1
strokes_ogs.tif
176
     1
290
     0
176
     1
 40
1.0
176
     1
 40
1.0
176
     1
1001
ACAD
1000
AcDbSavedByObjectVersion
1070
     0
  0
VISUALSTYLE
  5
207
102
{ACAD_REACTORS
330
205
102
}
330
205
100
AcDbVisualStyle
  2
FlatWithEdges
 70
     1
177
     3
291
     1
 70
    58
 90
        2
176
     1
 90
        1
176
     1
 90
        1
176
     1
 90
        2
176
     1
 40
0.6
176
     1
 40
30.0
176
     1
 62
     7
420
 16777215
176
     1
 90
        1
176
     1
 90
        0
176
     1
 62
     7
176
     1
 62
   257
176
     1
 90
        1
176
     1
 90
        1
176
     1
 40
1.0
176
     1
 90
        0
176
     1
 62
   257
176
     1
 40
1.0
176
     1
 90
        1
176
     1
 90
        6
176
     1
 90
        2
176
     1
 62
     7
176
     1
 90
        5
176
     1
 90
        0
176
     1
 90
        0
176
     1
290
     0
176
     1
 90
       13
176
     1
 40
0.0
176
     1
 90
        0
176
     1
290
     0
176
     1
290
     1
176
     1
290
     1
176
     1
290
     0
176
     1
290
     0
176
     1
290
     0
176
     1
290
     0
176
     1
290
     0
176
     1
290
     0
176
     1
 90
       50
176
     1
 40
0.0
176
     1
 40
1.0
176
     1
 90
        0
176
     1
 62
    18
420
        0
176
     1
 90
       50
176
     1
 90
        3
176
     1
 62
     5
420
      255
176
     1
290
     0
176
     1
 90
       50
176
     1
 90
       50
176
     1
 90
       50
176
     1
290
     0
176
     1
 90
       50
176
     1
 62
   256
176
     0
 40
1.0
176
     0
 90
        2
176
     1
  1
strokes_ogs.tif
176
     1
290
     0
176
     1
 40
1.0
176
     1
 40
1.0
176
     1
1001
ACAD
1000
AcDbSavedByObjectVersion
1070
     0
  0
VISUALSTYLE
  5
208
102
{ACAD_REACTORS
330
205
102
}
330
205
100
AcDbVisualStyle
  2
Gouraud
 70
     2
177
     3
291
     1
 70
    58
 90
        2
176
     1
 90
        2
176
     1
 90
        1
176
     1
 90
        2
176
     1
 40
0.6
176
     1
 40
30.0
176
     1
 62
     7
420
 16777215
176
     1
 90
        0
176
     1
 90
        0
176
     1
 62
     7
176
     1
 62
   257
176
     1
 90
        1
176
     1
 90
        1
176
     1
 40
1.0
176
     1
 90
        0
176
     1
 62
     7
176
     1
 40
1.0
176
     1
 90
        1
176
     1
 90
        6
176
     1
 90
        2
176
     1
 62
     7
176
     1
 90
        5
176
     1
 90
        0
176
     1
 90
        0
176
     1
290
     0
176
     1
 90
       13
176
     1
 40
0.0
176
     1
 90
        0
176
     1
290
     0
176
     1
290
     1
176
     1
290
     1
176
     1
290
     0
176
     1
290
     0
176
     1
290
     0
176
     1
290
     0
176
     1
290
     0
176
     1
290
     0
176
     1
 90
       50
176
     1
 40
0.0
176
     1
 40
1.0
176
     1
 90
        0
176
     1
 62
    18
420
        0
176
     1
 90
       50
176
     1
 90
        3
176
     1
 62
     5
420
      255
176
     1
290
     0
176
     1
 90
       50
176
     1
 90
       50
176
     1
 90
       50
176
     1
290
     0
176
     1
 90
       50
176
     1
 62
   256
176
     0
 40
1.0
176
     0
 90
        2
176
     1
  1
strokes_ogs.tif
176
     1
290
     0
176
     1
 40
1.0
176
     1
 40
1.0
176
     1
1001
ACAD
1000
AcDbSavedByObjectVersion
1070
     0
  0
VISUALSTYLE
  5
209
102
{ACAD_REACTORS
330
205
102
}
330
205
100
AcDbVisualStyle
  2
GouraudWithEdges
 70
     3
177
     3
291
     1
 70
    58
 90
        2
176
     1
 90
        2
176
     1
 90
        1
176
     1
 90
        2
176
     1
 40
0.6
176
     1
 40
30.0
176
     1
 62
     7
420
 16777215
176
     1
 90
        1
176
     1
 90
        0
176
     1
 62
     7
176
     1
 62
   257
176
     1
 90
        1
176
     1
 90
        1
176
     1
 40
1.0
176
     1
 90
        0
176
     1
 62
   257
176
     1
 40
1.0
176
     1
 90
        1
176
     1
 90
        6
176
     1
 90
        2
176
     1
 62
     7
176
     1
 90
        5
176
     1
 90
        0
176
     1
 90
        0
176
     1
290
     0
176
     1
 90
       13
176
     1
 40
0.0
176
     1
 90
        0
176
     1
290
     0
176
     1
290
     1
176
     1
290
     1
176
     1
290
     0
176
     1
290
     0
176
     1
290
     0
176
     1
290
     0
176
     1
290
     0
176
     1
290
     0
176
     1
 90
       50
176
     1
 40
0.0
176
     1
 40
1.0
176
     1
 90
        0
176
     1
 62
    18
420
        0
176
     1
 90
       50
176
     1
 90
        3
176
     1
 62
     5
420
      255
176
     1
290
     0
176
     1
 90
       50
176
     1
 90
       50
176
     1
 90
       50
176
     1
290
     0
176
     1
 90
       50
176
     1
 62
   256
176
     0
 40
1.0
176
     0
 90
        2
176
     1
  1
strokes_ogs.tif
176
     1
290
     0
176
     1
 40
1.0
176
     1
 40
1.0
176
     1
1001
ACAD
1000
AcDbSavedByObjectVersion
1070
     0
  0
VISUALSTYLE
  5
20C
102
{ACAD_REACTORS
330
205
102
}
330
205
100
AcDbVisualStyle
  2
Hidden
 70
     6
177
     3
291
     0
 70
    58
 90
        1
176
     1
 90
        2
176
     1
 90
        2
176
     1
 90
        0
176
     1
 40
0.6
176
     1
 40
30.0
176
     1
 62
     7
420
 16777215
176
     1
 90
        2
176
     1
 90
        2
176
     1
 62
     7
176
     1
 62
   257
176
     1
 90
        2
176
     1
 90
        1
176
     1
 40
40.0
176
     1
 90
        0
176
     1
 62
   257
176
     1
 40
1.0
176
     1
 90
        1
176
     1
 90
        6
176
     1
 90
        2
176
     1
 62
     7
176
     1
 90
        3
176
     1
 90
        0
176
     1
 90
        0
176
     1
290
     0
176
     1
 90
        1
176
     1
 40
0.0
176
     1
 90
        0
176
     1
290
     0
176
     1
290
     1
176
     1
290
     1
176
     1
290
     0
176
     1
290
     0
176
     1
290
     0
176
     1
290
     0
176
     1
290
     0
176
     1
290
     0
176
     1
 90
       50
176
     1
 40
0.0
176
     1
 40
1.0
176
     1
 90
        0
176
     1
 62
    18
420
        0
176
     1
 90
       50
176
     1
 90
        3
176
     1
 62
     5
420
      255
176
     1
290
     0
176
     1
 90
       50
176
     1
 90
       50
176
     1
 90
       50
176
     1
290
     0
176
     1
 90
       50
176
     1
 62
   256
176
     0
 40
1.0
176
     0
 90
        2
176
     1
  1
strokes_ogs.tif
176
     1
290
     0
176
     1
 40
1.0
176
     1
 40
1.0
176
     1
1001
ACAD
1000
AcDbSavedByObjectVersion
1070
     0
  0
VISUALSTYLE
  5
216
102
{ACAD_REACTORS
330
205
102
}
330
205
100
AcDbVisualStyle
  2
JitterOff
 70
    20
177
     3
291
     1
 70
    58
 90
        2
176
     1
 90
        2
176
     1
 90
        0
176
     1
 90
        0
176
     1
 40
0.6
176
     1
 40
30.0
176
     1
 62
     7
420
 16777215
176
     1
 90
        1
176
     1
 90
        4
176
     1
 62
     7
176
     1
 62
   257
176
     1
 90
        1
176
     1
 90
        1
176
     1
 40
1.0
176
     1
 90
       10
176
     1
 62
     7
176
     1
 40
1.0
176
     1
 90
        1
176
     1
 90
        6
176
     1
 90
        2
176
     1
 62
     7
176
     1
 90
        5
176
     1
 90
        0
176
     1
 90
        0
176
     1
290
     0
176
     1
 90
        1
176
     1
 40
0.0
176
     1
 90
        0
176
     1
290
     0
176
     1
290
     1
176
     1
290
     1
176
     1
290
     0
176
     1
290
     0
176
     1
290
     0
176
     1
290
     0
176
     1
290
     0
176
     1
290
     0
176
     1
 90
       50
176
     1
 40
0.0
176
     1
 40
1.0
176
     1
 90
        0
176
     1
 62
    18
420
        0
176
     1
 90
       50
176
     1
 90
        3
176
     1
 62
     5
420
      255
176
     1
290
     0
176
     1
 90
       50
176
     1
 90
       50
176
     1
 90
       50
176
     1
290
     0
176
     1
 90
       50
176
     1
 62
   256
176
     0
 40
1.0
176
     0
 90
        2
176
     1
  1
strokes_ogs.tif
176
     1
290
     0
176
     1
 40
1.0
176
     1
 40
1.0
176
     1
1001
ACAD
1000
AcDbSavedByObjectVersion
1070
     0
  0
VISUALSTYLE
  5
213
102
{ACAD_REACTORS
330
205
102
}
330
205
100
AcDbVisualStyle
  2
Linepattern
 70
    14
177
     3
291
     1
 70
    58
 90
        2
176
     1
 90
        2
176
     1
 90
        0
176
     1
 90
        0
176
     1
 40
0.6
176
     1
 40
30.0
176
     1
 62
     7
420
 16777215
176
     1
 90
        1
176
     1
 90
        4
176
     1
 62
     7
176
     1
 62
   257
176
     1
 90
        7
176
     1
 90
        7
176
     1
 40
1.0
176
     1
 90
        8
176
     1
 62
     7
176
     1
 40
1.0
176
     1
 90
        1
176
     1
 90
        6
176
     1
 90
        2
176
     1
 62
     7
176
     1
 90
        5
176
     1
 90
        0
176
     1
 90
        0
176
     1
290
     0
176
     1
 90
        1
176
     1
 40
0.0
176
     1
 90
        0
176
     1
290
     0
176
     1
290
     1
176
     1
290
     1
176
     1
290
     0
176
     1
290
     0
176
     1
290
     0
176
     1
290
     0
176
     1
290
     0
176
     1
290
     0
176
     1
 90
       50
176
     1
 40
0.0
176
     1
 40
1.0
176
     1
 90
        0
176
     1
 62
    18
420
        0
176
     1
 90
       50
176
     1
 90
        3
176
     1
 62
     5
420
      255
176
     1
290
     0
176
     1
 90
       50
176
     1
 90
       50
176
     1
 90
       50
176
     1
290
     0
176
     1
 90
       50
176
     1
 62
   256
176
     0
 40
1.0
176
     0
 90
        2
176
     1
  1
strokes_ogs.tif
176
     1
290
     0
176
     1
 40
1.0
176
     1
 40
1.0
176
     1
1001
ACAD
1000
AcDbSavedByObjectVersion
1070
     0
  0
VISUALSTYLE
  5
217
102
{ACAD_REACTORS
330
205
102
}
330
205
100
AcDbVisualStyle
  2
OverhangOff
 70
    21
177
     3
291
     1
 70
    58
 90
        2
176
     1
 90
        2
176
     1
 90
        0
176
     1
 90
        0
176
     1
 40
0.6
176
     1
 40
30.0
176
     1
 62
     7
420
 16777215
176
     1
 90
        1
176
     1
 90
        4
176
     1
 62
     7
176
     1
 62
   257
176
     1
 90
        1
176
     1
 90
        1
176
     1
 40
1.0
176
     1
 90
        9
176
     1
 62
     7
176
     1
 40
1.0
176
     1
 90
        1
176
     1
 90
        6
176
     1
 90
        2
176
     1
 62
     7
176
     1
 90
        5
176
     1
 90
        0
176
     1
 90
        0
176
     1
290
     0
176
     1
 90
        1
176
     1
 40
0.0
176
     1
 90
        0
176
     1
290
     0
176
     1
290
     1
176
     1
290
     1
176
     1
290
     0
176
     1
290
     0
176
     1
290
     0
176
     1
290
     0
176
     1
290
     0
176
     1
290
     0
176
     1
 90
       50
176
     1
 40
0.0
176
     1
 40
1.0
176
     1
 90
        0
176
     1
 62
    18
420
        0
176
     1
 90
       50
176
     1
 90
        3
176
     1
 62
     5
420
      255
176
     1
290
     0
176
     1
 90
       50
176
     1
 90
       50
176
     1
 90
       50
176
     1
290
     0
176
     1
 90
       50
176
     1
 62
   256
176
     0
 40
1.0
176
     0
 90
        2
176
     1
  1
strokes_ogs.tif
176
     1
290
     0
176
     1
 40
1.0
176
     1
 40
1.0
176
     1
1001
ACAD
1000
AcDbSavedByObjectVersion
1070
     0
  0
VISUALSTYLE
  5
20E
102
{ACAD_REACTORS
330
205
102
}
330
205
100
AcDbVisualStyle
  2
Realistic
 70
     8
177
     3
291
     0
 70
    58
 90
        2
176
     1
 90
        3
176
     1
 90
        0
176
     1
 90
        2
176
     1
 40
0.6
176
     1
 40
30.0
176
     1
 62
     7
420
 16777215
176
     1
 90
        0
176
     1
 90
        0
176
     1
 62
     7
176
     1
 62
   257
176
     1
 90
        1
176
     1
 90
        1
176
     1
 40
1.0
176
     1
 90
        8
176
     1
 62
   257
176
     1
 40
1.0
176
     1
 90
        1
176
     1
 90
        6
176
     1
 90
        2
176
     1
 62
     7
176
     1
 90
        3
176
     1
 90
        0
176
     1
 90
        0
176
     1
290
     0
176
     1
 90
       13
176
     1
 40
0.0
176
     1
 90
        0
176
     1
290
     0
176
     1
290
     1
176
     1
290
     1
176
     1
290
     0
176
     1
290
     0
176
     1
290
     0
176
     1
290
     0
176
     1
290
     0
176
     1
290
     0
176
     1
 90
       50
176
     1
 40
0.0
176
     1
 40
1.0
176
     1
 90
        0
176
     1
 62
    18
420
        0
176
     1
 90
       50
176
     1
 90
        3
176
     1
 62
     5
420
      255
176
     1
290
     0
176
     1
 90
       50
176
     1
 90
       50
176
     1
 90
       50
176
     1
290
     0
176
     1
 90
       50
176
     1
 62
   256
176
     0
 40
1.0
176
     0
 90
        2
176
     1
  1
strokes_ogs.tif
176
     1
290
     0
176
     1
 40
1.0
176
     1
 40
1.0
176
     1
1001
ACAD
1000
AcDbSavedByObjectVersion
1070
     0
  0
VISUALSTYLE
  5
21D
102
{ACAD_REACTORS
330
205
102
}
330
205
100
AcDbVisualStyle
  2
Shaded
 70
    27
177
     3
291
     0
 70
    58
 90
        2
176
     1
 90
        2
176
     1
 90
        1
176
     1
 90
        2
176
     1
 40
0.6
176
     1
 40
30.0
176
     1
 62
     7
420
 16777215
176
     1
 90
        0
176
     1
 90
        4
176
     1
 62
     7
176
     1
 62
   257
176
     1
 90
        1
176
     1
 90
        1
176
     1
 40
1.0
176
     1
 90
        8
176
     1
 62
   257
176
     1
 40
1.0
176
     1
 90
        1
176
     1
 90
        6
176
     1
 90
        2
176
     1
 62
     8
420
  7895160
176
     1
 90
        3
176
     1
 90
        0
176
     1
 90
        0
176
     1
290
     0
176
     1
 90
        5
176
     1
 40
0.0
176
     1
 90
        0
176
     1
290
     0
176
     1
290
     1
176
     1
290
     1
176
     1
290
     0
176
     1
290
     0
176
     1
290
     0
176
     1
290
     0
176
     1
290
     0
176
     1
290
     0
176
     1
 90
       50
176
     1
 40
0.0
176
     1
 40
1.0
176
     1
 90
        0
176
     1
 62
    18
420
        0
176
     1
 90
       50
176
     1
 90
        3
176
     1
 62
     5
420
      255
176
     1
290
     0
176
     1
 90
       50
176
     1
 90
       50
176
     1
 90
       50
176
     1
290
     0
176
     1
 90
       50
176
     1
 62
   256
176
     0
 40
1.0
176
     0
 90
        2
176
     1
  1
strokes_ogs.tif
176
     1
290
     0
176
     1
 40
1.0
176
     1
 40
1.0
176
     1
1001
ACAD
1000
AcDbSavedByObjectVersion
1070
     0
  0
VISUALSTYLE
  5
21C
102
{ACAD_REACTORS
330
205
102
}
330
205
100
AcDbVisualStyle
  2
Shaded with edges
 70
    26
177
     3
291
     0
 70
    58
 90
        2
176
     1
 90
        2
176
     1
 90
        1
176
     1
 90
        2
176
     1
 40
0.6
176
     1
 40
30.0
176
     1
 62
     7
420
 16777215
176
     1
 90
        1
176
     1
 90
        2
176
     1
 62
     7
176
     1
 62
   257
176
     1
 90
        2
176
     1
 90
        1
176
     1
 40
1.0
176
     1
 90
        8
176
     1
 62
   257
176
     1
 40
1.0
176
     1
 90
        1
176
     1
 90
        6
176
     1
 90
        2
176
     1
 62
     7
176
     1
 90
        3
176
     1
 90
        0
176
     1
 90
        0
176
     1
290
     0
176
     1
 90
        5
176
     1
 40
0.0
176
     1
 90
        0
176
     1
290
     0
176
     1
290
     1
176
     1
290
     1
176
     1
290
     0
176
     1
290
     0
176
     1
290
     0
176
     1
290
     0
176
     1
290
     0
176
     1
290
     0
176
     1
 90
       50
176
     1
 40
0.0
176
     1
 40
1.0
176
     1
 90
        0
176
     1
 62
    18
420
        0
176
     1
 90
       50
176
     1
 90
        3
176
     1
 62
     5
420
      255
176
     1
290
     0
176
     1
 90
       50
176
     1
 90
       50
176
     1
 90
       50
176
     1
290
     0
176
     1
 90
       50
176
     1
 62
   256
176
     0
 40
1.0
176
     0
 90
        2
176
     1
  1
strokes_ogs.tif
176
     1
290
     0
176
     1
 40
1.0
176
     1
 40
1.0
176
     1
1001
ACAD
1000
AcDbSavedByObjectVersion
1070
     0
  0
VISUALSTYLE
  5
219
102
{ACAD_REACTORS
330
205
102
}
330
205
100
AcDbVisualStyle
  2
Shades of Gray
 70
    23
177
     3
291
     0
 70
    58
 90
        2
176
     1
 90
        2
176
     1
 90
        3
176
     1
 90
        0
176
     1
 40
0.6
176
     1
 40
30.0
176
     1
 62
     7
420
 16777215
176
     1
 90
        2
176
     1
 90
        2
176
     1
 62
     7
176
     1
 62
     7
176
     1
 90
        1
176
     1
 90
        1
176
     1
 40
40.0
176
     1
 90
        8
176
     1
 62
     7
176
     1
 40
1.0
176
     1
 90
        1
176
     1
 90
        6
176
     1
 90
        2
176
     1
 62
     7
176
     1
 90
        3
176
     1
 90
        0
176
     1
 90
        0
176
     1
290
     0
176
     1
 90
        1
176
     1
 40
0.0
176
     1
 90
        0
176
     1
290
     0
176
     1
290
     1
176
     1
290
     1
176
     1
290
     0
176
     1
290
     0
176
     1
290
     0
176
     1
290
     0
176
     1
290
     0
176
     1
290
     0
176
     1
 90
       50
176
     1
 40
0.0
176
     1
 40
1.0
176
     1
 90
        0
176
     1
 62
    18
420
        0
176
     1
 90
       50
176
     1
 90
        3
176
     1
 62
     5
420
      255
176
     1
290
     0
176
     1
 90
       50
176
     1
 90
       50
176
     1
 90
       50
176
     1
290
     0
176
     1
 90
       50
176
     1
 62
   256
176
     0
 40
1.0
176
     0
 90
        2
176
     1
  1
strokes_ogs.tif
176
     1
290
     0
176
     1
 40
1.0
176
     1
 40
1.0
176
     1
1001
ACAD
1000
AcDbSavedByObjectVersion
1070
     0
  0
VISUALSTYLE
  5
21A
102
{ACAD_REACTORS
330
205
102
}
330
205
100
AcDbVisualStyle
  2
Sketchy
 70
    24
177
     3
291
     0
 70
    58
 90
        1
176
     1
 90
        2
176
     1
 90
        2
176
     1
 90
        0
176
     1
 40
0.6
176
     1
 40
30.0
176
     1
 62
     7
420
 16777215
176
     1
 90
        2
176
     1
 90
        2
176
     1
 62
     7
176
     1
 62
     7
176
     1
 90
        1
176
     1
 90
        1
176
     1
 40
40.0
176
     1
 90
       11
176
     1
 62
     7
176
     1
 40
1.0
176
     1
 90
        1
176
     1
 90
        6
176
     1
 90
        2
176
     1
 62
     7
176
     1
 90
        6
176
     1
 90
        0
176
     1
 90
        0
176
     1
290
     0
176
     1
 90
        1
176
     1
 40
0.0
176
     1
 90
        0
176
     1
290
     0
176
     1
290
     1
176
     1
290
     1
176
     1
290
     0
176
     1
290
     0
176
     1
290
     0
176
     1
290
     0
176
     1
290
     0
176
     1
290
     0
176
     1
 90
       50
176
     1
 40
0.0
176
     1
 40
1.0
176
     1
 90
        0
176
     1
 62
    18
420
        0
176
     1
 90
       50
176
     1
 90
        3
176
     1
 62
     5
420
      255
176
     1
290
     0
176
     1
 90
       50
176
     1
 90
       50
176
     1
 90
       50
176
     1
290
     0
176
     1
 90
       50
176
     1
 62
   256
176
     0
 40
1.0
176
     0
 90
        2
176
     1
  1
strokes_ogs.tif
176
     1
290
     0
176
     1
 40
1.0
176
     1
 40
1.0
176
     1
1001
ACAD
1000
AcDbSavedByObjectVersion
1070
     0
  0
VISUALSTYLE
  5
212
102
{ACAD_REACTORS
330
205
102
}
330
205
100
AcDbVisualStyle
  2
Thicken
 70
    13
177
     3
291
     1
 70
    58
 90
        2
176
     1
 90
        2
176
     1
 90
        0
176
     1
 90
        0
176
     1
 40
0.6
176
     1
 40
30.0
176
     1
 62
     7
420
 16777215
176
     1
 90
        1
176
     1
 90
        4
176
     1
 62
     7
176
     1
 62
   257
176
     1
 90
        1
176
     1
 90
        1
176
     1
 40
1.0
176
     1
 90
       12
176
     1
 62
     7
176
     1
 40
1.0
176
     1
 90
        1
176
     1
 90
        6
176
     1
 90
        2
176
     1
 62
     7
176
     1
 90
        5
176
     1
 90
        0
176
     1
 90
        0
176
     1
290
     0
176
     1
 90
        1
176
     1
 40
0.0
176
     1
 90
        0
176
     1
290
     0
176
     1
290
     1
176
     1
290
     1
176
     1
290
     0
176
     1
290
     0
176
     1
290
     0
176
     1
290
     0
176
     1
290
     0
176
     1
290
     0
176
     1
 90
       50
176
     1
 40
0.0
176
     1
 40
1.0
176
     1
 90
        0
176
     1
 62
    18
420
        0
176
     1
 90
       50
176
     1
 90
        3
176
     1
 62
     5
420
      255
176
     1
290
     0
176
     1
 90
       50
176
     1
 90
       50
176
     1
 90
       50
176
     1
290
     0
176
     1
 90
       50
176
     1
 62
   256
176
     0
 40
1.0
176
     0
 90
        2
176
     1
  1
strokes_ogs.tif
176
     1
290
     0
176
     1
 40
1.0
176
     1
 40
1.0
176
     1
1001
ACAD
1000
AcDbSavedByObjectVersion
1070
     0
  0
VISUALSTYLE
  5
20B
102
{ACAD_REACTORS
330
205
102
}
330
205
100
AcDbVisualStyle
  2
Wireframe
 70
     5
177
     3
291
     0
 70
    58
 90
        0
176
     1
 90
        2
176
     1
 90
        0
176
     1
 90
        0
176
     1
 40
0.6
176
     1
 40
30.0
176
     1
 62
     7
420
 16777215
176
     1
 90
        1
176
     1
 90
        4
176
     1
 62
     7
176
     1
 62
   257
176
     1
 90
        1
176
     1
 90
        1
176
     1
 40
1.0
176
     1
 90
        0
176
     1
 62
   257
176
     1
 40
1.0
176
     1
 90
        1
176
     1
 90
        6
176
     1
 90
        2
176
     1
 62
     7
176
     1
 90
        3
176
     1
 90
        0
176
     1
 90
        0
176
     1
290
     0
176
     1
 90
        1
176
     1
 40
0.0
176
     1
 90
        0
176
     1
290
     0
176
     1
290
     1
176
     1
290
     1
176
     1
290
     0
176
     1
290
     0
176
     1
290
     0
176
     1
290
     0
176
     1
290
     0
176
     1
290
     0
176
     1
 90
       50
176
     1
 40
0.0
176
     1
 40
1.0
176
     1
 90
        0
176
     1
 62
    18
420
        0
176
     1
 90
       50
176
     1
 90
        3
176
     1
 62
     5
420
      255
176
     1
290
     0
176
     1
 90
       50
176
     1
 90
       50
176
     1
 90
       50
176
     1
290
     0
176
     1
 90
       50
176
     1
 62
   256
176
     0
 40
1.0
176
     0
 90
        2
176
     1
  1
strokes_ogs.tif
176
     1
290
     0
176
     1
 40
1.0
176
     1
 40
1.0
176
     1
1001
ACAD
1000
AcDbSavedByObjectVersion
1070
     0
  0
VISUALSTYLE
  5
21B
102
{ACAD_REACTORS
330
205
102
}
330
205
100
AcDbVisualStyle
  2
X-Ray
 70
    25
177
     3
291
     0
 70
    58
 90
        2
176
     1
 90
        2
176
     1
 90
        1
176
     1
 90
        1
176
     1
 40
0.5
176
     1
 40
30.0
176
     1
 62
     7
420
 16777215
176
     1
 90
        1
176
     1
 90
        0
176
     1
 62
     7
176
     1
 62
   257
176
     1
 90
        1
176
     1
 90
        1
176
     1
 40
1.0
176
     1
 90
        8
176
     1
 62
     7
176
     1
 40
1.0
176
     1
 90
        1
176
     1
 90
        6
176
     1
 90
        2
176
     1
 62
     7
176
     1
 90
        3
176
     1
 90
        0
176
     1
 90
        0
176
     1
290
     0
176
     1
 90
       13
176
     1
 40
0.0
176
     1
 90
        0
176
     1
290
     0
176
     1
290
     1
176
     1
290
     1
176
     1
290
     0
176
     1
290
     0
176
     1
290
     0
176
     1
290
     0
176
     1
290
     0
176
     1
290
     0
176
     1
 90
       50
176
     1
 40
0.0
176
     1
 40
1.0
176
     1
 90
        0
176
     1
 62
    18
420
        0
176
     1
 90
       50
176
     1
 90
        3
176
     1
 62
     5
420
      255
176
     1
290
     0
176
     1
 90
       50
176
     1
 90
       50
176
     1
 90
       50
176
     1
290
     0
176
     1
 90
       50
176
     1
 62
   256
176
     0
 40
1.0
176
     0
 90
        2
176
     1
  1
strokes_ogs.tif
176
     1
290
     0
176
     1
 40
1.0
176
     1
 40
1.0
176
     1
1001
ACAD
1000
AcDbSavedByObjectVersion
1070
     0
  0
DICTIONARYVAR
  5
200
102
{ACAD_REACTORS
330
1FF
102
}
330
1FF
100
DictionaryVariables
280
     0
  1
1:1
  0
DICTIONARYVAR
  5
28D
102
{ACAD_REACTORS
330
1FF
102
}
330
1FF
100
DictionaryVariables
280
     0
  1
STANDARD
  0
DICTIONARYVAR
  5
250
102
{ACAD_REACTORS
330
1FF
102
}
330
1FF
100
DictionaryVariables
280
     0
  1
STANDARD
  0
DICTIONARYVAR
  5
28E
102
{ACAD_REACTORS
330
1FF
102
}
330
1FF
100
DictionaryVariables
280
     0
  1
Metric50
  0
DICTIONARYVAR
  5
28F
102
{ACAD_REACTORS
330
1FF
102
}
330
1FF
100
DictionaryVariables
280
     0
  1
Metric50
  0
DICTIONARYVAR
  5
290
102
{ACAD_REACTORS
330
1FF
102
}
330
1FF
100
DictionaryVariables
280
     0
  1
1
  0
DICTIONARYVAR
  5
291
102
{ACAD_REACTORS
330
1FF
102
}
330
1FF
100
DictionaryVariables
280
     0
  1
15
  0
DICTIONARYVAR
  5
24C
102
{ACAD_REACTORS
330
1FF
102
}
330
1FF
100
DictionaryVariables
280
     0
  1
0
  0
DICTIONARYVAR
  5
251
102
{ACAD_REACTORS
330
1FF
102
}
330
1FF
100
DictionaryVariables
280
     0
  1
0
  0
DICTIONARY
  5
2CA
102
{ACAD_REACTORS
330
2C8
102
}
330
2C8
100
AcDbDictionary
281
     1
  0
DICTIONARY
  5
2C9
102
{ACAD_REACTORS
330
2C8
102
}
330
2C8
100
AcDbDictionary
281
     1
  3
1920864920624
350
2C3
  3
1920864920640
350
2C4
  3
1920864920656
350
2C5
  3
1920864920672
350
2C6
  3
1920864920688
350
2C7
  0
XRECORD
  5
224
102
{ACAD_REACTORS
330
223
102
}
330
223
100
AcDbXrecord
280
     1
 91
     1023
301

290
     0
302
0
330
10
 90
        8
 62
     7
370
    -3
331
16
  1
Color_7
330
0
 90
        8
 62
     7
370
    -3
331
6A
  1
Color_7
330
0
 90
        8
 62
     7
370
    -3
331
6A
  1
Color_7
330
0
 90
        8
 62
     7
370
    -3
331
6A
  1
Color_7
  0
XRECORD
  5
23D
102
{ACAD_REACTORS
330
223
102
}
330
223
100
AcDbXrecord
280
     1
 91
     1023
301

290
     0
302
0
330
10
 90
        8
 62
     7
370
    -3
331
16
  1
Color_7
330
0
 90
        8
 62
     7
370
    -3
331
6A
  1
Color_7
330
0
 90
        8
 62
     7
370
    -3
331
6A
  1
Color_7
330
0
 90
        8
 62
     7
370
    -3
331
6A
  1
Color_7
330
225
 90
        8
 62
     6
370
    -3
331
16
  1
Color_6
330
227
 90
        8
 62
     1
370
    -3
331
16
  1
Color_1
330
229
 90
        0
 62
     7
370
    -3
331
16
  1
Color_7
  0
XRECORD
  5
240
102
{ACAD_REACTORS
330
223
102
}
330
223
100
AcDbXrecord
280
     1
 91
     1023
301

290
     0
302
0
330
10
 90
        8
 62
     7
370
    -3
331
16
  1
Color_7
330
225
 90
        8
 62
     6
370
    -3
331
16
  1
Color_6
330
227
 90
        8
 62
     1
370
    -3
331
16
  1
Color_1
330
229
 90
        0
 62
     7
370
    -3
331
16
  1
Color_7
  0
XRECORD
  5
24A
102
{ACAD_REACTORS
330
223
102
}
330
223
100
AcDbXrecord
280
     1
 91
     1023
301

290
     0
302
0
330
10
 90
        8
 62
     7
370
    -3
331
16
  1
Color_7
330
225
 90
        8
 62
     6
370
    -3
331
16
  1
Color_6
330
227
 90
        8
 62
     1
370
    -3
331
16
  1
Color_1
330
229
 90
        0
 62
     7
370
    -3
331
16
  1
Color_7
  0
DICTIONARY
  5
2CD
330
257
100
AcDbDictionary
280
     1
281
     1
  3
ACAD_XREC_ROUNDTRIP
360
2CE
  0
DICTIONARY
  5
2CB
330
256
100
AcDbDictionary
280
     1
281
     1
  3
ACAD_XREC_ROUNDTRIP
360
2CC
  0
DICTIONARY
  5
24D
330
21E
100
AcDbDictionary
280
     1
281
     1
  3
ACAD_ROUNDTRIP_2008_TABLESTYLE_CELLSTYLEMAP
360
2C1
  0
XRECORD
  5
2C3
102
{ACAD_REACTORS
330
2C9
102
}
330
2C9
100
AcDbXrecord
280
     1
  1
AcDb_Thumbnail_Schema
102
{ATTRRECORD
341
2C4
  2
AcDbDs::TreatedAsObjectData
280
     1
291
     1
102
ATTRRECORD}
102
{ATTRRECORD
341
2C5
  2
AcDbDs::Legacy
280
     1
291
     1
102
ATTRRECORD}
  2
AcDbDs::ID
280
    10
 91
        8
102
{ATTRRECORD
341
2C6
  2
AcDs:Indexable
280
     1
291
     1
102
ATTRRECORD}
102
{ATTRRECORD
341
2C7
  2
AcDbDs::HandleAttribute
280
     7
282
     1
102
ATTRRECORD}
  2
Thumbnail_Data
280
    15
 91
        0
  0
XRECORD
  5
2C4
102
{ACAD_REACTORS
330
2C9
102
}
330
2C9
100
AcDbXrecord
280
     1
  1
AcDbDs::TreatedAsObjectDataSchema
  2
AcDbDs::TreatedAsObjectData
280
     1
 91
        0
  0
XRECORD
  5
2C5
102
{ACAD_REACTORS
330
2C9
102
}
330
2C9
100
AcDbXrecord
280
     1
  1
AcDbDs::LegacySchema
  2
AcDbDs::Legacy
280
     1
 91
        0
  0
XRECORD
  5
2C6
102
{ACAD_REACTORS
330
2C9
102
}
330
2C9
100
AcDbXrecord
280
     1
  1
AcDbDs::IndexedPropertySchema
  2
AcDs:Indexable
280
     1
 91
        0
  0
XRECORD
  5
2C7
102
{ACAD_REACTORS
330
2C9
102
}
330
2C9
100
AcDbXrecord
280
     1
  1
AcDbDs::HandleAttributeSchema
  2
AcDbDs::HandleAttribute
280
     7
 91
        1
284
     1
  0
XRECORD
  5
2CE
102
{ACAD_REACTORS
330
2CD
102
}
330
2CD
100
AcDbXrecord
280
     1
102
DISPLAYNAME
  1
Metric50
102
FLAGS
 90
        0
  0
XRECORD
  5
2CC
102
{ACAD_REACTORS
330
2CB
102
}
330
2CB
100
AcDbXrecord
280
     1
102
DISPLAYNAME
  1
Metric50
102
FLAGS
 90
        0
  0
CELLSTYLEMAP
  5
2C1
102
{ACAD_REACTORS
330
24D
102
}
330
24D
100
AcDbCellStyleMap
 90
        3
300
CELLSTYLE
  1
TABLEFORMAT_BEGIN
 90
        5
170
     1
 91
        0
 92
        0
 62
   257
 93
        1
300
CONTENTFORMAT
  1
CONTENTFORMAT_BEGIN
 90
        0
 91
        0
 92
        4
 93
        0
300

 40
0.0
140
1.0
 94
        5
 62
     0
340
11
144
6.0
309
CONTENTFORMAT_END
171
     1
301
MARGIN
  1
CELLMARGIN_BEGIN
 40
1.5
 40
1.5
 40
1.5
 40
1.5
 40
1.5
 40
1.5
309
CELLMARGIN_END
 94
        6
 95
        1
302
GRIDFORMAT
  1
GRIDFORMAT_BEGIN
 90
        0
 91
        1
 62
     0
 92
       -2
340
14
 93
        0
 40
0.045
309
GRIDFORMAT_END
 95
        2
302
GRIDFORMAT
  1
GRIDFORMAT_BEGIN
 90
        0
 91
        1
 62
     0
 92
       -2
340
14
 93
        0
 40
0.045
309
GRIDFORMAT_END
 95
        4
302
GRIDFORMAT
  1
GRIDFORMAT_BEGIN
 90
        0
 91
        1
 62
     0
 92
       -2
340
14
 93
        0
 40
0.045
309
GRIDFORMAT_END
 95
        8
302
GRIDFORMAT
  1
GRIDFORMAT_BEGIN
 90
        0
 91
        1
 62
     0
 92
       -2
340
14
 93
        0
 40
0.045
309
GRIDFORMAT_END
 95
       16
302
GRIDFORMAT
  1
GRIDFORMAT_BEGIN
 90
        0
 91
        1
 62
     0
 92
       -2
340
14
 93
        0
 40
0.045
309
GRIDFORMAT_END
 95
       32
302
GRIDFORMAT
  1
GRIDFORMAT_BEGIN
 90
        0
 91
        1
 62
     0
 92
       -2
340
14
 93
        0
 40
0.045
309
GRIDFORMAT_END
309
TABLEFORMAT_END
  1
CELLSTYLE_BEGIN
 90
        1
 91
        1
300
_TITLE
309
CELLSTYLE_END
300
CELLSTYLE
  1
TABLEFORMAT_BEGIN
 90
        5
170
     1
 91
        0
 92
        0
 62
   257
 93
        1
300
CONTENTFORMAT
  1
CONTENTFORMAT_BEGIN
 90
        0
 91
        0
 92
        4
 93
        0
300

 40
0.0
140
1.0
 94
        5
 62
     0
340
11
144
4.5
309
CONTENTFORMAT_END
171
     1
301
MARGIN
  1
CELLMARGIN_BEGIN
 40
1.5
 40
1.5
 40
1.5
 40
1.5
 40
1.5
 40
1.5
309
CELLMARGIN_END
 94
        6
 95
        1
302
GRIDFORMAT
  1
GRIDFORMAT_BEGIN
 90
        0
 91
        1
 62
     0
 92
       -2
340
14
 93
        0
 40
0.045
309
GRIDFORMAT_END
 95
        2
302
GRIDFORMAT
  1
GRIDFORMAT_BEGIN
 90
        0
 91
        1
 62
     0
 92
       -2
340
14
 93
        0
 40
0.045
309
GRIDFORMAT_END
 95
        4
302
GRIDFORMAT
  1
GRIDFORMAT_BEGIN
 90
        0
 91
        1
 62
     0
 92
       -2
340
14
 93
        0
 40
0.045
309
GRIDFORMAT_END
 95
        8
302
GRIDFORMAT
  1
GRIDFORMAT_BEGIN
 90
        0
 91
        1
 62
     0
 92
       -2
340
14
 93
        0
 40
0.045
309
GRIDFORMAT_END
 95
       16
302
GRIDFORMAT
  1
GRIDFORMAT_BEGIN
 90
        0
 91
        1
 62
     0
 92
       -2
340
14
 93
        0
 40
0.045
309
GRIDFORMAT_END
 95
       32
302
GRIDFORMAT
  1
GRIDFORMAT_BEGIN
 90
        0
 91
        1
 62
     0
 92
       -2
340
14
 93
        0
 40
0.045
309
GRIDFORMAT_END
309
TABLEFORMAT_END
  1
CELLSTYLE_BEGIN
 90
        2
 91
        1
300
_HEADER
309
CELLSTYLE_END
300
CELLSTYLE
  1
TABLEFORMAT_BEGIN
 90
        5
170
     1
 91
        0
 92
        0
 62
   257
 93
        1
300
CONTENTFORMAT
  1
CONTENTFORMAT_BEGIN
 90
        0
 91
        0
 92
        4
 93
        0
300

 40
0.0
140
1.0
 94
        2
 62
     0
340
11
144
4.5
309
CONTENTFORMAT_END
171
     1
301
MARGIN
  1
CELLMARGIN_BEGIN
 40
1.5
 40
1.5
 40
1.5
 40
1.5
 40
1.5
 40
1.5
309
CELLMARGIN_END
 94
        6
 95
        1
302
GRIDFORMAT
  1
GRIDFORMAT_BEGIN
 90
        0
 91
        1
 62
     0
 92
       -2
340
14
 93
        0
 40
0.045
309
GRIDFORMAT_END
 95
        2
302
GRIDFORMAT
  1
GRIDFORMAT_BEGIN
 90
        0
 91
        1
 62
     0
 92
       -2
340
14
 93
        0
 40
0.045
309
GRIDFORMAT_END
 95
        4
302
GRIDFORMAT
  1
GRIDFORMAT_BEGIN
 90
        0
 91
        1
 62
     0
 92
       -2
340
14
 93
        0
 40
0.045
309
GRIDFORMAT_END
 95
        8
302
GRIDFORMAT
  1
GRIDFORMAT_BEGIN
 90
        0
 91
        1
 62
     0
 92
       -2
340
14
 93
        0
 40
0.045
309
GRIDFORMAT_END
 95
       16
302
GRIDFORMAT
  1
GRIDFORMAT_BEGIN
 90
        0
 91
        1
 62
     0
 92
       -2
340
14
 93
        0
 40
0.045
309
GRIDFORMAT_END
 95
       32
302
GRIDFORMAT
  1
GRIDFORMAT_BEGIN
 90
        0
 91
        1
 62
     0
 92
       -2
340
14
 93
        0
 40
0.045
309
GRIDFORMAT_END
309
TABLEFORMAT_END
  1
CELLSTYLE_BEGIN
 90
        3
 91
        2
300
_DATA
309
CELLSTYLE_END
  0
ENDSEC
  0
SECTION
  2
ACDSDATA
 70
     2
 71
     8
  0
ACDSSCHEMA
 90
        0
  1
AcDb_Thumbnail_Schema
  2
AcDbDs::ID
280
    10
 91
        8
  2
Thumbnail_Data
280
    15
 91
        0
101
ACDSRECORD
 95
        0
 90
        1
  2
AcDbDs::TreatedAsObjectData
280
     1
291
     1
101
ACDSRECORD
 95
        0
 90
        2
  2
AcDbDs::Legacy
280
     1
291
     1
101
ACDSRECORD
  1
AcDbDs::ID
 90
        3
  2
AcDs:Indexable
280
     1
291
     1
101
ACDSRECORD
  1
AcDbDs::ID
 90
        4
  2
AcDbDs::HandleAttribute
280
     7
282
     1
  0
ACDSSCHEMA
 90
        1
  1
AcDbDs::TreatedAsObjectDataSchema
  2
AcDbDs::TreatedAsObjectData
280
     1
 91
        0
  0
ACDSSCHEMA
 90
        2
  1
AcDbDs::LegacySchema
  2
AcDbDs::Legacy
280
     1
 91
        0
  0
ACDSSCHEMA
 90
        3
  1
AcDbDs::IndexedPropertySchema
  2
AcDs:Indexable
280
     1
 91
        0
  0
ACDSSCHEMA
 90
        4
  1
AcDbDs::HandleAttributeSchema
  2
AcDbDs::HandleAttribute
280
     7
 91
        1
284
     1
  0
ACDSRECORD
 90
        0
  2
AcDbDs::ID
280
    10
320
22
  2
Thumbnail_Data
280
    15
 94
     1379
310
89504E470D0A1A0A0000000D4948445200000100000000800803000000D36B473800000300504C5445212830FFFFFF2128300000000000000000000000000000000000000000000000000000330000660000990000CC0000FF0033000033330033660033990033CC0033FF0066000066330066660066990066CC0066FF0099
310
000099330099660099990099CC0099FF00CC0000CC3300CC6600CC9900CCCC00CCFF00FF0000FF3300FF6600FF9900FFCC00FFFF3300003300333300663300993300CC3300FF3333003333333333663333993333CC3333FF3366003366333366663366993366CC3366FF3399003399333399663399993399CC3399FF33CC00
310
33CC3333CC6633CC9933CCCC33CCFF33FF0033FF3333FF6633FF9933FFCC33FFFF6600006600336600666600996600CC6600FF6633006633336633666633996633CC6633FF6666006666336666666666996666CC6666FF6699006699336699666699996699CC6699FF66CC0066CC3366CC6666CC9966CCCC66CCFF66FF0066
310
FF3366FF6666FF9966FFCC66FFFF9900009900339900669900999900CC9900FF9933009933339933669933999933CC9933FF9966009966339966669966999966CC9966FF9999009999339999669999999999CC9999FF99CC0099CC3399CC6699CC9999CCCC99CCFF99FF0099FF3399FF6699FF9999FFCC99FFFFCC0000CC00
310
33CC0066CC0099CC00CCCC00FFCC3300CC3333CC3366CC3399CC33CCCC33FFCC6600CC6633CC6666CC6699CC66CCCC66FFCC9900CC9933CC9966CC9999CC99CCCC99FFCCCC00CCCC33CCCC66CCCC99CCCCCCCCCCFFCCFF00CCFF33CCFF66CCFF99CCFFCCCCFFFFFF0000FF0033FF0066FF0099FF00CCFF00FFFF3300FF3333
310
FF3366FF3399FF33CCFF33FFFF6600FF6633FF6666FF6699FF66CCFF66FFFF9900FF9933FF9966FF9999FF99CCFF99FFFFCC00FFCC33FFCC66FFCC99FFCCCCFFCCFFFFFF00FFFF33FFFF66FFFF99FFFFCCFFFFFF0000000D0D0D1A1A1A2828283535354343435050505D5D5D6B6B6B787878868686939393A1A1A1AEAEAEBB
310
BBBBC9C9C9D6D6D6E4E4E4F1F1F1FFFFFF0000000000000000000000000000000000000000000000000000000000002E4550F10000021E4944415478DAED9D5D7283300C0675FF43F1A28B9592A6107E66B0F14724BCFB9299CC20AC4590C4565D333866B887C002F6DEF489E258C7876512B0C8C1CBD806C827E03DF6AA12
310
581CB43E388B003FBA82851AA6977402F6065E2D6155051904B8B54A7FA12091006F99FEAC208D006F9CFEBFD3240214F9BF427A0601F3405506A20B10E53F878E2D60BC4E2E13F08A1D5C80AE00DEC1430B90E6FF1B7B2C81E0025C2A608C1F5AC034401397406801DA02783D05820B109FC2118080F0DF03BA165031F355
310
7CC09304547C6C86FF228400F12DC043908F410420801F43A1E703D405C08448E753624C8A322D9E6061C495F9875F1B942D8D598EA5B1EE17478DE5F1BFABD5BA41C2F334486C9A5A1AA46FB97A84765A9BEAB35FCB4CD5266797DBE4CC52B6C92D73EFB551F29DC647465DB5CA7E665E5300F99AA57B6F97070000000000
310
0000000000000000000000000080E712B151F2D636CCC16FB05CF8A7B34763F226D13727BB83413AA6E75580347AE25B0001699F0116F91960FA1228167030266F127D7B32FD161A4A017E59804514E0E705D87501F24740B1001346DF3B99BA002A049C8EDE40804514E0B2E83904D87304546CA05030266F2240BC8B4C9D
310
0057454F22C010F01001357B88DC2F40BB91925040832D5AC20A383526042020BA80AA7D84BE2040F94F5610A013D0629F2A04841570624CBD097004700B20209980BAFD04BF214064402BA0C9768D08E85E40EF3D42D0013F6DE00FF6C6A43AE60000000049454E44AE426082
  0
ENDSEC
  0
EOF
