  0
SECTION
  2
HEADER
  9
$ACADVER
  1
AC1015
  9
$ACADMAINTVER
 70
    13
  9
$DWGCODEPAGE
  3
ANSI_1252
  9
$INSBASE
 10
0.0
 20
0.0
 30
0.0
  9
$EXTMIN
 10
-127.8305728227777
 20
134.3287554074681
 30
0.0
  9
$EXTMAX
 10
815.4553992540522
 20
804.3175662203477
 30
0.0
  9
$LIMMIN
 10
-127.8305740356445
 20
122.4517745971679
  9
$LIMMAX
 10
815.4553833007812
 20
804.3175659179688
  9
$ORTHOMODE
 70
     0
  9
$REGENMODE
 70
     1
  9
$FILLMODE
 70
     1
  9
$QTEXTMODE
 70
     0
  9
$MIRRTEXT
 70
     1
  9
$LTSCALE
 40
1.0
  9
$ATTMODE
 70
     1
  9
$TEXTSIZE
 40
2.5
  9
$TRACEWID
 40
1.0
  9
$TEXTSTYLE
  7
Standard
  9
$CLAYER
  8
0
  9
$CELTYPE
  6
ByLayer
  9
$CECOLOR
 62
   256
  9
$CELTSCALE
 40
1.0
  9
$DISPSILH
 70
     0
  9
$DIMSCALE
 40
1.0
  9
$DIMASZ
 40
2.5
  9
$DIMEXO
 40
0.625
  9
$DIMDLI
 40
3.75
  9
$DIMRND
 40
0.0
  9
$DIMDLE
 40
0.0
  9
$DIMEXE
 40
1.25
  9
$DIMTP
 40
0.0
  9
$DIMTM
 40
0.0
  9
$DIMTXT
 40
2.5
  9
$DIMCEN
 40
2.5
  9
$DIMTSZ
 40
0.0
  9
$DIMTOL
 70
     0
  9
$DIMLIM
 70
     0
  9
$DIMTIH
 70
     0
  9
$DIMTOH
 70
     0
  9
$DIMSE1
 70
     0
  9
$DIMSE2
 70
     0
  9
$DIMTAD
 70
     1
  9
$DIMZIN
 70
     8
  9
$DIMBLK
  1

  9
$DIMASO
 70
     1
  9
$DIMSHO
 70
     1
  9
$DIMPOST
  1

  9
$DIMAPOST
  1

  9
$DIMALT
 70
     0
  9
$DIMALTD
 70
     3
  9
$DIMALTF
 40
0.03937007874016
  9
$DIMLFAC
 40
1.0
  9
$DIMTOFL
 70
     1
  9
$DIMTVP
 40
0.0
  9
$DIMTIX
 70
     0
  9
$DIMSOXD
 70
     0
  9
$DIMSAH
 70
     0
  9
$DIMBLK1
  1

  9
$DIMBLK2
  1

  9
$DIMSTYLE
  2
ISO-25
  9
$DIMCLRD
 70
     0
  9
$DIMCLRE
 70
     0
  9
$DIMCLRT
 70
     0
  9
$DIMTFAC
 40
1.0
  9
$DIMGAP
 40
0.625
  9
$DIMJUST
 70
     0
  9
$DIMSD1
 70
     0
  9
$DIMSD2
 70
     0
  9
$DIMTOLJ
 70
     0
  9
$DIMTZIN
 70
     8
  9
$DIMALTZ
 70
     0
  9
$DIMALTTZ
 70
     0
  9
$DIMUPT
 70
     0
  9
$DIMDEC
 70
     2
  9
$DIMTDEC
 70
     2
  9
$DIMALTU
 70
     2
  9
$DIMALTTD
 70
     3
  9
$DIMTXSTY
  7
Standard
  9
$DIMAUNIT
 70
     0
  9
$DIMADEC
 70
     0
  9
$DIMALTRND
 40
0.0
  9
$DIMAZIN
 70
     0
  9
$DIMDSEP
 70
    44
  9
$DIMATFIT
 70
     3
  9
$DIMFRAC
 70
     0
  9
$DIMLDRBLK
  1

  9
$DIMLUNIT
 70
     2
  9
$DIMLWD
 70
    -2
  9
$DIMLWE
 70
    -2
  9
$DIMTMOVE
 70
     0
  9
$LUNITS
 70
     2
  9
$LUPREC
 70
     4
  9
$SKETCHINC
 40
1.0
  9
$FILLETRAD
 40
10.0
  9
$AUNITS
 70
     0
  9
$AUPREC
 70
     0
  9
$MENU
  1
.
  9
$ELEVATION
 40
0.0
  9
$PELEVATION
 40
0.0
  9
$THICKNESS
 40
0.0
  9
$LIMCHECK
 70
     0
  9
$CHAMFERA
 40
10.0
  9
$CHAMFERB
 40
10.0
  9
$CHAMFERC
 40
20.0
  9
$CHAMFERD
 40
0.0
  9
$SKPOLY
 70
     0
  9
$TDCREATE
 40
2455527.600438333
  9
$TDUCREATE
 40
2455527.558771666
  9
$TDUPDATE
 40
2455527.634753889
  9
$TDUUPDATE
 40
2455527.593087222
  9
$TDINDWG
 40
0.0001486574
  9
$TDUSRTIMER
 40
0.0001486574
  9
$USRTIMER
 70
     1
  9
$ANGBASE
 50
0.0
  9
$ANGDIR
 70
     0
  9
$PDMODE
 70
     0
  9
$PDSIZE
 40
0.0
  9
$PLINEWID
 40
0.0
  9
$SPLFRAME
 70
     0
  9
$SPLINETYPE
 70
     6
  9
$SPLINESEGS
 70
     8
  9
$HANDSEED
  5
141
  9
$SURFTAB1
 70
     6
  9
$SURFTAB2
 70
     6
  9
$SURFTYPE
 70
     6
  9
$SURFU
 70
     6
  9
$SURFV
 70
     6
  9
$UCSBASE
  2

  9
$UCSNAME
  2

  9
$UCSORG
 10
0.0
 20
0.0
 30
0.0
  9
$UCSXDIR
 10
1.0
 20
0.0
 30
0.0
  9
$UCSYDIR
 10
0.0
 20
1.0
 30
0.0
  9
$UCSORTHOREF
  2

  9
$UCSORTHOVIEW
 70
     0
  9
$UCSORGTOP
 10
0.0
 20
0.0
 30
0.0
  9
$UCSORGBOTTOM
 10
0.0
 20
0.0
 30
0.0
  9
$UCSORGLEFT
 10
0.0
 20
0.0
 30
0.0
  9
$UCSORGRIGHT
 10
0.0
 20
0.0
 30
0.0
  9
$UCSORGFRONT
 10
0.0
 20
0.0
 30
0.0
  9
$UCSORGBACK
 10
0.0
 20
0.0
 30
0.0
  9
$PUCSBASE
  2

  9
$PUCSNAME
  2

  9
$PUCSORG
 10
0.0
 20
0.0
 30
0.0
  9
$PUCSXDIR
 10
1.0
 20
0.0
 30
0.0
  9
$PUCSYDIR
 10
0.0
 20
1.0
 30
0.0
  9
$PUCSORTHOREF
  2

  9
$PUCSORTHOVIEW
 70
     0
  9
$PUCSORGTOP
 10
0.0
 20
0.0
 30
0.0
  9
$PUCSORGBOTTOM
 10
0.0
 20
0.0
 30
0.0
  9
$PUCSORGLEFT
 10
0.0
 20
0.0
 30
0.0
  9
$PUCSORGRIGHT
 10
0.0
 20
0.0
 30
0.0
  9
$PUCSORGFRONT
 10
0.0
 20
0.0
 30
0.0
  9
$PUCSORGBACK
 10
0.0
 20
0.0
 30
0.0
  9
$USERI1
 70
     0
  9
$USERI2
 70
     0
  9
$USERI3
 70
     0
  9
$USERI4
 70
     0
  9
$USERI5
 70
     0
  9
$USERR1
 40
0.0
  9
$USERR2
 40
0.0
  9
$USERR3
 40
0.0
  9
$USERR4
 40
0.0
  9
$USERR5
 40
0.0
  9
$WORLDVIEW
 70
     1
  9
$SHADEDGE
 70
     3
  9
$SHADEDIF
 70
    70
  9
$TILEMODE
 70
     1
  9
$MAXACTVP
 70
    64
  9
$PINSBASE
 10
0.0
 20
0.0
 30
0.0
  9
$PLIMCHECK
 70
     0
  9
$PEXTMIN
 10
1.000000000000000E+20
 20
1.000000000000000E+20
 30
1.000000000000000E+20
  9
$PEXTMAX
 10
-1.000000000000000E+20
 20
-1.000000000000000E+20
 30
-1.000000000000000E+20
  9
$PLIMMIN
 10
0.0
 20
0.0
  9
$PLIMMAX
 10
420.0
 20
297.0
  9
$UNITMODE
 70
     0
  9
$VISRETAIN
 70
     1
  9
$PLINEGEN
 70
     0
  9
$PSLTSCALE
 70
     1
  9
$TREEDEPTH
 70
  3020
  9
$CMLSTYLE
  2
Standard
  9
$CMLJUST
 70
     0
  9
$CMLSCALE
 40
20.0
  9
$PROXYGRAPHICS
 70
     1
  9
$MEASUREMENT
 70
     1
  9
$CELWEIGHT
370
    -1
  9
$ENDCAPS
280
     0
  9
$JOINSTYLE
280
     0
  9
$LWDISPLAY
290
     0
  9
$INSUNITS
 70
     4
  9
$HYPERLINKBASE
  1

  9
$STYLESHEET
  1

  9
$XEDIT
290
     1
  9
$CEPSNTYPE
380
     0
  9
$PSTYLEMODE
290
     1
  9
$FINGERPRINTGUID
  2
{8C30DD3A-E1CE-4C6D-9B83-43A726374DA4}
  9
$VERSIONGUID
  2
{27B072B3-388D-47A3-BB30-017609DFACED}
  9
$EXTNAMES
290
     1
  9
$PSVPSCALE
 40
0.0
  9
$OLESTARTUP
290
     0
  0
ENDSEC
  0
SECTION
  2
CLASSES
  0
CLASS
  1
ACDBDICTIONARYWDFLT
  2
AcDbDictionaryWithDefault
  3
AutoCAD 2000
 90
        0
280
     0
281
     0
  0
CLASS
  1
VISUALSTYLE
  2
AcDbVisualStyle
  3
ObjectDBX Classes
 90
     4095
280
     0
281
     0
  0
CLASS
  1
DICTIONARYVAR
  2
AcDbDictionaryVar
  3
AutoCAD 2000
 90
        0
280
     0
281
     0
  0
CLASS
  1
ACDBPLACEHOLDER
  2
AcDbPlaceHolder
  3
AutoCAD 2000
 90
        0
280
     0
281
     0
  0
CLASS
  1
LAYOUT
  2
AcDbLayout
  3
AutoCAD 2000
 90
        0
280
     0
281
     0
  0
ENDSEC
  0
SECTION
  2
TABLES
  0
TABLE
  2
VPORT
  5
8
330
0
100
AcDbSymbolTable
 70
     2
  0
VPORT
  5
140
330
8
100
AcDbSymbolTableRecord
100
AcDbViewportTableRecord
  2
*Active
 70
     0
 10
0.0
 20
0.0
 11
1.0
 21
1.0
 12
343.8124068288273
 22
469.3152062309232
 13
0.0
 23
0.0
 14
10.0
 24
10.0
 15
10.0
 25
10.0
 16
0.0
 26
0.0
 36
1.0
 17
0.0
 27
0.0
 37
0.0
 40
674.2038150417885
 41
1.906832298136646
 42
50.0
 43
0.0
 44
0.0
 50
0.0
 51
0.0
 71
     0
 72
   100
 73
     1
 74
     3
 75
     0
 76
     0
 77
     0
 78
     0
281
     0
 65
     1
110
0.0
120
0.0
130
0.0
111
1.0
121
0.0
131
0.0
112
0.0
122
1.0
132
0.0
 79
     0
146
0.0
  0
ENDTAB
  0
TABLE
  2
LTYPE
  5
5
330
0
100
AcDbSymbolTable
 70
     1
  0
LTYPE
  5
14
330
5
100
AcDbSymbolTableRecord
100
AcDbLinetypeTableRecord
  2
ByBlock
 70
     0
  3

 72
    65
 73
     0
 40
0.0
  0
LTYPE
  5
15
330
5
100
AcDbSymbolTableRecord
100
AcDbLinetypeTableRecord
  2
ByLayer
 70
     0
  3

 72
    65
 73
     0
 40
0.0
  0
LTYPE
  5
16
330
5
100
AcDbSymbolTableRecord
100
AcDbLinetypeTableRecord
  2
Continuous
 70
     0
  3
Solid line
 72
    65
 73
     0
 40
0.0
  0
ENDTAB
  0
TABLE
  2
LAYER
  5
2
330
0
100
AcDbSymbolTable
 70
     1
  0
LAYER
  5
10
330
2
100
AcDbSymbolTableRecord
100
AcDbLayerTableRecord
  2
0
 70
     0
 62
   106
  6
Continuous
370
     0
390
F
  0
ENDTAB
  0
TABLE
  2
STYLE
  5
3
330
0
100
AcDbSymbolTable
 70
     4
  0
STYLE
  5
11
330
3
100
AcDbSymbolTableRecord
100
AcDbTextStyleTableRecord
  2
Standard
 70
     0
 40
0.0
 41
1.0
 50
0.0
 71
     0
 42
2.5
  3
txt
  4

  0
STYLE
  5
3B
330
3
100
AcDbSymbolTableRecord
100
AcDbTextStyleTableRecord
  2
Default
 70
     0
 40
0.0
 41
1.0
 50
0.0
 71
     0
 42
0.2
  3
txt_____.ttf
  4

1001
ACAD
1000
txt
1071
        0
  0
STYLE
  5
3C
330
3
100
AcDbSymbolTableRecord
100
AcDbTextStyleTableRecord
  2
ISO
 70
     0
 40
0.0
 41
1.0
 50
0.0
 71
     0
 42
0.2
  3
txt_____.ttf
  4

1001
ACAD
1000
txt
1071
        0
  0
STYLE
  5
3D
330
3
100
AcDbSymbolTableRecord
100
AcDbTextStyleTableRecord
  2
GIANLU
 70
     0
 40
0.0
 41
1.0
 50
0.0
 71
     0
 42
0.2
  3
ARIAL.TTF
  4

1001
ACAD
1000
Arial
1071
        0
  0
ENDTAB
  0
TABLE
  2
VIEW
  5
6
330
0
100
AcDbSymbolTable
 70
     0
  0
ENDTAB
  0
TABLE
  2
UCS
  5
7
330
0
100
AcDbSymbolTable
 70
     0
  0
ENDTAB
  0
TABLE
  2
APPID
  5
9
330
0
100
AcDbSymbolTable
 70
     1
  0
APPID
  5
12
330
9
100
AcDbSymbolTableRecord
100
AcDbRegAppTableRecord
  2
ACAD
 70
     0
  0
ENDTAB
  0
TABLE
  2
DIMSTYLE
  5
A
330
0
100
AcDbSymbolTable
 70
     4
100
AcDbDimStyleTable
 71
     0
  0
DIMSTYLE
105
27
330
A
100
AcDbSymbolTableRecord
100
AcDbDimStyleTableRecord
  2
ISO-25
 70
     0
 41
2.5
 42
0.625
 43
3.75
 44
1.25
 73
     0
 74
     0
 77
     1
 78
     8
140
2.5
141
2.5
143
0.03937007874016
147
0.625
171
     3
172
     1
271
     2
272
     2
274
     3
278
    44
283
     0
284
     8
340
11
  0
DIMSTYLE
105
3E
330
A
100
AcDbSymbolTableRecord
100
AcDbDimStyleTableRecord
  2
Default
 70
     0
  3
<>
 41
4.375
 42
1.05
 44
2.1
 73
     0
 74
     0
 77
     1
 78
     8
140
3.5
146
0.4
147
1.75
178
     3
271
     2
272
     3
284
     8
340
3B
341
3F
342
3F
  0
DIMSTYLE
105
46
330
A
100
AcDbSymbolTableRecord
100
AcDbDimStyleTableRecord
  2
ISO
 70
     0
  3
<>
 41
4.375
 42
1.05
 44
2.1
 73
     0
 74
     0
 77
     1
 78
     8
140
3.5
146
0.4
147
1.75
178
     3
271
     2
272
     3
284
     8
340
3C
341
3F
342
3F
  0
DIMSTYLE
105
47
330
A
100
AcDbSymbolTableRecord
100
AcDbDimStyleTableRecord
  2
zucchetti_unico
 70
     0
  3
<>
 41
3.0
 42
0.9
 44
1.799999999999999
 73
     0
 74
     0
 77
     1
 78
     8
140
3.0
146
0.6
147
1.5
176
   104
177
     3
178
     3
271
     2
272
     2
284
     8
340
3D
  0
ENDTAB
  0
TABLE
  2
BLOCK_RECORD
  5
1
330
0
100
AcDbSymbolTable
 70
     6
  0
BLOCK_RECORD
  5
1F
330
1
100
AcDbSymbolTableRecord
100
AcDbBlockTableRecord
  2
*Model_Space
340
22
  0
BLOCK_RECORD
  5
1B
330
1
100
AcDbSymbolTableRecord
100
AcDbBlockTableRecord
  2
*Paper_Space
340
1E
  0
BLOCK_RECORD
  5
23
330
1
100
AcDbSymbolTableRecord
100
AcDbBlockTableRecord
  2
*Paper_Space0
340
26
  0
BLOCK_RECORD
  5
3F
330
1
100
AcDbSymbolTableRecord
100
AcDbBlockTableRecord
  2
_CLOSED
340
0
  0
BLOCK_RECORD
  5
48
330
1
100
AcDbSymbolTableRecord
100
AcDbBlockTableRecord
  2
a
340
0
102
{BLKREFS
331
7A
102
}
  0
BLOCK_RECORD
  5
7B
330
1
100
AcDbSymbolTableRecord
100
AcDbBlockTableRecord
  2
b
340
0
102
{BLKREFS
331
A9
102
}
  0
BLOCK_RECORD
  5
AA
330
1
100
AcDbSymbolTableRecord
100
AcDbBlockTableRecord
  2
c
340
0
102
{BLKREFS
331
ED
102
}
  0
BLOCK_RECORD
  5
EE
330
1
100
AcDbSymbolTableRecord
100
AcDbBlockTableRecord
  2
d
340
0
102
{BLKREFS
331
12E
102
}
  0
ENDTAB
  0
ENDSEC
  0
SECTION
  2
BLOCKS
  0
BLOCK
  5
20
330
1F
100
AcDbEntity
  8
0
100
AcDbBlockBegin
  2
*Model_Space
 70
     0
 10
0.0
 20
0.0
 30
0.0
  3
*Model_Space
  1

  0
ENDBLK
  5
21
330
1F
100
AcDbEntity
  8
0
100
AcDbBlockEnd
  0
BLOCK
  5
1C
330
1B
100
AcDbEntity
 67
     1
  8
0
100
AcDbBlockBegin
  2
*Paper_Space
 70
     0
 10
0.0
 20
0.0
 30
0.0
  3
*Paper_Space
  1

  0
ENDBLK
  5
1D
330
1B
100
AcDbEntity
 67
     1
  8
0
100
AcDbBlockEnd
  0
BLOCK
  5
24
330
23
100
AcDbEntity
  8
0
100
AcDbBlockBegin
  2
*Paper_Space0
 70
     0
 10
0.0
 20
0.0
 30
0.0
  3
*Paper_Space0
  1

  0
ENDBLK
  5
25
330
23
100
AcDbEntity
  8
0
100
AcDbBlockEnd
  0
BLOCK
  5
40
330
3F
100
AcDbEntity
  8
0
100
AcDbBlockBegin
  2
_CLOSED
 70
     0
 10
0.0
 20
0.0
 30
0.0
  3
_CLOSED
  1

  0
LINE
  5
42
330
3F
100
AcDbEntity
  8
0
  6
ByBlock
 62
     0
370
    -2
100
AcDbLine
 10
-1.0
 20
0.166667
 30
0.0
 11
0.0
 21
0.0
 31
0.0
  0
LINE
  5
43
330
3F
100
AcDbEntity
  8
0
  6
ByBlock
 62
     0
370
    -2
100
AcDbLine
 10
0.0
 20
0.0
 30
0.0
 11
-1.0
 21
-0.166667
 31
0.0
  0
LINE
  5
44
330
3F
100
AcDbEntity
  8
0
  6
ByBlock
 62
     0
370
    -2
100
AcDbLine
 10
-1.0
 20
0.166667
 30
0.0
 11
-1.0
 21
-0.166667
 31
0.0
  0
LINE
  5
45
330
3F
100
AcDbEntity
  8
0
  6
ByBlock
 62
     0
370
    -2
100
AcDbLine
 10
0.0
 20
0.0
 30
0.0
 11
-1.0
 21
0.0
 31
0.0
  0
ENDBLK
  5
41
330
3F
100
AcDbEntity
  8
0
100
AcDbBlockEnd
  0
BLOCK
  5
78
330
48
100
AcDbEntity
  8
0
100
AcDbBlockBegin
  2
a
 70
     0
 10
283.7270812988281
 20
94.08560943603516
 30
0.0
  3
a
  1

  0
LINE
  5
49
330
48
100
AcDbEntity
  8
0
  6
Continuous
 62
     0
370
    30
100
AcDbLine
 10
310.7852191926135
 20
492.2065396308899
 30
0.0
 11
337.7852191925049
 21
492.2065396308899
 31
0.0
  0
LINE
  5
4A
330
48
100
AcDbEntity
  8
0
  6
Continuous
 62
     0
370
    30
100
AcDbLine
 10
337.7852191925049
 20
492.2065396308899
 30
0.0
 11
364.7852191923961
 21
492.2065396308899
 31
0.0
  0
LINE
  5
4B
330
48
100
AcDbEntity
  8
0
  6
Continuous
 62
     0
370
    30
100
AcDbLine
 10
310.7852191926135
 20
496.2065396308735
 30
0.0
 11
337.7852191925049
 21
496.2065396308735
 31
0.0
  0
LINE
  5
4C
330
48
100
AcDbEntity
  8
0
  6
Continuous
 62
     0
370
    30
100
AcDbLine
 10
337.7852191925049
 20
496.2065396308735
 30
0.0
 11
364.7852191923961
 21
496.2065396308735
 31
0.0
  0
LINE
  5
4D
330
48
100
AcDbEntity
  8
0
  6
Continuous
 62
     0
370
    30
100
AcDbLine
 10
364.7852191923961
 20
492.2065396308899
 30
0.0
 11
364.7852191923961
 21
496.2065396308735
 31
0.0
  0
LINE
  5
4E
330
48
100
AcDbEntity
  8
0
  6
Continuous
 62
     0
370
    30
100
AcDbLine
 10
310.7852191926135
 20
492.2065396308899
 30
0.0
 11
310.7852191926135
 21
496.2065396308735
 31
0.0
  0
LINE
  5
4F
330
48
100
AcDbEntity
  8
0
  6
Continuous
 62
     0
370
    30
100
AcDbLine
 10
315.7915877097174
 20
773.3175509615585
 30
0.0
 11
337.7852191925047
 21
773.3175509615585
 31
0.0
  0
LINE
  5
50
330
48
100
AcDbEntity
  8
0
  6
Continuous
 62
     0
370
    30
100
AcDbLine
 10
337.7852191925047
 20
773.3175509615585
 30
0.0
 11
359.7788506752921
 21
773.3175509615585
 31
0.0
  0
LINE
  5
51
330
48
100
AcDbEntity
  8
0
  6
Continuous
 62
     0
370
    30
100
AcDbLine
 10
337.7852191925047
 20
804.3175509615586
 30
0.0
 11
359.7852191925048
 21
804.3175509615586
 31
0.0
  0
LINE
  5
52
330
48
100
AcDbEntity
  8
0
  6
Continuous
 62
     0
370
    30
100
AcDbLine
 10
315.7852191925047
 20
804.3175509615586
 30
0.0
 11
337.7852191925047
 21
804.3175509615586
 31
0.0
  0
LWPOLYLINE
  5
53
330
48
100
AcDbEntity
  8
0
  6
Continuous
 62
     0
370
    30
100
AcDbPolyline
 90
        2
 70
     0
 43
0.0
 10
315.7852172851562
 20
773.5098266601562
 10
315.7915954589843
 20
773.3175659179687
  0
LWPOLYLINE
  5
54
330
48
100
AcDbEntity
  8
0
  6
Continuous
 62
     0
370
    30
100
AcDbPolyline
 90
        2
 70
     0
 43
0.0
 10
359.7788391113281
 20
773.3175659179687
 10
359.7852172851562
 20
773.5098266601562
  0
LWPOLYLINE
  5
55
330
48
100
AcDbEntity
  8
0
  6
Continuous
 62
     0
370
     0
100
AcDbPolyline
 90
       31
 70
     0
 43
0.0
 10
337.7852172851562
 20
777.834228515625
 10
336.6875610351562
 20
777.9156494140624
 10
335.6148681640624
 20
778.1505737304687
 10
334.5885620117187
 20
778.5305786132812
 10
333.6253051757812
 20
779.0414428710938
 10
332.7359008789062
 20
779.6647949218749
 10
331.9276123046875
 20
780.3846435546875
 10
331.2027282714844
 20
781.1866455078125
 10
330.5621948242187
 20
782.0590209960937
 10
330.0066223144531
 20
782.9903564453124
 10
329.5364074707031
 20
783.970458984375
 10
329.1512756347656
 20
784.9909057617187
 10
328.851318359375
 20
786.0436401367187
 10
328.6367797851562
 20
787.1205444335937
 10
328.5078735351562
 20
788.2136230468749
 10
328.4646911621093
 20
789.3148803710937
 10
328.5074462890625
 20
790.4161987304687
 10
328.6359558105468
 20
791.5093383789062
 10
328.85009765625
 20
792.5863647460937
 10
329.1496276855468
 20
793.6392211914062
 10
329.5344238281249
 20
794.6598510742187
 10
330.0042724609375
 20
795.6401977539062
 10
330.5590515136718
 20
796.5715332031249
 10
331.1992797851562
 20
797.4443969726562
 10
331.9253845214843
 20
798.2482299804687
 10
332.7350463867187
 20
798.9694213867188
 10
333.6247253417969
 20
799.59326171875
 10
334.5877685546875
 20
800.10400390625
 10
335.6138305664062
 20
800.4849853515624
 10
336.6865539550781
 20
800.7206420898437
 10
337.7852172851562
 20
800.8008422851562
  0
LWPOLYLINE
  5
56
330
48
100
AcDbEntity
  8
0
  6
Continuous
 62
     0
370
     0
100
AcDbPolyline
 90
       31
 70
     0
 43
0.0
 10
337.7852172851562
 20
800.8008422851562
 10
338.8828735351562
 20
800.7194213867187
 10
339.9555969238281
 20
800.4845581054688
 10
340.9818725585937
 20
800.1045532226562
 10
341.9451293945312
 20
799.5936279296874
 10
342.8345336914062
 20
798.9703369140625
 10
343.642822265625
 20
798.2504272460937
 10
344.3677062988281
 20
797.4484252929687
 10
345.0082702636718
 20
796.5761108398437
 10
345.5638122558593
 20
795.6447143554687
 10
346.0340576171875
 20
794.6646728515625
 10
346.4191589355468
 20
793.6442260742187
 10
346.7191162109374
 20
792.5914916992187
 10
346.9336547851562
 20
791.5145874023437
 10
347.0625915527343
 20
790.4214477539063
 10
347.1057434082031
 20
789.3201904296875
 10
347.0630187988281
 20
788.2189331054687
 10
346.9344787597656
 20
787.125732421875
 10
346.7203674316406
 20
786.0487060546875
 10
346.4208068847656
 20
784.9959106445312
 10
346.0360107421875
 20
783.9752197265625
 10
345.5661621093749
 20
782.9949340820312
 10
345.0113830566406
 20
782.0635986328125
 10
344.3711547851562
 20
781.1907348632812
 10
343.6450500488281
 20
780.3869018554687
 10
342.8353881835937
 20
779.6656494140624
 10
341.9457092285156
 20
779.0418701171875
 10
340.9826660156249
 20
778.5310668945312
 10
339.9566040039062
 20
778.1500854492187
 10
338.8838806152343
 20
777.9144897460938
 10
337.7852172851562
 20
777.834228515625
  0
LINE
  5
57
330
48
100
AcDbEntity
  8
0
  6
Continuous
 62
     0
370
     0
100
AcDbLine
 10
337.7852191925049
 20
800.8008575368499
 30
0.0
 11
337.7852191925048
 21
795.8175451151478
 31
0.0
  0
LINE
  5
58
330
48
100
AcDbEntity
  8
0
  6
Continuous
 62
     0
370
     0
100
AcDbLine
 10
337.7852191925048
 20
782.8175568079696
 30
0.0
 11
337.7852191925049
 21
777.8342443862673
 31
0.0
  0
ARC
  5
59
330
48
100
AcDbEntity
  8
0
  6
Continuous
 62
     0
370
    30
100
AcDbCircle
 10
337.7852191925049
 20
789.3175509615587
 30
0.0
 40
6.499994153589111
100
AcDbArc
 50
270.0000000004456
 51
90.0
  0
ARC
  5
5A
330
48
100
AcDbEntity
  8
0
  6
Continuous
 62
     0
370
    30
100
AcDbCircle
 10
337.7852191925049
 20
789.3175509615587
 30
0.0
 40
6.499994153589111
100
AcDbArc
 50
90.00000000089299
 51
270.0000000004456
  0
ARC
  5
5B
330
48
100
AcDbEntity
  8
0
  6
Continuous
 62
     0
370
    30
100
AcDbCircle
 10
337.7853646341341
 20
770.6065271696436
 30
0.0
 40
20.50498919522107
100
AcDbArc
 50
4.195120030276092
 51
7.597485287064031
  0
ARC
  5
5C
330
48
100
AcDbEntity
  8
0
  6
Continuous
 62
     0
370
    30
100
AcDbCircle
 10
337.8369545480559
 20
770.6011131871019
 30
0.0
 40
20.55712710180914
100
AcDbArc
 50
172.4066742955298
 51
175.8004087476099
  0
LINE
  5
5D
330
48
100
AcDbEntity
  8
0
  6
Continuous
 62
     0
370
    30
100
AcDbLine
 10
359.7852191925048
 20
773.5102076150567
 30
0.0
 11
359.7852191925048
 21
804.3175509615586
 31
0.0
  0
LINE
  5
5E
330
48
100
AcDbEntity
  8
0
  6
Continuous
 62
     0
370
    30
100
AcDbLine
 10
315.7852191925048
 20
773.5102076150567
 30
0.0
 11
315.7852191925048
 21
804.3175509615586
 31
0.0
  0
LINE
  5
5F
330
48
100
AcDbEntity
  8
0
  6
Continuous
 62
     0
370
     0
100
AcDbLine
 10
315.2853137280542
 20
675.7065532054602
 30
0.0
 11
337.7852191925049
 21
675.7065532054602
 31
0.0
  0
LINE
  5
60
330
48
100
AcDbEntity
  8
0
  6
Continuous
 62
     0
370
     0
100
AcDbLine
 10
337.7852191925049
 20
675.7065532054602
 30
0.0
 11
360.2850806625993
 21
675.7065532054602
 31
0.0
  0
ARC
  5
61
330
48
100
AcDbEntity
  8
0
  6
Continuous
 62
     0
370
    30
100
AcDbCircle
 10
315.7853197223871
 20
675.706547009378
 30
0.0
 40
0.5000060384651484
100
AcDbArc
 50
90.00974886294645
 51
179.9992899896343
  0
ARC
  5
62
330
48
100
AcDbEntity
  8
0
  6
Continuous
 62
     0
370
    30
100
AcDbCircle
 10
359.7850751490649
 20
675.7065475181414
 30
0.0
 40
0.5000055296877868
100
AcDbArc
 50
0.0006517117376862
 51
89.99019732487374
  0
LINE
  5
63
330
48
100
AcDbEntity
  8
0
  6
Continuous
 62
     0
370
    30
100
AcDbLine
 10
360.28521833191
 20
496.2065396308741
 30
0.0
 11
360.2851613743953
 21
675.7065532054602
 31
0.0
  0
LINE
  5
64
330
48
100
AcDbEntity
  8
0
  6
Continuous
 62
     0
370
    30
100
AcDbLine
 10
315.2852200530997
 20
496.2065396308741
 30
0.0
 11
315.2852770106144
 21
675.7065532054602
 31
0.0
  0
LINE
  5
65
330
48
100
AcDbEntity
  8
0
  6
Continuous
 62
     0
370
    30
100
AcDbLine
 10
317.1852191925048
 20
772.1065338535951
 30
0.0
 11
337.7852191925049
 21
772.1065338535951
 31
0.0
  0
LINE
  5
66
330
48
100
AcDbEntity
  8
0
  6
Continuous
 62
     0
370
    30
100
AcDbLine
 10
337.7852191925049
 20
772.1065338535951
 30
0.0
 11
358.3852191925049
 21
772.1065338535951
 31
0.0
  0
LINE
  5
67
330
48
100
AcDbEntity
  8
0
  6
Continuous
 62
     0
370
    30
100
AcDbLine
 10
358.3852191925049
 20
770.1065338535951
 30
0.0
 11
358.3852191925049
 21
772.1065338535951
 31
0.0
  0
LINE
  5
68
330
48
100
AcDbEntity
  8
0
  6
Continuous
 62
     0
370
    30
100
AcDbLine
 10
317.1852191925048
 20
770.1065338535951
 30
0.0
 11
317.1852191925048
 21
772.1065338535951
 31
0.0
  0
LINE
  5
69
330
48
100
AcDbEntity
  8
0
  6
Continuous
 62
     0
370
    30
100
AcDbLine
 10
315.2850579823335
 20
770.1065338535951
 30
0.0
 11
360.2853804026762
 21
770.1065338535951
 31
0.0
  0
LWPOLYLINE
  5
6A
330
48
100
AcDbEntity
  8
0
  6
Continuous
 62
     0
370
     0
100
AcDbPolyline
 90
       51
 70
     0
 43
0.0
 10
347.7852172851562
 20
721.8639526367187
 10
348.5252380371093
 20
723.1212158203125
 10
349.1815185546875
 20
724.4679565429687
 10
349.7495422363281
 20
725.8984374999999
 10
350.2238464355468
 20
727.4058227539062
 10
350.5981750488281
 20
728.9810791015625
 10
350.8661499023437
 20
730.6123046875
 10
351.0222778320312
 20
732.281982421875
 10
351.0623474121093
 20
733.9707641601562
 10
350.9858093261718
 20
735.6561279296875
 10
350.7942199707031
 20
737.3157958984375
 10
350.4923095703125
 20
738.9309692382812
 10
350.0860595703124
 20
740.4861450195312
 10
349.5818481445312
 20
741.9703979492187
 10
348.9856262207031
 20
743.3753051757812
 10
348.3026428222656
 20
744.6947631835937
 10
347.5375061035156
 20
745.9229125976563
 10
346.6941223144531
 20
747.05419921875
 10
345.7764892578125
 20
748.0822143554687
 10
344.7887878417968
 20
748.9993896484374
 10
343.7357482910156
 20
749.7977905273437
 10
342.6245117187499
 20
750.468505859375
 10
341.4630126953125
 20
751.0023193359375
 10
340.2607421874999
 20
751.390869140625
 10
339.0303039550781
 20
751.6272583007812
 10
337.7851867675781
 20
751.7064819335937
 10
336.5401306152343
 20
751.6272583007812
 10
335.3096618652343
 20
751.3909301757812
 10
334.1074829101562
 20
751.0023803710937
 10
332.9456481933593
 20
750.4684448242187
 10
331.8344116210937
 20
749.7978515625
 10
330.7817382812499
 20
748.9993896484374
 10
329.7939453125
 20
748.0820922851562
 10
328.8763122558593
 20
747.05419921875
 10
328.0329284667968
 20
745.9229125976563
 10
327.2677612304687
 20
744.6947631835937
 10
326.5848388671875
 20
743.3753051757812
 10
325.9886169433593
 20
741.9703979492187
 10
325.484375
 20
740.4862060546875
 10
325.078125
 20
738.930908203125
 10
324.7761840820312
 20
737.3158569335937
 10
324.5845947265625
 20
735.6560668945312
 10
324.5081176757812
 20
733.9707641601562
 10
324.5481872558593
 20
732.2819213867187
 10
324.7042541503906
 20
730.6121215820312
 10
324.9722595214843
 20
728.9810791015625
 10
325.3466186523437
 20
727.4058837890625
 10
325.8208923339843
 20
725.8983764648437
 10
326.3889160156249
 20
724.4680175781249
 10
327.0453186035156
 20
723.1211547851562
 10
327.7852172851562
 20
721.8638305664062
  0
LINE
  5
6B
330
48
100
AcDbEntity
  8
0
  6
Continuous
 62
     0
370
    30
100
AcDbLine
 10
315.7851172562109
 20
676.2065533641125
 30
0.0
 11
359.7853211287988
 21
676.2065533641125
 31
0.0
  0
LINE
  5
6C
330
48
100
AcDbEntity
  8
0
  6
Continuous
 62
     0
370
     0
100
AcDbLine
 10
315.285117256211
 20
676.7065530468005
 30
0.0
 11
360.2853211287988
 21
676.7065530468005
 31
0.0
  0
ARC
  5
6D
330
48
100
AcDbEntity
  8
0
  6
Continuous
 62
     0
370
    30
100
AcDbCircle
 10
315.7851172562109
 20
676.7065533641125
 30
0.0
 40
0.5
100
AcDbArc
 50
180.0000363615017
 51
270.0
  0
ARC
  5
6E
330
48
100
AcDbEntity
  8
0
  6
Continuous
 62
     0
370
    30
100
AcDbCircle
 10
359.7853211287988
 20
676.7065533641125
 30
0.0
 40
0.5
100
AcDbArc
 50
270.0
 51
359.9999636384982
  0
LINE
  5
6F
330
48
100
AcDbEntity
  8
0
  6
Continuous
 62
     0
370
    30
100
AcDbLine
 10
315.2850579823335
 20
770.1065338535951
 30
0.0
 11
315.285117256211
 21
676.7065530468005
 31
0.0
  0
LINE
  5
70
330
48
100
AcDbEntity
  8
0
  6
Continuous
 62
     0
370
    30
100
AcDbLine
 10
360.2853804026762
 20
770.1065338535951
 30
0.0
 11
360.2853211287988
 21
676.7065530468005
 31
0.0
  0
ARC
  5
71
330
48
100
AcDbEntity
  8
0
  6
Continuous
 62
     0
370
    30
100
AcDbCircle
 10
337.7852191925049
 20
733.7065625551949
 30
0.0
 40
10.0
100
AcDbArc
 50
0.000000000446499
 51
180.0
  0
LINE
  5
72
330
48
100
AcDbEntity
  8
0
  6
Continuous
 62
     0
370
    30
100
AcDbLine
 10
327.7852191925048
 20
733.7065625551949
 30
0.0
 11
327.7852191925048
 21
720.7065625551949
 31
0.0
  0
ELLIPSE
  5
73
330
48
100
AcDbEntity
  8
0
  6
Continuous
 62
     0
370
     0
100
AcDbEllipse
 10
337.7852191925049
 20
720.706562555195
 30
0.0
 11
-10.0
 21
0.0
 31
0.0
210
0.0
220
0.0
230
-1.0
 40
0.5000000000000017
 41
0.0
 42
3.141592653589793
  0
ELLIPSE
  5
74
330
48
100
AcDbEntity
  8
0
  6
Continuous
 62
     0
370
    30
100
AcDbEllipse
 10
337.7852191925049
 20
703.3840629297194
 30
0.0
 11
-10.0
 21
0.0
 31
0.0
210
0.0
220
0.0
230
-1.0
 40
0.5000000000000017
 41
0.0
 42
6.283185307179586
  0
LINE
  5
75
330
48
100
AcDbEntity
  8
0
  6
Continuous
 62
     0
370
    30
100
AcDbLine
 10
327.7852191925048
 20
720.706562555195
 30
0.0
 11
327.7852191925048
 21
703.3840629297194
 31
0.0
  0
LINE
  5
76
330
48
100
AcDbEntity
  8
0
  6
Continuous
 62
     0
370
    30
100
AcDbLine
 10
347.7852191925048
 20
720.706562555195
 30
0.0
 11
347.7852191925048
 21
703.3840629297194
 31
0.0
  0
LINE
  5
77
330
48
100
AcDbEntity
  8
0
  6
Continuous
 62
     0
370
    30
100
AcDbLine
 10
347.7852191925048
 20
733.7065625551949
 30
0.0
 11
347.7852191925048
 21
720.7065625551949
 31
0.0
  0
ENDBLK
  5
79
330
48
100
AcDbEntity
  8
0
100
AcDbBlockEnd
  0
BLOCK
  5
A7
330
7B
100
AcDbEntity
  8
0
100
AcDbBlockBegin
  2
b
 70
     0
 10
184.1479187011718
 20
139.7121047973632
 30
0.0
  3
b
  1

  0
ARC
  5
7C
330
7B
100
AcDbEntity
  8
0
  6
Continuous
 62
     0
370
    30
100
AcDbCircle
 10
337.7852191925049
 20
352.7901800314525
 30
0.0
 40
26.99999999989129
100
AcDbArc
 50
291.7384687232963
 51
248.2615312758106
  0
ARC
  5
7D
330
7B
100
AcDbEntity
  8
0
  6
Continuous
 62
     0
370
    30
100
AcDbCircle
 10
337.7852191925048
 20
352.7901665634925
 30
0.0
 40
21.99999999999997
100
AcDbArc
 50
269.9999999999997
 51
89.99999999955337
  0
ARC
  5
7E
330
7B
100
AcDbEntity
  8
0
  6
Continuous
 62
     0
370
    30
100
AcDbCircle
 10
337.7852191925047
 20
352.7901665634925
 30
0.0
 40
21.99999999999997
100
AcDbArc
 50
89.99999999999969
 51
269.9999999995534
  0
LINE
  5
7F
330
7B
100
AcDbEntity
  8
0
  6
Continuous
 62
     0
370
     0
100
AcDbLine
 10
344.2852191925048
 20
324.7901672191634
 30
0.0
 11
337.7852191925049
 21
324.7901669350393
 31
0.0
  0
LINE
  5
80
330
7B
100
AcDbEntity
  8
0
  6
Continuous
 62
     0
370
     0
100
AcDbLine
 10
337.7852191925049
 20
324.7901669350393
 30
0.0
 11
331.2852191925048
 21
324.7901672191634
 31
0.0
  0
LWPOLYLINE
  5
81
330
7B
100
AcDbEntity
  8
0
  6
Continuous
 62
     0
370
     0
100
AcDbPolyline
 90
       13
 70
     0
 43
0.0
 10
331.3455200195312
 20
328.2454528808593
 10
331.4049377441406
 20
328.1960449218749
 10
331.5776672363281
 20
328.0560913085937
 10
331.8550109863281
 20
327.8403625488281
 10
332.2268676757812
 20
327.5697937011718
 10
332.6839599609375
 20
327.26513671875
 10
333.2198181152343
 20
326.9456787109374
 10
333.8300170898437
 20
326.6294860839843
 10
334.5111083984375
 20
326.3339538574218
 10
335.2582092285156
 20
326.0767822265624
 10
336.0625
 20
325.8758850097656
 10
336.9114685058594
 20
325.7468872070312
 10
337.7852172851562
 20
325.7029113769531
  0
LWPOLYLINE
  5
82
330
7B
100
AcDbEntity
  8
0
  6
Continuous
 62
     0
370
     0
100
AcDbPolyline
 90
       13
 70
     0
 43
0.0
 10
337.7852172851562
 20
325.7029113769531
 10
338.658935546875
 20
325.7470092773437
 10
339.5079040527343
 20
325.8760986328125
 10
340.3122253417969
 20
326.0769348144531
 10
341.0593566894531
 20
326.3340454101562
 10
341.7404174804687
 20
326.6295166015625
 10
342.3506164550781
 20
326.9457702636718
 10
342.8865051269531
 20
327.2652282714843
 10
343.3435668945312
 20
327.5698852539062
 10
343.7154541015625
 20
327.8403930664062
 10
343.9927978515624
 20
328.0560913085937
 10
344.16552734375
 20
328.1960144042968
 10
344.2249145507812
 20
328.2454528808593
  0
LWPOLYLINE
  5
83
330
7B
100
AcDbEntity
  8
0
  6
Continuous
 62
     0
370
     0
100
AcDbPolyline
 90
       10
 70
     0
 43
0.0
 10
337.7852172851562
 20
330.7901611328125
 10
337.7852172851562
 20
330.7122192382812
 10
337.7852172851562
 20
330.48193359375
 10
337.7852172851562
 20
330.1053771972656
 10
337.7852172851562
 20
329.5950622558593
 10
337.7852172851562
 20
328.9670104980468
 10
337.7852172851562
 20
328.2400207519531
 10
337.7852172851562
 20
327.4359130859374
 10
337.7852172851562
 20
326.5797424316406
 10
337.7852172851562
 20
325.7029113769531
  0
LINE
  5
84
330
7B
100
AcDbEntity
  8
0
  6
Continuous
 62
     0
370
    30
100
AcDbLine
 10
337.7852191925049
 20
264.7901672191632
 30
0.0
 11
344.2852133460939
 21
264.7901672191632
 31
0.0
  0
LINE
  5
85
330
7B
100
AcDbEntity
  8
0
  6
Continuous
 62
     0
370
    30
100
AcDbLine
 10
331.2852250389157
 20
264.7901672191632
 30
0.0
 11
337.7852191925049
 21
264.7901672191632
 31
0.0
  0
LINE
  5
86
330
7B
100
AcDbEntity
  8
0
  6
Continuous
 62
     0
370
    30
100
AcDbLine
 10
331.2852250389157
 20
324.7901672291634
 30
0.0
 11
331.2852250389157
 21
264.7901672191632
 31
0.0
  0
LINE
  5
87
330
7B
100
AcDbEntity
  8
0
  6
Continuous
 62
     0
370
    30
100
AcDbLine
 10
344.2852133460939
 20
324.7901672291634
 30
0.0
 11
344.2852133460939
 21
264.7901672191632
 31
0.0
  0
LWPOLYLINE
  5
88
330
7B
100
AcDbEntity
  8
0
  6
Continuous
 62
     0
370
    30
100
AcDbPolyline
 90
       20
 70
     0
 43
0.0
 10
347.0911865234374
 20
332.855224609375
 10
347.0547485351562
 20
332.8378295898437
 10
346.7750244140625
 20
332.6919860839844
 10
346.5041809082031
 20
332.5282287597656
 10
346.2441406249999
 20
332.3477478027343
 10
345.9960327148437
 20
332.1512451171875
 10
345.7608642578124
 20
331.9393615722656
 10
345.5396423339843
 20
331.7129821777343
 10
345.3331604003906
 20
331.4730834960937
 10
345.1422729492187
 20
331.2206115722656
 10
344.9677124023437
 20
330.9565734863281
 10
344.8102722167968
 20
330.6819763183593
 10
344.6704711914062
 20
330.3979797363281
 10
344.5489196777343
 20
330.1057434082031
 10
344.4462280273437
 20
329.8063659667968
 10
344.3627014160156
 20
329.5011291503906
 10
344.2985534667968
 20
329.191162109375
 10
344.2540588378906
 20
328.8777160644531
 10
344.2294311523437
 20
328.5621032714843
 10
344.224853515625
 20
328.2456970214843
  0
LWPOLYLINE
  5
89
330
7B
100
AcDbEntity
  8
0
  6
Continuous
 62
     0
370
    30
100
AcDbPolyline
 90
       20
 70
     0
 43
0.0
 10
328.479248046875
 20
332.855224609375
 10
328.5156860351562
 20
332.8378295898437
 10
328.79541015625
 20
332.6919860839844
 10
329.0662536621093
 20
332.5282287597656
 10
329.3262939453124
 20
332.3477478027343
 10
329.5744323730468
 20
332.1512451171875
 10
329.8095703125
 20
331.9393615722656
 10
330.0307922363281
 20
331.7129821777343
 10
330.2372741699219
 20
331.4730834960937
 10
330.4281616210937
 20
331.2206115722656
 10
330.6027221679687
 20
330.9565734863281
 10
330.7601623535156
 20
330.6819763183593
 10
330.8999633789062
 20
330.3979797363281
 10
331.0215148925781
 20
330.1057434082031
 10
331.1242065429687
 20
329.8063659667968
 10
331.2077331542969
 20
329.5011291503906
 10
331.2718811035156
 20
329.191162109375
 10
331.3163757324218
 20
328.8777160644531
 10
331.3410034179687
 20
328.5621032714843
 10
331.3455810546875
 20
328.2456970214843
  0
LINE
  5
8A
330
7B
100
AcDbEntity
  8
0
  6
Continuous
 62
     0
370
    30
100
AcDbLine
 10
344.2249109760006
 20
328.2452226287129
 30
0.0
 11
344.2852191925048
 21
324.7901672191634
 31
0.0
  0
LINE
  5
8B
330
7B
100
AcDbEntity
  8
0
  6
Continuous
 62
     0
370
    30
100
AcDbLine
 10
331.3455274090091
 20
328.245222628713
 30
0.0
 11
331.2852191925048
 21
324.7901672191634
 31
0.0
  0
ARC
  5
8C
330
7B
100
AcDbEntity
  8
0
  6
Continuous
 62
     0
370
    30
100
AcDbCircle
 10
337.7852191925049
 20
352.7901680589037
 30
0.0
 40
22.5001612101713
100
AcDbArc
 50
289.9975896013196
 51
89.999999999107
  0
ARC
  5
8D
330
7B
100
AcDbEntity
  8
0
  6
Continuous
 62
     0
370
    30
100
AcDbCircle
 10
337.7852191925049
 20
352.7901680589037
 30
0.0
 40
22.5001612101713
100
AcDbArc
 50
90.0
 51
250.0024103977875
  0
LWPOLYLINE
  5
8E
330
7B
100
AcDbEntity
  8
0
  6
Continuous
 62
     0
370
     0
100
AcDbPolyline
 90
       10
 70
     0
 43
0.0
 10
331.2852172851562
 20
324.6233825683593
 10
330.6000366210937
 20
325.1679382324218
 10
329.9791564941406
 20
325.7193603515625
 10
329.4260559082031
 20
326.259765625
 10
328.9445495605468
 20
326.7704162597656
 10
328.5393981933593
 20
327.230712890625
 10
328.2156066894531
 20
327.6197814941406
 10
327.9786376953125
 20
327.9170532226562
 10
327.8339233398437
 20
328.1040039062499
 10
327.7853698730468
 20
328.1673889160156
  0
LWPOLYLINE
  5
8F
330
7B
100
AcDbEntity
  8
0
  6
Continuous
 62
     0
370
     0
100
AcDbPolyline
 90
       10
 70
     0
 43
0.0
 10
347.7851257324218
 20
328.1675109863281
 10
347.7365112304687
 20
328.1039733886718
 10
347.5917663574218
 20
327.9169616699218
 10
347.3548583984375
 20
327.6198425292968
 10
347.0310058593749
 20
327.2306213378906
 10
346.6257934570312
 20
326.7703247070312
 10
346.1443786621093
 20
326.2597961425781
 10
345.5912780761718
 20
325.7193603515625
 10
344.9704284667968
 20
325.16796875
 10
344.2852172851562
 20
324.6233825683593
  0
LINE
  5
90
330
7B
100
AcDbEntity
  8
0
  6
Continuous
 62
     0
370
    30
100
AcDbLine
 10
344.285213346094
 20
317.2901839844247
 30
0.0
 11
347.2852226644354
 21
317.2901839844247
 31
0.0
  0
LINE
  5
91
330
7B
100
AcDbEntity
  8
0
  6
Continuous
 62
     0
370
    30
100
AcDbLine
 10
328.2852157205743
 20
317.2901839844247
 30
0.0
 11
331.2852250389157
 21
317.2901839844247
 31
0.0
  0
LINE
  5
92
330
7B
100
AcDbEntity
  8
0
  6
Continuous
 62
     0
370
     0
100
AcDbLine
 10
344.2852133460938
 20
317.7901839844248
 30
0.0
 11
347.7852226644354
 21
317.7901839844248
 31
0.0
  0
LINE
  5
93
330
7B
100
AcDbEntity
  8
0
  6
Continuous
 62
     0
370
     0
100
AcDbLine
 10
327.7852157205743
 20
317.7901839844248
 30
0.0
 11
331.2852250389158
 21
317.7901839844248
 31
0.0
  0
ARC
  5
94
330
7B
100
AcDbEntity
  8
0
  6
Continuous
 62
     0
370
    30
100
AcDbCircle
 10
328.2852157205743
 20
317.7901839844248
 30
0.0
 40
0.5
100
AcDbArc
 50
180.0000000002232
 51
270.0
  0
ARC
  5
95
330
7B
100
AcDbEntity
  8
0
  6
Continuous
 62
     0
370
    30
100
AcDbCircle
 10
347.2852226644354
 20
317.7901839844248
 30
0.0
 40
0.5
100
AcDbArc
 50
270.0
 51
359.9999999997767
  0
LINE
  5
96
330
7B
100
AcDbEntity
  8
0
  6
Continuous
 62
     0
370
    30
100
AcDbLine
 10
327.7852157205743
 20
328.1673914935674
 30
0.0
 11
327.7852157205743
 21
317.7901839844248
 31
0.0
  0
LINE
  5
97
330
7B
100
AcDbEntity
  8
0
  6
Continuous
 62
     0
370
    30
100
AcDbLine
 10
347.7852226644354
 20
328.1675177001839
 30
0.0
 11
347.7852226644354
 21
317.7901839844247
 31
0.0
  0
LWPOLYLINE
  5
98
330
7B
100
AcDbEntity
  8
0
  6
Continuous
 62
     0
370
    30
100
AcDbPolyline
 90
       37
 70
     0
 43
0.0
 10
347.7851257324218
 20
328.1675109863281
 10
347.7879943847656
 20
328.3821411132812
 10
347.796630859375
 20
328.5966491699218
 10
347.8110046386718
 20
328.8108520507812
 10
347.8311462402343
 20
329.0245971679687
 10
347.8570251464843
 20
329.2377319335937
 10
347.8885803222656
 20
329.4500732421874
 10
347.9258422851562
 20
329.6614685058593
 10
347.96875
 20
329.871826171875
 10
348.0172729492187
 20
330.0809326171874
 10
348.0714111328125
 20
330.2886657714843
 10
348.131103515625
 20
330.4948730468749
 10
348.1962890625
 20
330.6994018554687
 10
348.2669677734374
 20
330.902099609375
 10
348.3430480957031
 20
331.1028442382812
 10
348.4244689941406
 20
331.3014831542968
 10
348.5111999511719
 20
331.4978637695312
 10
348.6031799316406
 20
331.6918334960937
 10
348.7003479003906
 20
331.8832702636719
 10
348.8025817871093
 20
332.072021484375
 10
348.9098510742187
 20
332.2579650878906
 10
349.0220947265624
 20
332.4409790039062
 10
349.1391906738281
 20
332.6209106445312
 10
349.2610778808593
 20
332.7976379394531
 10
349.3876342773437
 20
332.9710083007812
 10
349.5188293457031
 20
333.1409301757812
 10
349.654541015625
 20
333.3072814941406
 10
349.7946472167968
 20
333.4699401855468
 10
349.9390869140625
 20
333.6287536621093
 10
350.0877075195312
 20
333.7836608886718
 10
350.2404479980468
 20
333.9345092773437
 10
350.3971862792969
 20
334.0811767578125
 10
350.5578002929687
 20
334.2236328125
 10
350.7221679687499
 20
334.3617248535156
 10
350.8905334472656
 20
334.4955749511719
 10
351.0361938476562
 20
334.6056213378906
 10
351.0615844726562
 20
334.624267578125
  0
LWPOLYLINE
  5
99
330
7B
100
AcDbEntity
  8
0
  6
Continuous
 62
     0
370
    30
100
AcDbPolyline
 90
       11
 70
     0
 43
0.0
 10
327.7853698730468
 20
328.1673889160156
 10
327.7495422363281
 20
328.923583984375
 10
327.6423950195312
 20
329.6730041503906
 10
327.4649658203125
 20
330.408935546875
 10
327.2187194824218
 20
331.1248168945312
 10
326.9058837890625
 20
331.814208984375
 10
326.5293273925781
 20
332.4709167480468
 10
326.0923461914062
 20
333.0891113281249
 10
325.5989074707031
 20
333.6632385253906
 10
325.0533752441406
 20
334.1881713867187
 10
324.5070190429687
 20
334.6255493164062
  0
LINE
  5
9A
330
7B
100
AcDbEntity
  8
0
  6
Continuous
 62
     0
370
     0
100
AcDbLine
 10
327.7852191925048
 20
175.4698761772522
 30
0.0
 11
347.7852191925048
 21
175.4698761772522
 31
0.0
  0
LINE
  5
9B
330
7B
100
AcDbEntity
  8
0
  6
Continuous
 62
     0
370
    30
100
AcDbLine
 10
327.7852191925048
 20
175.4698761772522
 30
0.0
 11
327.7852191925048
 21
152.9532156105865
 31
0.0
  0
ELLIPSE
  5
9C
330
7B
100
AcDbEntity
  8
0
  6
Continuous
 62
     0
370
     0
100
AcDbEllipse
 10
337.7852191925049
 20
152.9532156105865
 30
0.0
 11
-10.0
 21
0.0
 31
0.0
210
0.0
220
0.0
230
1.0
 40
0.8660254256401312
 41
6.283185307179586
 42
9.424777960769379
  0
ELLIPSE
  5
9D
330
7B
100
AcDbEntity
  8
0
  6
Continuous
 62
     0
370
    30
100
AcDbEllipse
 10
337.7852191925049
 20
142.9520665459715
 30
0.0
 11
-10.0
 21
0.0
 31
0.0
210
0.0
220
0.0
230
1.0
 40
0.8660254256401312
 41
6.283185307179586
 42
9.424777960769379
  0
LINE
  5
9E
330
7B
100
AcDbEntity
  8
0
  6
Continuous
 62
     0
370
    30
100
AcDbLine
 10
327.7852191925048
 20
152.9532156105865
 30
0.0
 11
327.7852191925048
 21
142.9520665459715
 31
0.0
  0
LINE
  5
9F
330
7B
100
AcDbEntity
  8
0
  6
Continuous
 62
     0
370
     0
100
AcDbLine
 10
344.2852133460937
 20
316.7901839844247
 30
0.0
 11
347.7852191925048
 21
316.7901839844247
 31
0.0
  0
LINE
  5
A0
330
7B
100
AcDbEntity
  8
0
  6
Continuous
 62
     0
370
     0
100
AcDbLine
 10
327.7852191925048
 20
316.7901839844247
 30
0.0
 11
331.2852250389159
 21
316.7901839844247
 31
0.0
  0
LINE
  5
A1
330
7B
100
AcDbEntity
  8
0
  6
Continuous
 62
     0
370
    30
100
AcDbLine
 10
327.7852191925048
 20
316.7901839844247
 30
0.0
 11
327.7852191925048
 21
175.4698761772521
 31
0.0
  0
ARC
  5
A2
330
7B
100
AcDbEntity
  8
0
  6
Continuous
 62
     0
370
    30
100
AcDbCircle
 10
328.2852191925048
 20
316.7901839844247
 30
0.0
 40
0.5
100
AcDbArc
 50
90.00000000022325
 51
180.0
  0
ARC
  5
A3
330
7B
100
AcDbEntity
  8
0
  6
Continuous
 62
     0
370
    30
100
AcDbCircle
 10
347.2852191925048
 20
316.7901839844247
 30
0.0
 40
0.5
100
AcDbArc
 50
0.0
 51
89.99999999977674
  0
LINE
  5
A4
330
7B
100
AcDbEntity
  8
0
  6
Continuous
 62
     0
370
    30
100
AcDbLine
 10
347.7852191925048
 20
316.7901839844247
 30
0.0
 11
347.7852191925048
 21
175.4698761772521
 31
0.0
  0
LINE
  5
A5
330
7B
100
AcDbEntity
  8
0
  6
Continuous
 62
     0
370
    30
100
AcDbLine
 10
347.7852191925048
 20
152.9532156105865
 30
0.0
 11
347.7852191925048
 21
142.9520665459715
 31
0.0
  0
LINE
  5
A6
330
7B
100
AcDbEntity
  8
0
  6
Continuous
 62
     0
370
    30
100
AcDbLine
 10
347.7852191925048
 20
175.4698761772522
 30
0.0
 11
347.7852191925048
 21
152.9532156105865
 31
0.0
  0
ENDBLK
  5
A8
330
7B
100
AcDbEntity
  8
0
100
AcDbBlockEnd
  0
BLOCK
  5
EB
330
AA
100
AcDbEntity
  8
0
100
AcDbBlockBegin
  2
c
 70
     0
 10
232.0096130371093
 20
72.24788665771484
 30
0.0
  3
c
  1

  0
LINE
  5
AB
330
AA
100
AcDbEntity
  8
0
  6
Continuous
 62
     0
370
    30
100
AcDbLine
 10
623.9570407866351
 20
492.2065548896789
 30
0.0
 11
623.9570407866351
 21
496.2065548896625
 31
0.0
  0
LINE
  5
AC
330
AA
100
AcDbEntity
  8
0
  6
Continuous
 62
     0
370
    30
100
AcDbLine
 10
569.9570407868525
 20
492.2065548896789
 30
0.0
 11
623.9570407866351
 21
492.2065548896789
 31
0.0
  0
LINE
  5
AD
330
AA
100
AcDbEntity
  8
0
  6
Continuous
 62
     0
370
    30
100
AcDbLine
 10
569.9570407868525
 20
496.2065548896625
 30
0.0
 11
623.9570407866351
 21
496.2065548896625
 31
0.0
  0
LINE
  5
AE
330
AA
100
AcDbEntity
  8
0
  6
Continuous
 62
     0
370
    30
100
AcDbLine
 10
569.9570407868525
 20
492.2065548896789
 30
0.0
 11
569.9570407868525
 21
496.2065548896625
 31
0.0
  0
LINE
  5
AF
330
AA
100
AcDbEntity
  8
0
  6
Continuous
 62
     0
370
    30
100
AcDbLine
 10
597.4863565876437
 20
773.3175662203475
 30
0.0
 11
618.9570407867438
 21
773.3175662203475
 31
0.0
  0
LINE
  5
B0
330
AA
100
AcDbEntity
  8
0
  6
Continuous
 62
     0
370
    30
100
AcDbLine
 10
574.9570407867438
 20
804.3175662203477
 30
0.0
 11
618.9570407867438
 21
804.3175662203477
 31
0.0
  0
LINE
  5
B1
330
AA
100
AcDbEntity
  8
0
  6
Continuous
 62
     0
370
    30
100
AcDbLine
 10
574.9570407867438
 20
781.5176713594809
 30
0.0
 11
597.4863565876439
 21
773.3175662203477
 31
0.0
  0
LINE
  5
B2
330
AA
100
AcDbEntity
  8
0
  6
Continuous
 62
     0
370
    30
100
AcDbLine
 10
618.9570407867438
 20
773.3175662203475
 30
0.0
 11
618.9570407867438
 21
777.8342596450563
 31
0.0
  0
LWPOLYLINE
  5
B3
330
AA
100
AcDbEntity
  8
0
  6
Continuous
 62
     0
370
     0
100
AcDbPolyline
 90
       32
 70
     0
 43
0.0
 10
618.9570312499999
 20
777.8342895507813
 10
618.931396484375
 20
777.9105224609375
 10
618.8563842773437
 20
778.1309814453124
 10
618.737548828125
 20
778.4877319335937
 10
618.5829467773437
 20
778.9688720703125
 10
618.40185546875
 20
779.5573120117187
 10
618.2037353515625
 20
780.2385253906249
 10
617.99755859375
 20
780.9990234375
 10
617.79150390625
 20
781.8277587890625
 10
617.593017578125
 20
782.7145385742187
 10
617.4091186523437
 20
783.6494750976562
 10
617.2457275390625
 20
784.6246948242187
 10
617.108154296875
 20
785.6328125
 10
617.0009155273437
 20
786.66650390625
 10
616.9273071289062
 20
787.718505859375
 10
616.889892578125
 20
788.7815551757812
 10
616.8897705078125
 20
789.8483276367187
 10
616.9270629882812
 20
790.9113769531249
 10
617.0004272460937
 20
791.9634399414062
 10
617.1075439453125
 20
792.9972534179687
 10
617.2449951171874
 20
794.0054931640625
 10
617.4082641601562
 20
794.98095703125
 10
617.5920410156249
 20
795.916015625
 10
617.7904052734374
 20
796.8027954101562
 10
617.9965820312499
 20
797.6323852539062
 10
618.2032470703124
 20
798.3947143554687
 10
618.4016723632812
 20
799.0770263671874
 10
618.5828857421874
 20
799.6658325195312
 10
618.7374267578125
 20
800.1468505859374
 10
618.8562622070312
 20
800.5046997070312
 10
618.9313354492187
 20
800.7257690429687
 10
618.9570312499999
 20
800.8008422851562
  0
LINE
  5
B4
330
AA
100
AcDbEntity
  8
0
  6
Continuous
 62
     0
370
    30
100
AcDbLine
 10
618.9570407867438
 20
800.800872795639
 30
0.0
 11
618.9570407867438
 21
804.3175662203477
 31
0.0
  0
LINE
  5
B5
330
AA
100
AcDbEntity
  8
0
  6
Continuous
 62
     0
370
    30
100
AcDbLine
 10
624.0443028189303
 20
795.8016343198569
 30
0.0
 11
624.9570407867438
 21
795.8175662203476
 31
0.0
  0
LINE
  5
B6
330
AA
100
AcDbEntity
  8
0
  6
Continuous
 62
     0
370
     0
100
AcDbLine
 10
624.9570407867438
 20
795.8175662203476
 30
0.0
 11
624.9570407867439
 21
782.8175662203475
 31
0.0
  0
LWPOLYLINE
  5
B7
330
AA
100
AcDbEntity
  8
0
  6
Continuous
 62
     0
370
     0
100
AcDbPolyline
 90
       25
 70
     0
 43
0.0
 10
624.0443115234374
 20
782.83349609375
 10
624.0001831054687
 20
782.8934936523437
 10
623.87109375
 20
783.0696411132812
 10
623.6702880859374
 20
783.353271484375
 10
623.4131469726563
 20
783.7336425781249
 10
623.11767578125
 20
784.199951171875
 10
622.8014526367187
 20
784.7437744140624
 10
622.4819946289062
 20
785.3593139648437
 10
622.1773071289062
 20
786.0424804687499
 10
621.9067993164062
 20
786.7891845703125
 10
621.6911010742187
 20
787.5916748046875
 10
621.5512084960937
 20
788.4416503906249
 10
621.5017700195312
 20
789.3175659179687
 10
621.5511474609375
 20
790.1935424804687
 10
621.6911010742187
 20
791.0435180664062
 10
621.9068603515625
 20
791.845947265625
 10
622.1774291992187
 20
792.5926513671875
 10
622.4820556640625
 20
793.2758178710937
 10
622.801513671875
 20
793.891357421875
 10
623.1177368164062
 20
794.4352416992187
 10
623.4132690429687
 20
794.9014892578125
 10
623.67041015625
 20
795.2818603515624
 10
623.871337890625
 20
795.5654907226562
 10
624.0003051757812
 20
795.7416381835937
 10
624.0443115234374
 20
795.8016357421874
  0
ARC
  5
B8
330
AA
100
AcDbEntity
  8
0
  6
Continuous
 62
     0
370
    30
100
AcDbCircle
 10
623.9570407867444
 20
800.8008727956392
 30
0.0
 40
5.000000000000458
100
AcDbArc
 50
180.0000000000045
 51
270.9999999997634
  0
ARC
  5
B9
330
AA
100
AcDbEntity
  8
0
  6
Continuous
 62
     0
370
    30
100
AcDbCircle
 10
623.9570407867461
 20
777.8342596450545
 30
0.0
 40
5.000000000002089
100
AcDbArc
 50
89.00000000003068
 51
179.9999999997534
  0
LINE
  5
BA
330
AA
100
AcDbEntity
  8
0
  6
Continuous
 62
     0
370
    30
100
AcDbLine
 10
684.9570407867438
 20
782.8175720667586
 30
0.0
 11
684.9570407867438
 21
795.8175603739369
 31
0.0
  0
LINE
  5
BB
330
AA
100
AcDbEntity
  8
0
  6
Continuous
 62
     0
370
    30
100
AcDbLine
 10
684.9570407867438
 20
795.8175603739369
 30
0.0
 11
624.9570407867436
 21
795.8175603739369
 31
0.0
  0
ARC
  5
BC
330
AA
100
AcDbEntity
  8
0
  6
Continuous
 62
     0
370
    30
100
AcDbCircle
 10
596.9567430127767
 20
770.606498491341
 30
0.0
 40
20.505434437459
100
AcDbArc
 50
4.195151874677707
 51
7.597443201497097
  0
ARC
  5
BD
330
AA
100
AcDbEntity
  8
0
  6
Continuous
 62
     0
370
    30
100
AcDbCircle
 10
596.9568773082825
 20
770.6065745227142
 30
0.0
 40
20.50496885893674
100
AcDbArc
 50
152.3544541700956
 51
175.8049657216762
  0
LINE
  5
BE
330
AA
100
AcDbEntity
  8
0
  6
Continuous
 62
     0
370
    30
100
AcDbLine
 10
624.9570407767436
 20
782.8175720667585
 30
0.0
 11
684.9570407867438
 21
782.8175720667585
 31
0.0
  0
LINE
  5
BF
330
AA
100
AcDbEntity
  8
0
  6
Continuous
 62
     0
370
    30
100
AcDbLine
 10
624.0443028189302
 20
782.8334981208382
 30
0.0
 11
624.9570407867438
 21
782.8175662203476
 31
0.0
  0
LINE
  5
C0
330
AA
100
AcDbEntity
  8
0
  6
Continuous
 62
     0
370
    30
100
AcDbLine
 10
574.9570407867438
 20
781.5177672786679
 30
0.0
 11
574.9570407867438
 21
804.3175662203477
 31
0.0
  0
LINE
  5
C1
330
AA
100
AcDbEntity
  8
0
  6
Continuous
 62
     0
370
     0
100
AcDbLine
 10
574.4571844493632
 20
675.7065684642492
 30
0.0
 11
619.4569829686343
 21
675.7065684642492
 31
0.0
  0
LINE
  5
C2
330
AA
100
AcDbEntity
  8
0
  6
Continuous
 62
     0
370
    30
100
AcDbLine
 10
619.457039926149
 20
496.2065548896631
 30
0.0
 11
619.4569829686343
 21
675.7065684642492
 31
0.0
  0
ARC
  5
C3
330
AA
100
AcDbEntity
  8
0
  6
Continuous
 62
     0
370
    30
100
AcDbCircle
 10
618.9569829686343
 20
675.7065683055932
 30
0.0
 40
0.4999999999999871
100
AcDbArc
 50
0.0000181808625167
 51
90.00003636128132
  0
ARC
  5
C4
330
AA
100
AcDbEntity
  8
0
  6
Continuous
 62
     0
370
    30
100
AcDbCircle
 10
574.9571898821776
 20
675.706562822415
 30
0.0
 40
0.5000054841954701
100
AcDbArc
 50
90.00981044268993
 51
179.9993535002935
  0
LINE
  5
C5
330
AA
100
AcDbEntity
  8
0
  6
Continuous
 62
     0
370
    30
100
AcDbLine
 10
574.4570416473386
 20
496.2065548896631
 30
0.0
 11
574.4570986048533
 21
675.7065684642491
 31
0.0
  0
LINE
  5
C6
330
AA
100
AcDbEntity
  8
0
  6
Continuous
 62
     0
370
    30
100
AcDbLine
 10
576.3570407867437
 20
772.1065491123842
 30
0.0
 11
617.5570407867438
 21
772.1065491123842
 31
0.0
  0
LINE
  5
C7
330
AA
100
AcDbEntity
  8
0
  6
Continuous
 62
     0
370
    30
100
AcDbLine
 10
617.5570407867438
 20
770.1065491123838
 30
0.0
 11
617.5570407867438
 21
772.106549112384
 31
0.0
  0
LINE
  5
C8
330
AA
100
AcDbEntity
  8
0
  6
Continuous
 62
     0
370
    30
100
AcDbLine
 10
576.3570407867437
 20
770.1065491123845
 30
0.0
 11
576.3570407867437
 21
772.1065491123843
 31
0.0
  0
LINE
  5
C9
330
AA
100
AcDbEntity
  8
0
  6
Continuous
 62
     0
370
    30
100
AcDbLine
 10
574.4568795765724
 20
770.1065491123845
 30
0.0
 11
619.457201996915
 21
770.1065491123838
 31
0.0
  0
LWPOLYLINE
  5
CA
330
AA
100
AcDbEntity
  8
0
  6
Continuous
 62
     0
370
     0
100
AcDbPolyline
 90
       37
 70
     0
 43
0.0
 10
619.4570922851562
 20
751.7064819335937
 10
619.4258422851562
 20
751.634521484375
 10
619.3328857421875
 20
751.4196166992187
 10
619.1815795898437
 20
751.0660400390625
 10
618.9766235351562
 20
750.5792846679687
 10
618.7244262695312
 20
749.9668579101562
 10
618.4321289062499
 20
749.236328125
 10
618.1078491210937
 20
748.3956298828124
 10
617.7598266601562
 20
747.4521484374999
 10
617.3969116210937
 20
746.4123535156249
 10
617.0281982421875
 20
745.2821655273437
 10
616.6634521484374
 20
744.0667114257812
 10
616.3128051757812
 20
742.7708129882812
 10
615.9869995117187
 20
741.3996582031249
 10
615.6975708007812
 20
739.9591064453125
 10
615.4560546875
 20
738.4570922851562
 10
615.2736206054687
 20
736.9044189453124
 10
615.1598510742187
 20
735.3151245117187
 10
615.1213989257812
 20
733.7064819335937
 10
615.1597900390624
 20
732.0979614257812
 10
615.273681640625
 20
730.5088500976562
 10
615.4560546875
 20
728.9559936523438
 10
615.6976318359375
 20
727.4541625976562
 10
615.9869995117187
 20
726.0134887695312
 10
616.312744140625
 20
724.6423950195312
 10
616.6634521484374
 20
723.346435546875
 10
617.0281982421875
 20
722.1309814453125
 10
617.3968505859375
 20
721.0007934570312
 10
617.759765625
 20
719.9609375
 10
618.1077880859374
 20
719.0173950195312
 10
618.4321289062499
 20
718.1768188476562
 10
618.724365234375
 20
717.4463500976562
 10
618.9766235351562
 20
716.8338623046874
 10
619.1815185546874
 20
716.3472290039062
 10
619.3329467773438
 20
715.9934692382812
 10
619.42578125
 20
715.7787475585937
 10
619.4571533203125
 20
715.7066040039062
  0
LWPOLYLINE
  5
CB
330
AA
100
AcDbEntity
  8
0
  6
Continuous
 62
     0
370
     0
100
AcDbPolyline
 90
       32
 70
     0
 43
0.0
 10
627.4570922851562
 20
743.70654296875
 10
627.3999023437499
 20
743.652587890625
 10
627.2308959960938
 20
743.4920654296875
 10
626.9577026367187
 20
743.2288208007812
 10
626.5919799804687
 20
742.8685302734375
 10
626.1480712890625
 20
742.4176635742187
 10
625.642822265625
 20
741.8831176757812
 10
625.0936889648437
 20
741.2713623046875
 10
624.5194702148437
 20
740.588134765625
 10
623.9398193359375
 20
739.8382568359375
 10
623.3755493164062
 20
739.0260009765625
 10
622.8489990234375
 20
738.1558227539062
 10
622.3843383789062
 20
737.23291015625
 10
622.0057983398437
 20
736.263427734375
 10
621.7369384765625
 20
735.2568969726562
 10
621.597412109375
 20
734.2261352539062
 10
621.5972900390625
 20
733.1869506835937
 10
621.737060546875
 20
732.1563110351562
 10
622.0057983398437
 20
731.1497192382812
 10
622.3843994140625
 20
730.1802978515625
 10
622.84912109375
 20
729.2571411132812
 10
623.3755493164062
 20
728.3870849609375
 10
623.9398193359375
 20
727.574951171875
 10
624.5194702148437
 20
726.8250732421875
 10
625.0936889648437
 20
726.1417236328124
 10
625.6427612304687
 20
725.5299682617187
 10
626.1480712890625
 20
724.9954833984375
 10
626.5919189453125
 20
724.5446166992187
 10
626.9576416015625
 20
724.184326171875
 10
627.2308959960938
 20
723.9210205078125
 10
627.3998413085937
 20
723.7605590820312
 10
627.4571533203125
 20
723.70654296875
  0
ARC
  5
CC
330
AA
100
AcDbEntity
  8
0
  6
Continuous
 62
     0
370
    30
100
AcDbCircle
 10
627.4571674733793
 20
715.7065708700829
 30
0.0
 40
7.999999999999998
100
AcDbArc
 50
90.00000000022325
 51
179.9999636387174
  0
LINE
  5
CD
330
AA
100
AcDbEntity
  8
0
  6
Continuous
 62
     0
370
    30
100
AcDbLine
 10
574.9569388504483
 20
676.206568622902
 30
0.0
 11
618.9571427230363
 21
676.2065686229012
 31
0.0
  0
LINE
  5
CE
330
AA
100
AcDbEntity
  8
0
  6
Continuous
 62
     0
370
     0
100
AcDbLine
 10
574.4569388504485
 20
676.7065683055899
 30
0.0
 11
619.4571427230362
 21
676.7065683055892
 31
0.0
  0
LINE
  5
CF
330
AA
100
AcDbEntity
  8
0
  6
Continuous
 62
     0
370
    30
100
AcDbLine
 10
574.4568795765724
 20
770.1065491123845
 30
0.0
 11
574.4569388504485
 21
676.70656830559
 31
0.0
  0
ARC
  5
D0
330
AA
100
AcDbEntity
  8
0
  6
Continuous
 62
     0
370
    30
100
AcDbCircle
 10
574.9569388504483
 20
676.7065686229019
 30
0.0
 40
0.4999999999999716
100
AcDbArc
 50
180.0000363615017
 51
269.9999999999992
  0
LINE
  5
D1
330
AA
100
AcDbEntity
  8
0
  6
Continuous
 62
     0
370
    30
100
AcDbLine
 10
632.4570264523161
 20
724.2065708700829
 30
0.0
 11
632.4570264523161
 21
743.206577813944
 31
0.0
  0
LINE
  5
D2
330
AA
100
AcDbEntity
  8
0
  6
Continuous
 62
     0
370
     0
100
AcDbLine
 10
631.9570264523161
 20
723.7065708700829
 30
0.0
 11
631.9570264523161
 21
743.706577813944
 31
0.0
  0
LINE
  5
D3
330
AA
100
AcDbEntity
  8
0
  6
Continuous
 62
     0
370
    30
100
AcDbLine
 10
627.4571674733793
 20
723.7065708700829
 30
0.0
 11
631.9570264523159
 21
723.7065708700829
 31
0.0
  0
ARC
  5
D4
330
AA
100
AcDbEntity
  8
0
  6
Continuous
 62
     0
370
    30
100
AcDbCircle
 10
631.9570264523161
 20
724.2065708700829
 30
0.0
 40
0.5
100
AcDbArc
 50
270.0000000002232
 51
0.0
  0
ARC
  5
D5
330
AA
100
AcDbEntity
  8
0
  6
Continuous
 62
     0
370
    30
100
AcDbCircle
 10
631.9570264523161
 20
743.206577813944
 30
0.0
 40
0.5
100
AcDbArc
 50
0.0000000000000064
 51
89.99999999977676
  0
LINE
  5
D6
330
AA
100
AcDbEntity
  8
0
  6
Continuous
 62
     0
370
    30
100
AcDbLine
 10
627.4570842467698
 20
743.706577813944
 30
0.0
 11
631.9570264523159
 21
743.706577813944
 31
0.0
  0
ARC
  5
D7
330
AA
100
AcDbEntity
  8
0
  6
Continuous
 62
     0
370
    30
100
AcDbCircle
 10
618.9571427230363
 20
676.7065686229013
 30
0.0
 40
0.5000000000000285
100
AcDbArc
 50
269.9999999999992
 51
359.9999636384982
  0
LINE
  5
D8
330
AA
100
AcDbEntity
  8
0
  6
Continuous
 62
     0
370
    30
100
AcDbLine
 10
619.457201996915
 20
770.1065491123838
 30
0.0
 11
619.4571903197897
 21
751.7064832559783
 31
0.0
  0
LINE
  5
D9
330
AA
100
AcDbEntity
  8
0
  6
Continuous
 62
     0
370
    30
100
AcDbLine
 10
619.4571674733809
 20
715.7065759470758
 30
0.0
 11
619.4571427230362
 21
676.7065683055894
 31
0.0
  0
ARC
  5
DA
330
AA
100
AcDbEntity
  8
0
  6
Continuous
 62
     0
370
    30
100
AcDbCircle
 10
627.4570831631923
 20
751.7064934241327
 30
0.0
 40
7.999970997866105
100
AcDbArc
 50
180.0000727415009
 51
270.0000082511715
  0
LINE
  5
DB
330
AA
100
AcDbEntity
  8
0
  6
Continuous
 62
     0
370
     0
100
AcDbLine
 10
774.2773345043032
 20
723.706577813984
 30
0.0
 11
774.2773342594885
 21
733.706577813984
 31
0.0
  0
LINE
  5
DC
330
AA
100
AcDbEntity
  8
0
  6
Continuous
 62
     0
370
     0
100
AcDbLine
 10
774.2773342594885
 20
733.706577813984
 30
0.0
 11
774.2773340146738
 21
743.706577813984
 31
0.0
  0
LINE
  5
DD
330
AA
100
AcDbEntity
  8
0
  6
Continuous
 62
     0
370
     0
100
AcDbLine
 10
788.1337413565577
 20
715.7065778139841
 30
0.0
 11
796.7939957222376
 21
720.70657800326
 31
0.0
  0
LINE
  5
DE
330
AA
100
AcDbEntity
  8
0
  6
Continuous
 62
     0
370
     0
100
AcDbLine
 10
796.7939957222376
 20
720.70657800326
 30
0.0
 11
805.4542494322465
 21
725.7065778139841
 31
0.0
  0
LINE
  5
DF
330
AA
100
AcDbEntity
  8
0
  6
Continuous
 62
     0
370
    30
100
AcDbLine
 10
798.1348911783633
 20
698.3840781885085
 30
0.0
 11
806.7951455440432
 21
703.3840783777844
 31
0.0
  0
LINE
  5
E0
330
AA
100
AcDbEntity
  8
0
  6
Continuous
 62
     0
370
    30
100
AcDbLine
 10
806.7951455440432
 20
703.3840783777844
 30
0.0
 11
815.455399254052
 21
708.3840781885085
 31
0.0
  0
LINE
  5
E1
330
AA
100
AcDbEntity
  8
0
  6
Continuous
 62
     0
370
     0
100
AcDbLine
 10
632.9570266971308
 20
723.7065743542542
 30
0.0
 11
632.9570264523161
 21
733.7065743542543
 31
0.0
  0
LINE
  5
E2
330
AA
100
AcDbEntity
  8
0
  6
Continuous
 62
     0
370
     0
100
AcDbLine
 10
632.9570264523161
 20
733.7065743542543
 30
0.0
 11
632.9570262075013
 21
743.7065743542542
 31
0.0
  0
ARC
  5
E3
330
AA
100
AcDbEntity
  8
0
  6
Continuous
 62
     0
370
    30
100
AcDbCircle
 10
632.957026219742
 20
743.2065743542542
 30
0.0
 40
0.5000000000000001
100
AcDbArc
 50
90.00000140268548
 51
180.000001402463
  0
ARC
  5
E4
330
AA
100
AcDbEntity
  8
0
  6
Continuous
 62
     0
370
    30
100
AcDbCircle
 10
632.95702668489
 20
724.2065743542542
 30
0.0
 40
0.5000000000000001
100
AcDbArc
 50
180.0000014029095
 51
270.0000014026854
  0
LINE
  5
E5
330
AA
100
AcDbEntity
  8
0
  6
Continuous
 62
     0
370
    30
100
AcDbLine
 10
632.9570262075012
 20
743.7065743542542
 30
0.0
 11
774.2773340146737
 21
743.7065778139841
 31
0.0
  0
LINE
  5
E6
330
AA
100
AcDbEntity
  8
0
  6
Continuous
 62
     0
370
    30
100
AcDbLine
 10
632.9570266971309
 20
723.7065743542542
 30
0.0
 11
774.2773345043033
 21
723.7065778139841
 31
0.0
  0
LINE
  5
E7
330
AA
100
AcDbEntity
  8
0
  6
Continuous
 62
     0
370
    30
100
AcDbLine
 10
805.4542494322465
 20
725.7065778139843
 30
0.0
 11
815.4553992540522
 21
708.3840781885086
 31
0.0
  0
LINE
  5
E8
330
AA
100
AcDbEntity
  8
0
  6
Continuous
 62
     0
370
    30
100
AcDbLine
 10
788.1337413565578
 20
715.7065778139841
 30
0.0
 11
798.1348911783634
 21
698.3840781885085
 31
0.0
  0
ARC
  5
E9
330
AA
100
AcDbEntity
  8
0
  6
Continuous
 62
     0
370
    30
100
AcDbCircle
 10
774.2773348960067
 20
707.706577813984
 30
0.0
 40
36.0
100
AcDbArc
 50
30.00000000014894
 51
90.00000140268531
  0
ARC
  5
EA
330
AA
100
AcDbEntity
  8
0
  6
Continuous
 62
     0
370
    30
100
AcDbCircle
 10
774.2773348960067
 20
707.706577813984
 30
0.0
 40
16.0
100
AcDbArc
 50
30.00000000014892
 51
90.00000140268527
  0
ENDBLK
  5
EC
330
AA
100
AcDbEntity
  8
0
100
AcDbBlockEnd
  0
BLOCK
  5
12C
330
EE
100
AcDbEntity
  8
0
100
AcDbBlockBegin
  2
d
 70
     0
 10
166.2269287109374
 20
-0.0000152587890625
 30
0.0
  3
d
  1

  0
LINE
  5
EF
330
EE
100
AcDbEntity
  8
0
  6
Continuous
 62
     0
370
    30
100
AcDbLine
 10
63.66778564463929
 20
492.2065472602844
 30
0.0
 11
63.66778564463929
 21
496.206547260268
 31
0.0
  0
LINE
  5
F0
330
EE
100
AcDbEntity
  8
0
  6
Continuous
 62
     0
370
    30
100
AcDbLine
 10
63.66778564463927
 20
492.2065472602844
 30
0.0
 11
117.6677856444218
 21
492.2065472602844
 31
0.0
  0
LINE
  5
F1
330
EE
100
AcDbEntity
  8
0
  6
Continuous
 62
     0
370
    30
100
AcDbLine
 10
63.66778564463928
 20
496.206547260268
 30
0.0
 11
117.6677856444218
 21
496.206547260268
 31
0.0
  0
LINE
  5
F2
330
EE
100
AcDbEntity
  8
0
  6
Continuous
 62
     0
370
    30
100
AcDbLine
 10
117.6677856444218
 20
492.2065472602844
 30
0.0
 11
117.6677856444218
 21
496.206547260268
 31
0.0
  0
LWPOLYLINE
  5
F3
330
EE
100
AcDbEntity
  8
0
  6
Continuous
 62
     0
370
    30
100
AcDbPolyline
 90
       20
 70
     0
 43
0.0
 10
68.66778564453125
 20
773.3175659179687
 10
68.72899627685547
 20
773.3175659179687
 10
68.91915893554688
 20
773.3175659179687
 10
69.24686431884765
 20
773.3175659179687
 10
69.71876525878906
 20
773.3175659179687
 10
70.33902740478516
 20
773.3175659179687
 10
71.10896301269531
 20
773.3175659179687
 10
72.0267105102539
 20
773.3175659179687
 10
73.08705902099609
 20
773.3175659179687
 10
74.28146362304687
 20
773.3175659179687
 10
75.59825897216796
 20
773.3175659179687
 10
77.02297210693359
 20
773.3175659179687
 10
78.53890991210938
 20
773.3175659179687
 10
80.12776184082031
 20
773.3175659179687
 10
81.77031707763672
 20
773.3175659179687
 10
83.44718170166016
 20
773.3175659179687
 10
85.13945007324219
 20
773.3175659179687
 10
86.82929229736329
 20
773.3175659179687
 10
88.50042724609375
 20
773.3175659179687
 10
90.13847351074218
 20
773.3175659179687
  0
LWPOLYLINE
  5
F4
330
EE
100
AcDbEntity
  8
0
  6
Continuous
 62
     0
370
    30
100
AcDbPolyline
 90
       39
 70
     0
 43
0.0
 10
68.66778564453125
 20
804.3175659179688
 10
68.73056030273438
 20
804.3175659179688
 10
68.92578887939453
 20
804.3175659179688
 10
69.26258850097656
 20
804.3175659179688
 10
69.7480239868164
 20
804.3175659179688
 10
70.38656616210937
 20
804.3175659179688
 10
71.17961120605468
 20
804.3175659179688
 10
72.12519836425781
 20
804.3175659179688
 10
73.21778106689453
 20
804.3175659179688
 10
74.44825744628906
 20
804.3175659179688
 10
75.80416870117187
 20
804.3175659179688
 10
77.2701187133789
 20
804.3175659179688
 10
78.82833862304687
 20
804.3175659179688
 10
80.45940399169921
 20
804.3175659179688
 10
82.14299774169921
 20
804.3175659179688
 10
83.85869598388671
 20
804.3175659179688
 10
85.58667755126952
 20
804.3175659179688
 10
87.30839538574219
 20
804.3175659179688
 10
89.00701141357421
 20
804.3175659179688
 10
90.66778564453125
 20
804.3175659179688
 10
92.32855987548829
 20
804.3175659179688
 10
94.02717590332031
 20
804.3175659179688
 10
95.74888610839844
 20
804.3175659179688
 10
97.47687530517579
 20
804.3175659179688
 10
99.19257354736329
 20
804.3175659179688
 10
100.8761672973632
 20
804.3175659179688
 10
102.507225036621
 20
804.3175659179688
 10
104.065444946289
 20
804.3175659179688
 10
105.5313949584961
 20
804.3175659179688
 10
106.8873138427734
 20
804.3175659179688
 10
108.1177902221679
 20
804.3175659179688
 10
109.2103729248046
 20
804.3175659179688
 10
110.1559600830078
 20
804.3175659179688
 10
110.9490051269531
 20
804.3175659179688
 10
111.5875396728515
 20
804.3175659179688
 10
112.0729827880859
 20
804.3175659179688
 10
112.4097824096679
 20
804.3175659179688
 10
112.6050109863281
 20
804.3175659179688
 10
112.6677856445312
 20
804.3175659179688
  0
LINE
  5
F5
330
EE
100
AcDbEntity
  8
0
  6
Continuous
 62
     0
370
    30
100
AcDbLine
 10
90.13846984363048
 20
773.3175585909531
 30
0.0
 11
112.6677856445305
 21
781.5176637300863
 31
0.0
  0
LINE
  5
F6
330
EE
100
AcDbEntity
  8
0
  6
Continuous
 62
     0
370
    30
100
AcDbLine
 10
68.66778564453063
 20
773.3175585909529
 30
0.0
 11
68.66778564453063
 21
777.8342520156618
 31
0.0
  0
LINE
  5
F7
330
EE
100
AcDbEntity
  8
0
  6
Continuous
 62
     0
370
    30
100
AcDbLine
 10
68.66778564453063
 20
800.8008651662445
 30
0.0
 11
68.66778564453063
 21
804.3175585909532
 31
0.0
  0
LWPOLYLINE
  5
F8
330
EE
100
AcDbEntity
  8
0
  6
Continuous
 62
     0
370
     0
100
AcDbPolyline
 90
       32
 70
     0
 43
0.0
 10
68.66778564453125
 20
800.8008422851562
 10
68.6934585571289
 20
800.724609375
 10
68.76847076416016
 20
800.504150390625
 10
68.88727569580078
 20
800.1473999023437
 10
69.04186248779296
 20
799.666259765625
 10
69.22297668457031
 20
799.0778198242187
 10
69.42106628417969
 20
798.3966064453125
 10
69.62724304199219
 20
797.6361083984374
 10
69.83332061767578
 20
796.8073120117187
 10
70.03182983398438
 20
795.9205932617187
 10
70.21573638916016
 20
794.985595703125
 10
70.37909698486328
 20
794.0104370117187
 10
70.51664733886719
 20
793.0023193359375
 10
70.62393188476562
 20
791.9686279296874
 10
70.697509765625
 20
790.9166259765624
 10
70.73495483398438
 20
789.8535766601562
 10
70.73505401611328
 20
788.7868041992187
 10
70.69779205322266
 20
787.7237548828125
 10
70.62438201904297
 20
786.6716918945312
 10
70.51725769042969
 20
785.6378784179687
 10
70.37984466552734
 20
784.629638671875
 10
70.21656036376953
 20
783.6541748046875
 10
70.03276824951171
 20
782.7191162109374
 10
69.83442687988281
 20
781.8323364257812
 10
69.62825012207031
 20
781.0027465820312
 10
69.42157745361328
 20
780.2404174804687
 10
69.22314453125
 20
779.55810546875
 10
69.04196166992187
 20
778.96923828125
 10
68.88739013671875
 20
778.48828125
 10
68.76856994628906
 20
778.13037109375
 10
68.69350433349609
 20
777.9093627929687
 10
68.66778564453125
 20
777.834228515625
  0
LINE
  5
F9
330
EE
100
AcDbEntity
  8
0
  6
Continuous
 62
     0
370
    30
100
AcDbLine
 10
63.58052361234412
 20
795.8016266904624
 30
0.0
 11
62.66778564453064
 21
795.8175585909531
 31
0.0
  0
LINE
  5
FA
330
EE
100
AcDbEntity
  8
0
  6
Continuous
 62
     0
370
     0
100
AcDbLine
 10
62.66778564453064
 20
782.817558590953
 30
0.0
 11
62.66778564453064
 21
795.817558590953
 31
0.0
  0
LWPOLYLINE
  5
FB
330
EE
100
AcDbEntity
  8
0
  6
Continuous
 62
     0
370
     0
100
AcDbPolyline
 90
       25
 70
     0
 43
0.0
 10
63.58052444458007
 20
795.8016357421874
 10
63.62463760375977
 20
795.7416381835937
 10
63.75370407104492
 20
795.5654907226562
 10
63.95454406738281
 20
795.2818603515624
 10
64.21166229248047
 20
794.9014892578125
 10
64.50714874267578
 20
794.4351806640625
 10
64.8233871459961
 20
793.8912963867188
 10
65.14285278320312
 20
793.2757568359375
 10
65.44749450683593
 20
792.5925903320313
 10
65.71800231933593
 20
791.845947265625
 10
65.93370819091797
 20
791.0434570312499
 10
66.07364654541015
 20
790.1934814453125
 10
66.12306976318359
 20
789.3175048828124
 10
66.07365417480469
 20
788.4415893554687
 10
65.9337158203125
 20
787.5916137695313
 10
65.71797943115234
 20
786.7891235351562
 10
65.44741821289062
 20
786.0424804687499
 10
65.14275360107422
 20
785.3593139648437
 10
64.82331085205078
 20
784.7437744140624
 10
64.50708770751953
 20
784.1998901367187
 10
64.21157073974609
 20
783.7336425781249
 10
63.95438766479492
 20
783.353271484375
 10
63.75349807739258
 20
783.0696411132812
 10
63.62450790405273
 20
782.8934936523437
 10
63.58052444458007
 20
782.83349609375
  0
ARC
  5
FC
330
EE
100
AcDbEntity
  8
0
  6
Continuous
 62
     0
370
    30
100
AcDbCircle
 10
63.66778564452999
 20
800.8008651662446
 30
0.0
 40
5.000000000000458
100
AcDbArc
 50
269.0000000002365
 51
359.9999999999953
  0
ARC
  5
FD
330
EE
100
AcDbEntity
  8
0
  6
Continuous
 62
     0
370
    30
100
AcDbCircle
 10
63.66778564452829
 20
777.8342520156599
 30
0.0
 40
5.000000000002089
100
AcDbArc
 50
0.000000000246582
 51
90.99999999996931
  0
LINE
  5
FE
330
EE
100
AcDbEntity
  8
0
  6
Continuous
 62
     0
370
    30
100
AcDbLine
 10
2.667785644530511
 20
795.8175527445424
 30
0.0
 11
2.66778564453051
 21
782.8175644373641
 31
0.0
  0
LINE
  5
FF
330
EE
100
AcDbEntity
  8
0
  6
Continuous
 62
     0
370
    30
100
AcDbLine
 10
2.667785644530511
 20
795.8175527445424
 30
0.0
 11
62.66778564453068
 21
795.8175527445424
 31
0.0
  0
ARC
  5
100
330
EE
100
AcDbEntity
  8
0
  6
Continuous
 62
     0
370
    30
100
AcDbCircle
 10
90.66808341849764
 20
770.6064908619465
 30
0.0
 40
20.505434437459
100
AcDbArc
 50
172.4025567985028
 51
175.8048481253222
  0
ARC
  5
101
330
EE
100
AcDbEntity
  8
0
  6
Continuous
 62
     0
370
    30
100
AcDbCircle
 10
90.6679491229919
 20
770.6065668933197
 30
0.0
 40
20.50496885893674
100
AcDbArc
 50
4.195034278323764
 51
27.64554582990433
  0
LINE
  5
102
330
EE
100
AcDbEntity
  8
0
  6
Continuous
 62
     0
370
    30
100
AcDbLine
 10
62.66778565453063
 20
782.817564437364
 30
0.0
 11
2.667785644530468
 21
782.817564437364
 31
0.0
  0
LINE
  5
103
330
EE
100
AcDbEntity
  8
0
  6
Continuous
 62
     0
370
    30
100
AcDbLine
 10
63.58052361234429
 20
782.8334904914437
 30
0.0
 11
62.66778564453063
 21
782.8175585909531
 31
0.0
  0
LINE
  5
104
330
EE
100
AcDbEntity
  8
0
  6
Continuous
 62
     0
370
    30
100
AcDbLine
 10
112.6677856445305
 20
781.5177596492733
 30
0.0
 11
112.6677856445305
 21
804.3175585909532
 31
0.0
  0
LWPOLYLINE
  5
105
330
EE
100
AcDbEntity
  8
0
  6
Continuous
 62
     0
370
     0
100
AcDbPolyline
 90
       39
 70
     0
 43
0.0
 10
68.1678466796875
 20
675.70654296875
 10
68.24492645263672
 20
675.70654296875
 10
68.47502136230469
 20
675.70654296875
 10
68.85637664794922
 20
675.70654296875
 10
69.38703918457031
 20
675.70654296875
 10
70.06309509277343
 20
675.70654296875
 10
70.87969207763672
 20
675.70654296875
 10
71.83164215087891
 20
675.70654296875
 10
72.91220092773437
 20
675.70654296875
 10
74.11409759521484
 20
675.70654296875
 10
75.42908477783203
 20
675.70654296875
 10
76.84805297851562
 20
675.70654296875
 10
78.36154174804687
 20
675.70654296875
 10
79.95903015136718
 20
675.70654296875
 10
81.62969970703125
 20
675.70654296875
 10
83.36211395263672
 20
675.70654296875
 10
85.14439392089844
 20
675.70654296875
 10
86.9644546508789
 20
675.70654296875
 10
88.80977630615234
 20
675.70654296875
 10
90.66780090332031
 20
675.70654296875
 10
92.52583312988281
 20
675.70654296875
 10
94.37116241455077
 20
675.70654296875
 10
96.19120025634765
 20
675.70654296875
 10
97.97351837158203
 20
675.70654296875
 10
99.70587921142579
 20
675.70654296875
 10
101.3765792846679
 20
675.70654296875
 10
102.9740676879882
 20
675.70654296875
 10
104.4875183105468
 20
675.70654296875
 10
105.9065780639648
 20
675.70654296875
 10
107.2214736938476
 20
675.70654296875
 10
108.4234085083007
 20
675.70654296875
 10
109.503921508789
 20
675.70654296875
 10
110.4558715820312
 20
675.70654296875
 10
111.2725982666015
 20
675.70654296875
 10
111.9485473632812
 20
675.70654296875
 10
112.4792327880859
 20
675.70654296875
 10
112.8607788085937
 20
675.70654296875
 10
113.0908737182617
 20
675.70654296875
 10
113.1676406860351
 20
675.70654296875
  0
LINE
  5
106
330
EE
100
AcDbEntity
  8
0
  6
Continuous
 62
     0
370
    30
100
AcDbLine
 10
68.16778650512543
 20
496.2065472602686
 30
0.0
 11
68.16784346264019
 21
675.7065608348547
 31
0.0
  0
ARC
  5
107
330
EE
100
AcDbEntity
  8
0
  6
Continuous
 62
     0
370
    30
100
AcDbCircle
 10
68.66784346264016
 20
675.7065606761987
 30
0.0
 40
0.4999999999999871
100
AcDbArc
 50
89.99996363871867
 51
179.9999818191374
  0
ARC
  5
108
330
EE
100
AcDbEntity
  8
0
  6
Continuous
 62
     0
370
    30
100
AcDbCircle
 10
112.6676365489716
 20
675.7065551930272
 30
0.0
 40
0.5000054841893926
100
AcDbArc
 50
0.0006464989476172
 51
89.99018955802156
  0
LINE
  5
109
330
EE
100
AcDbEntity
  8
0
  6
Continuous
 62
     0
370
    30
100
AcDbLine
 10
68.66837114113891
 20
676.2065606762
 30
0.0
 11
78.66221616383372
 21
676.2065606761986
 31
0.0
  0
LINE
  5
10A
330
EE
100
AcDbEntity
  8
0
  6
Continuous
 62
     0
370
    30
100
AcDbLine
 10
113.1677847839356
 20
496.2065472602685
 30
0.0
 11
113.1677278264211
 21
675.7065608348546
 31
0.0
  0
LINE
  5
10B
330
EE
100
AcDbEntity
  8
0
  6
Continuous
 62
     0
370
    30
100
AcDbLine
 10
70.06778564453068
 20
772.1065414829896
 30
0.0
 11
111.2677856445307
 21
772.1065414829896
 31
0.0
  0
LINE
  5
10C
330
EE
100
AcDbEntity
  8
0
  6
Continuous
 62
     0
370
    30
100
AcDbLine
 10
70.06778564453071
 20
770.1065414829892
 30
0.0
 11
70.06778564453071
 21
772.1065414829895
 31
0.0
  0
LINE
  5
10D
330
EE
100
AcDbEntity
  8
0
  6
Continuous
 62
     0
370
    30
100
AcDbLine
 10
111.2677856445306
 20
770.10654148299
 30
0.0
 11
111.2677856445306
 21
772.1065414829897
 31
0.0
  0
LINE
  5
10E
330
EE
100
AcDbEntity
  8
0
  6
Continuous
 62
     0
370
    30
100
AcDbLine
 10
68.1676244343594
 20
770.1065414829892
 30
0.0
 11
113.1679468547019
 21
770.10654148299
 31
0.0
  0
LWPOLYLINE
  5
10F
330
EE
100
AcDbEntity
  8
0
  6
Continuous
 62
     0
370
     0
100
AcDbPolyline
 90
       37
 70
     0
 43
0.0
 10
68.16765594482422
 20
715.70654296875
 10
68.19902038574219
 20
715.7786865234375
 10
68.29189300537109
 20
715.9934692382812
 10
68.44328308105469
 20
716.34716796875
 10
68.64835357666016
 20
716.833984375
 10
68.90047454833984
 20
717.4464111328124
 10
69.19266510009766
 20
718.1767578125
 10
69.51701354980468
 20
719.0175170898437
 10
69.86504364013672
 20
719.9609985351562
 10
70.22795104980469
 20
721.0007934570312
 10
70.59664154052734
 20
722.1310424804687
 10
70.96148681640625
 20
723.3464965820312
 10
71.31206512451171
 20
724.6422729492187
 10
71.63778686523437
 20
726.0135498046874
 10
71.92727661132813
 20
727.4540405273437
 10
72.16878509521484
 20
728.9559936523438
 10
72.35101318359375
 20
730.509033203125
 10
72.46503448486328
 20
732.0980834960937
 10
72.50350189208984
 20
733.7065429687499
 10
72.46498107910156
 20
735.315185546875
 10
72.35113525390625
 20
736.9043579101562
 10
72.16875457763672
 20
738.4571533203125
 10
71.92723083496094
 20
739.958984375
 10
71.6377944946289
 20
741.3996582031249
 10
71.31208038330078
 20
742.7708129882812
 10
70.96134948730469
 20
744.0667114257812
 10
70.59660339355469
 20
745.2821655273437
 10
70.22793579101563
 20
746.4123535156249
 10
69.86502838134765
 20
747.4522094726562
 10
69.5169906616211
 20
748.395751953125
 10
69.19268798828125
 20
749.2362670898437
 10
68.90054321289063
 20
749.9667968749999
 10
68.64823150634766
 20
750.5793457031249
 10
68.44328308105469
 20
751.0659179687499
 10
68.29195404052734
 20
751.4196166992187
 10
68.19898223876953
 20
751.634521484375
 10
68.16771697998047
 20
751.7064819335937
  0
LWPOLYLINE
  5
110
330
EE
100
AcDbEntity
  8
0
  6
Continuous
 62
     0
370
     0
100
AcDbPolyline
 90
       32
 70
     0
 43
0.0
 10
60.16765975952148
 20
723.70654296875
 10
60.22490310668946
 20
723.7605590820312
 10
60.39386749267578
 20
723.9210205078125
 10
60.66724014282226
 20
724.184326171875
 10
61.03304672241211
 20
724.544677734375
 10
61.47668838500976
 20
724.9954223632812
 10
61.98204040527343
 20
725.5299682617187
 10
62.53115844726562
 20
726.1417236328124
 10
63.10533142089844
 20
726.8250732421875
 10
63.68511962890625
 20
727.574951171875
 10
64.24931335449219
 20
728.3870849609375
 10
64.775634765625
 20
729.2571411132812
 10
65.24050140380859
 20
730.1802368164062
 10
65.61904144287109
 20
731.1497192382812
 10
65.88761138916016
 20
732.1564331054688
 10
66.02763366699218
 20
733.1869506835937
 10
66.0274429321289
 20
734.2261352539062
 10
65.8877944946289
 20
735.2568359374999
 10
65.6190185546875
 20
736.263427734375
 10
65.24044036865234
 20
737.2328491210937
 10
64.77566528320313
 20
738.1560058593749
 10
64.24925231933594
 20
739.0260620117187
 10
63.68497848510742
 20
739.8381958007812
 10
63.10533905029297
 20
740.5880737304687
 10
62.53113174438476
 20
741.2714233398437
 10
61.98200988769531
 20
741.8831787109374
 10
61.47676467895507
 20
742.4176635742187
 10
61.0330581665039
 20
742.8685302734375
 10
60.66707229614258
 20
743.2288818359374
 10
60.39398956298828
 20
743.4920043945312
 10
60.224853515625
 20
743.652587890625
 10
60.16774368286132
 20
743.70654296875
  0
ARC
  5
111
330
EE
100
AcDbEntity
  8
0
  6
Continuous
 62
     0
370
    30
100
AcDbCircle
 10
60.16765895789504
 20
715.7065632406884
 30
0.0
 40
7.999999999999998
100
AcDbArc
 50
0.0000363612825483
 51
89.99999999977674
  0
LINE
  5
112
330
EE
100
AcDbEntity
  8
0
  6
Continuous
 62
     0
370
    30
100
AcDbLine
 10
68.66768370823805
 20
676.2065609935067
 30
0.0
 11
112.6678875808259
 21
676.2065609935074
 31
0.0
  0
LINE
  5
113
330
EE
100
AcDbEntity
  8
0
  6
Continuous
 62
     0
370
     0
100
AcDbLine
 10
68.16768370823814
 20
676.7065606761947
 30
0.0
 11
113.1678875808258
 21
676.7065606761954
 31
0.0
  0
LINE
  5
114
330
EE
100
AcDbEntity
  8
0
  6
Continuous
 62
     0
370
    30
100
AcDbLine
 10
113.1679468547019
 20
770.10654148299
 30
0.0
 11
113.1678875808258
 21
676.7065606761955
 31
0.0
  0
ARC
  5
115
330
EE
100
AcDbEntity
  8
0
  6
Continuous
 62
     0
370
    30
100
AcDbCircle
 10
112.6678875808259
 20
676.7065609935074
 30
0.0
 40
0.4999999999999716
100
AcDbArc
 50
270.0000000000008
 51
359.9999636384982
  0
LINE
  5
116
330
EE
100
AcDbEntity
  8
0
  6
Continuous
 62
     0
370
    30
100
AcDbLine
 10
55.16779997895835
 20
743.2065701845495
 30
0.0
 11
55.16779997895835
 21
724.2065632406884
 31
0.0
  0
LINE
  5
117
330
EE
100
AcDbEntity
  8
0
  6
Continuous
 62
     0
370
     0
100
AcDbLine
 10
55.66779997895835
 20
743.7065701845495
 30
0.0
 11
55.66779997895835
 21
723.7065632406884
 31
0.0
  0
LINE
  5
118
330
EE
100
AcDbEntity
  8
0
  6
Continuous
 62
     0
370
    30
100
AcDbLine
 10
60.16765895789504
 20
723.7065632406884
 30
0.0
 11
55.66779997895835
 21
723.7065632406884
 31
0.0
  0
ARC
  5
119
330
EE
100
AcDbEntity
  8
0
  6
Continuous
 62
     0
370
    30
100
AcDbCircle
 10
55.66779997895835
 20
724.2065632406884
 30
0.0
 40
0.5
100
AcDbArc
 50
180.0
 51
269.9999999997767
  0
ARC
  5
11A
330
EE
100
AcDbEntity
  8
0
  6
Continuous
 62
     0
370
    30
100
AcDbCircle
 10
55.66779997895835
 20
743.2065701845495
 30
0.0
 40
0.5
100
AcDbArc
 50
90.00000000022323
 51
180.0
  0
LINE
  5
11B
330
EE
100
AcDbEntity
  8
0
  6
Continuous
 62
     0
370
    30
100
AcDbLine
 10
60.16774218450443
 20
743.7065701845495
 30
0.0
 11
55.66779997895835
 21
743.7065701845495
 31
0.0
  0
ARC
  5
11C
330
EE
100
AcDbEntity
  8
0
  6
Continuous
 62
     0
370
    30
100
AcDbCircle
 10
68.66768370823809
 20
676.7065609935068
 30
0.0
 40
0.5000000000000285
100
AcDbArc
 50
180.0000363615017
 51
270.0000000000008
  0
LINE
  5
11D
330
EE
100
AcDbEntity
  8
0
  6
Continuous
 62
     0
370
    30
100
AcDbLine
 10
68.16762443435942
 20
770.1065414829892
 30
0.0
 11
68.16763611148465
 21
751.7064756265838
 31
0.0
  0
LINE
  5
11E
330
EE
100
AcDbEntity
  8
0
  6
Continuous
 62
     0
370
    30
100
AcDbLine
 10
68.16765895789344
 20
715.7065683176813
 30
0.0
 11
68.16768370823819
 21
676.7065606761948
 31
0.0
  0
ARC
  5
11F
330
EE
100
AcDbEntity
  8
0
  6
Continuous
 62
     0
370
    30
100
AcDbCircle
 10
60.16774326815607
 20
751.706485794811
 30
0.0
 40
7.999970997938591
100
AcDbArc
 50
269.9999917487568
 51
359.9999272579783
  0
LINE
  5
120
330
EE
100
AcDbEntity
  8
0
  6
Continuous
 62
     0
370
     0
100
AcDbLine
 10
-86.65250758339926
 20
743.7065701845895
 30
0.0
 11
-86.6525080730288
 21
723.7065701845895
 31
0.0
  0
LINE
  5
121
330
EE
100
AcDbEntity
  8
0
  6
Continuous
 62
     0
370
     0
100
AcDbLine
 10
-117.8294230009721
 20
725.7065701845895
 30
0.0
 11
-100.5089149252834
 21
715.7065701845896
 31
0.0
  0
LINE
  5
122
330
EE
100
AcDbEntity
  8
0
  6
Continuous
 62
     0
370
    30
100
AcDbLine
 10
-127.8305728227776
 20
708.3840705591139
 30
0.0
 11
-110.5100647470889
 21
698.384070559114
 31
0.0
  0
LINE
  5
123
330
EE
100
AcDbEntity
  8
0
  6
Continuous
 62
     0
370
     0
100
AcDbLine
 10
54.66780022377313
 20
743.7065667248597
 30
0.0
 11
54.66779973414358
 21
723.7065667248597
 31
0.0
  0
ARC
  5
124
330
EE
100
AcDbEntity
  8
0
  6
Continuous
 62
     0
370
    30
100
AcDbCircle
 10
54.66780021153238
 20
743.2065667248597
 30
0.0
 40
0.5000000000000001
100
AcDbArc
 50
359.9999985975369
 51
89.99999859731451
  0
ARC
  5
125
330
EE
100
AcDbEntity
  8
0
  6
Continuous
 62
     0
370
    30
100
AcDbCircle
 10
54.66779974638432
 20
724.2065667248597
 30
0.0
 40
0.5000000000000001
100
AcDbArc
 50
269.9999985973145
 51
359.9999985970904
  0
LINE
  5
126
330
EE
100
AcDbEntity
  8
0
  6
Continuous
 62
     0
370
    30
100
AcDbLine
 10
54.66780022377313
 20
743.7065667248597
 30
0.0
 11
-86.65250758339926
 21
743.7065701845896
 31
0.0
  0
LINE
  5
127
330
EE
100
AcDbEntity
  8
0
  6
Continuous
 62
     0
370
    30
100
AcDbLine
 10
54.66779973414358
 20
723.7065667248597
 30
0.0
 11
-86.6525080730288
 21
723.7065701845896
 31
0.0
  0
LINE
  5
128
330
EE
100
AcDbEntity
  8
0
  6
Continuous
 62
     0
370
    30
100
AcDbLine
 10
-117.8294230009721
 20
725.7065701845897
 30
0.0
 11
-127.8305728227777
 21
708.3840705591141
 31
0.0
  0
LINE
  5
129
330
EE
100
AcDbEntity
  8
0
  6
Continuous
 62
     0
370
    30
100
AcDbLine
 10
-100.5089149252834
 20
715.7065701845896
 30
0.0
 11
-110.5100647470889
 21
698.384070559114
 31
0.0
  0
ARC
  5
12A
330
EE
100
AcDbEntity
  8
0
  6
Continuous
 62
     0
370
    30
100
AcDbCircle
 10
-86.65250846473242
 20
707.7065701845895
 30
0.0
 40
36.0
100
AcDbArc
 50
89.9999985973147
 51
149.999999999851
  0
ARC
  5
12B
330
EE
100
AcDbEntity
  8
0
  6
Continuous
 62
     0
370
    30
100
AcDbCircle
 10
-86.65250846473242
 20
707.7065701845895
 30
0.0
 40
16.0
100
AcDbArc
 50
89.99999859731472
 51
149.999999999851
  0
ENDBLK
  5
12D
330
EE
100
AcDbEntity
  8
0
100
AcDbBlockEnd
  0
ENDSEC
  0
SECTION
  2
ENTITIES
  0
INSERT
  5
7A
330
1F
100
AcDbEntity
  8
0
  6
Continuous
 62
   250
370
     0
100
AcDbBlockReference
  2
a
 10
283.7270812988281
 20
94.08560943603516
 30
0.0
  0
INSERT
  5
A9
330
1F
100
AcDbEntity
  8
0
  6
Continuous
 62
   250
370
     0
100
AcDbBlockReference
  2
b
 10
184.1479187011718
 20
139.7121047973632
 30
0.0
  0
INSERT
  5
ED
330
1F
100
AcDbEntity
  8
0
  6
Continuous
 62
   250
370
     0
100
AcDbBlockReference
  2
c
 10
232.0096130371093
 20
72.24788665771484
 30
0.0
  0
INSERT
  5
12E
330
1F
100
AcDbEntity
  8
0
  6
Continuous
 62
   250
370
     0
100
AcDbBlockReference
  2
d
 10
166.2269287109374
 20
-0.0000152587890625
 30
0.0
  0
ENDSEC
  0
SECTION
  2
OBJECTS
  0
DICTIONARY
  5
C
330
0
100
AcDbDictionary
281
     1
  3
ACAD_GROUP
350
D
  3
ACAD_LAYOUT
350
1A
  3
ACAD_MLEADERSTYLE
350
131
  3
ACAD_MLINESTYLE
350
17
  3
ACAD_PLOTSETTINGS
350
19
  3
ACAD_PLOTSTYLENAME
350
E
  3
ACAD_VISUALSTYLE
350
2A
  3
AcDbVariableDictionary
350
12F
  0
DICTIONARY
  5
D
102
{ACAD_REACTORS
330
C
102
}
330
C
100
AcDbDictionary
281
     1
  0
DICTIONARY
  5
1A
102
{ACAD_REACTORS
330
C
102
}
330
C
100
AcDbDictionary
281
     1
  3
Layout1
350
1E
  3
Layout2
350
26
  3
Model
350
22
  0
DICTIONARY
  5
131
102
{ACAD_REACTORS
330
C
102
}
330
C
100
AcDbDictionary
281
     1
  0
DICTIONARY
  5
17
102
{ACAD_REACTORS
330
C
102
}
330
C
100
AcDbDictionary
281
     1
  3
Standard
350
18
  0
DICTIONARY
  5
19
102
{ACAD_REACTORS
330
C
102
}
330
C
100
AcDbDictionary
281
     1
  0
ACDBDICTIONARYWDFLT
  5
E
102
{ACAD_REACTORS
330
C
102
}
330
C
100
AcDbDictionary
281
     1
  3
Normal
350
F
100
AcDbDictionaryWithDefault
340
F
  0
DICTIONARY
  5
2A
102
{ACAD_REACTORS
330
C
102
}
330
C
100
AcDbDictionary
281
     1
  3
2dWireframe
350
2F
  3
3D Hidden
350
31
  3
3dWireframe
350
30
  3
Basic
350
32
  3
Brighten
350
36
  3
ColorChange
350
3A
  3
Conceptual
350
34
  3
Dim
350
35
  3
Facepattern
350
39
  3
Flat
350
2B
  3
FlatWithEdges
350
2C
  3
Gouraud
350
2D
  3
GouraudWithEdges
350
2E
  3
Linepattern
350
38
  3
Realistic
350
33
  3
Thicken
350
37
  0
DICTIONARY
  5
12F
102
{ACAD_REACTORS
330
C
102
}
330
C
100
AcDbDictionary
281
     1
  3
DIMASSOC
350
13A
  3
PSOLHEIGHT
350
133
  3
PSOLWIDTH
350
132
  0
LAYOUT
  5
1E
102
{ACAD_REACTORS
330
1A
102
}
330
1A
100
AcDbPlotSettings
  1

  2
none_device
  4

  6

 40
0.0
 41
0.0
 42
0.0
 43
0.0
 44
0.0
 45
0.0
 46
0.0
 47
0.0
 48
0.0
 49
0.0
140
0.0
141
0.0
142
1.0
143
1.0
 70
   688
 72
     0
 73
     0
 74
     5
  7

 75
    16
147
1.0
148
0.0
149
0.0
100
AcDbLayout
  1
Layout1
 70
     1
 71
     1
 10
0.0
 20
0.0
 11
420.0
 21
297.0
 12
0.0
 22
0.0
 32
0.0
 14
1.000000000000000E+20
 24
1.000000000000000E+20
 34
1.000000000000000E+20
 15
-1.000000000000000E+20
 25
-1.000000000000000E+20
 35
-1.000000000000000E+20
146
0.0
 13
0.0
 23
0.0
 33
0.0
 16
1.0
 26
0.0
 36
0.0
 17
0.0
 27
1.0
 37
0.0
 76
     0
330
1B
  0
LAYOUT
  5
26
102
{ACAD_REACTORS
330
1A
102
}
330
1A
100
AcDbPlotSettings
  1

  2
none_device
  4

  6

 40
0.0
 41
0.0
 42
0.0
 43
0.0
 44
0.0
 45
0.0
 46
0.0
 47
0.0
 48
0.0
 49
0.0
140
0.0
141
0.0
142
1.0
143
1.0
 70
   688
 72
     0
 73
     0
 74
     5
  7

 75
    16
147
1.0
148
0.0
149
0.0
100
AcDbLayout
  1
Layout2
 70
     1
 71
     2
 10
0.0
 20
0.0
 11
0.0
 21
0.0
 12
0.0
 22
0.0
 32
0.0
 14
0.0
 24
0.0
 34
0.0
 15
0.0
 25
0.0
 35
0.0
146
0.0
 13
0.0
 23
0.0
 33
0.0
 16
1.0
 26
0.0
 36
0.0
 17
0.0
 27
1.0
 37
0.0
 76
     0
330
23
  0
LAYOUT
  5
22
102
{ACAD_REACTORS
330
1A
102
}
330
1A
100
AcDbPlotSettings
  1

  2
none_device
  4

  6

 40
0.0
 41
0.0
 42
0.0
 43
0.0
 44
0.0
 45
0.0
 46
0.0
 47
0.0
 48
0.0
 49
0.0
140
0.0
141
0.0
142
1.0
143
1.0
 70
  1712
 72
     0
 73
     0
 74
     0
  7

 75
     0
147
1.0
148
0.0
149
0.0
100
AcDbLayout
  1
Model
 70
     1
 71
     0
 10
-127.8305740356445
 20
122.4517745971679
 11
815.4553833007812
 21
804.3175659179688
 12
0.0
 22
0.0
 32
0.0
 14
-127.8305740356445
 24
122.4517745971679
 34
0.0
 15
815.4553833007812
 25
804.3175659179688
 35
0.0
146
0.0
 13
0.0
 23
0.0
 33
0.0
 16
1.0
 26
0.0
 36
0.0
 17
0.0
 27
1.0
 37
0.0
 76
     0
330
1F
  0
MLINESTYLE
  5
18
102
{ACAD_REACTORS
330
17
102
}
330
17
100
AcDbMlineStyle
  2
STANDARD
 70
     0
  3

 62
   256
 51
90.0
 52
90.0
 71
     2
 49
0.5
 62
   256
  6
BYLAYER
 49
-0.5
 62
   256
  6
BYLAYER
  0
ACDBPLACEHOLDER
  5
F
102
{ACAD_REACTORS
330
E
102
}
330
E
  0
ACAD_PROXY_OBJECT
  5
2F
102
{ACAD_REACTORS
330
2A
102
}
330
2A
100
AcDbProxyObject
 90
      499
 91
      501
 95
   851991
 70
     0
 93
      436
310
42CC9915DA5C99599C985B595049028333333333333E3BF0000000000000FB0107901411070040501600405405064090741402480A0340
 94
        0
1001
ACAD
1000
AcDbSavedByObjectVersion
1070
     0
  0
ACAD_PROXY_OBJECT
  5
31
102
{ACAD_REACTORS
330
2A
102
}
330
2A
100
AcDbProxyObject
 90
      499
 91
      501
 95
   851991
 70
     0
 93
      500
310
424CD108121A5919195B90640502408333333333333E3BF0000000000000FB01079024090700405020000000000001110200405405064090740C02480A034D
 94
        0
1001
ACAD
1000
AcDbSavedByObjectVersion
1070
     0
  0
ACAD_PROXY_OBJECT
  5
30
102
{ACAD_REACTORS
330
2A
102
}
330
2A
100
AcDbProxyObject
 90
      499
 91
      501
 95
   851991
 70
     0
 93
      436
310
42CCD915DA5C99599C985B595059028333333333333E3BF0000000000000FB0107901411070040501600405405064090741402480A0340
 94
        0
1001
ACAD
1000
AcDbSavedByObjectVersion
1070
     0
  0
ACAD_PROXY_OBJECT
  5
32
102
{ACAD_REACTORS
330
2A
102
}
330
2A
100
AcDbProxyObject
 90
      499
 91
      501
 95
   851991
 70
     0
 93
      388
310
4150985CDA58D07406404333333333333E3BF0000000000000FB0107A41107004050150841D405064090741402480A0352
 94
        0
1001
ACAD
1000
AcDbSavedByObjectVersion
1070
     0
  0
ACAD_PROXY_OBJECT
  5
36
102
{ACAD_REACTORS
330
2A
102
}
330
2A
100
AcDbProxyObject
 90
      499
 91
      501
 95
   851991
 70
     0
 93
      428
310
42109C9A59DA1D195B90C409028333333333333E3BF0000000000000FB010790141107004050150841D405064090741402480A029956
 94
        0
1001
ACAD
1000
AcDbSavedByObjectVersion
1070
     0
  0
ACAD_PROXY_OBJECT
  5
3A
102
{ACAD_REACTORS
330
2A
102
}
330
2A
100
AcDbProxyObject
 90
      499
 91
      501
 95
   851991
 70
     0
 93
      452
310
42D0DBDB1BDC90DA185B99D95104090240C333333333333E3BF0000000000000FB0108901411070040501508421405064090741402480A0354
 94
        0
1001
ACAD
1000
AcDbSavedByObjectVersion
1070
     0
  0
ACAD_PROXY_OBJECT
  5
34
102
{ACAD_REACTORS
330
2A
102
}
330
2A
100
AcDbProxyObject
 90
      499
 91
      501
 95
   851991
 70
     0
 93
      500
310
4290DBDB98D95C1D1D585B10940D028333333333333E3BF0000000000000FB0107902409070040501000000000000111010841D405064090740C02480A034D
 94
        0
1001
ACAD
1000
AcDbSavedByObjectVersion
1070
     0
  0
ACAD_PROXY_OBJECT
  5
35
102
{ACAD_REACTORS
330
2A
102
}
330
2A
100
AcDbProxyObject
 90
      499
 91
      501
 95
   851991
 70
     0
 93
      412
310
40D11A5B50B409028333333333333E3BF0000000000000FB010790141107004050150841D405064090741402480A02677FFFFFD4
 94
        0
1001
ACAD
1000
AcDbSavedByObjectVersion
1070
     0
  0
ACAD_PROXY_OBJECT
  5
39
102
{ACAD_REACTORS
330
2A
102
}
330
2A
100
AcDbProxyObject
 90
      499
 91
      501
 95
   851991
 70
     0
 93
      444
310
42D19858D95C185D1D195C9B90F409028333333333333E3BF0000000000000FB010790141107004050150841D405064090741402480A0350
 94
        0
1001
ACAD
1000
AcDbSavedByObjectVersion
1070
     0
  0
ACAD_PROXY_OBJECT
  5
2B
102
{ACAD_REACTORS
330
2A
102
}
330
2A
100
AcDbProxyObject
 90
      499
 91
      501
 95
   851991
 70
     0
 93
      388
310
41119B185D240901404333333333333E3BF0000000000000F9010740A41107004050150841D405064090741402480A1B5D
 94
        0
1001
ACAD
1000
AcDbSavedByObjectVersion
1070
     0
  0
ACAD_PROXY_OBJECT
  5
2C
102
{ACAD_REACTORS
330
2A
102
}
330
2A
100
AcDbProxyObject
 90
      499
 91
      501
 95
   851991
 70
     0
 93
      476
310
43519B185D15DA5D1A115919D95CD0140901404333333333333E3BF0000000000000F9010740901411070040501600405405064090741402480A1B50
 94
        0
1001
ACAD
1000
AcDbSavedByObjectVersion
1070
     0
  0
ACAD_PROXY_OBJECT
  5
2D
102
{ACAD_REACTORS
330
2A
102
}
330
2A
100
AcDbProxyObject
 90
      499
 91
      501
 95
   851991
 70
     0
 93
      412
310
41D1DBDD5C985D5910240902404333333333333E3BF0000000000000F9010740A411070040501641D405064090741402480A1B50
 94
        0
1001
ACAD
1000
AcDbSavedByObjectVersion
1070
     0
  0
ACAD_PROXY_OBJECT
  5
2E
102
{ACAD_REACTORS
330
2A
102
}
330
2A
100
AcDbProxyObject
 90
      499
 91
      501
 95
   851991
 70
     0
 93
      500
310
4411DBDD5C985D5915DA5D1A115919D95CD0340902404333333333333E3BF0000000000000F9010740901411070040501600405405064090741402480A1B5D
 94
        0
1001
ACAD
1000
AcDbSavedByObjectVersion
1070
     0
  0
ACAD_PROXY_OBJECT
  5
38
102
{ACAD_REACTORS
330
2A
102
}
330
2A
100
AcDbProxyObject
 90
      499
 91
      501
 95
   851991
 70
     0
 93
      444
310
42D31A5B995C185D1D195C9B90E409028333333333333E3BF0000000000000FB010790141107004050750841D405064090741402483A0350
 94
        0
1001
ACAD
1000
AcDbSavedByObjectVersion
1070
     0
  0
ACAD_PROXY_OBJECT
  5
33
102
{ACAD_REACTORS
330
2A
102
}
330
2A
100
AcDbProxyObject
 90
      499
 91
      501
 95
   851991
 70
     0
 93
      420
310
425499585B1A5CDD1A58D08409028333333333333E3BF0000000000000FB01079019070040501508421405064090741402480A1B45
 94
        0
1001
ACAD
1000
AcDbSavedByObjectVersion
1070
     0
  0
ACAD_PROXY_OBJECT
  5
37
102
{ACAD_REACTORS
330
2A
102
}
330
2A
100
AcDbProxyObject
 90
      499
 91
      501
 95
   851991
 70
     0
 93
      412
310
41D51A1A58DAD95B90D409028333333333333E3BF0000000000000FB010790141107004050150C41D405064090741402480A0352
 94
        0
1001
ACAD
1000
AcDbSavedByObjectVersion
1070
     0
  0
DICTIONARYVAR
  5
13A
102
{ACAD_REACTORS
330
12F
102
}
330
12F
100
DictionaryVariables
280
     0
  1
1
  0
DICTIONARYVAR
  5
133
102
{ACAD_REACTORS
330
12F
102
}
330
12F
100
DictionaryVariables
280
     0
  1
80.000000
  0
DICTIONARYVAR
  5
132
102
{ACAD_REACTORS
330
12F
102
}
330
12F
100
DictionaryVariables
280
     0
  1
5.000000
  0
ENDSEC
  0
EOF
