  0
SECTION
  2
HEADER
  9
$ACADVER
  1
AC1018
  9
$ACADMAINTVER
 70
     0
  9
$DWGCODEPAGE
  3
ANSI_1252
  9
$INSBASE
 10
0.0
 20
0.0
 30
0.0
  9
$EXTMIN
 10
177.226227
 20
111.031151
 30
0.0
  9
$EXTMAX
 10
520.824707
 20
527.598389
 30
0.0
  9
$LIMMIN
 10
177.226227
 20
111.031151
  9
$LIMMAX
 10
520.824707
 20
527.598389
  9
$ORTHOMODE
 70
     0
  9
$REGENMODE
 70
     1
  9
$FILLMODE
 70
     1
  9
$QTEXTMODE
 70
     0
  9
$MIRRTEXT
 70
     1
  9
$LTSCALE
 40
1.0
  9
$ATTMODE
 70
     1
  9
$TEXTSIZE
 40
2.5
  9
$TRACEWID
 40
1.0
  9
$TEXTSTYLE
  7
Standard
  9
$CLAYER
  8
0
  9
$CELTYPE
  6
ByLayer
  9
$CECOLOR
 62
   256
  9
$CELTSCALE
 40
1.0
  9
$DISPSILH
 70
     0
  9
$DIMSCALE
 40
1.0
  9
$DIMASZ
 40
2.5
  9
$DIMEXO
 40
0.625
  9
$DIMDLI
 40
3.75
  9
$DIMRND
 40
0.0
  9
$DIMDLE
 40
0.0
  9
$DIMEXE
 40
1.25
  9
$DIMTP
 40
0.0
  9
$DIMTM
 40
0.0
  9
$DIMTXT
 40
2.5
  9
$DIMCEN
 40
2.5
  9
$DIMTSZ
 40
0.0
  9
$DIMTOL
 70
     0
  9
$DIMLIM
 70
     0
  9
$DIMTIH
 70
     0
  9
$DIMTOH
 70
     0
  9
$DIMSE1
 70
     0
  9
$DIMSE2
 70
     0
  9
$DIMTAD
 70
     1
  9
$DIMZIN
 70
     8
  9
$DIMBLK
  1

  9
$DIMASO
 70
     1
  9
$DIMSHO
 70
     1
  9
$DIMPOST
  1

  9
$DIMAPOST
  1

  9
$DIMALT
 70
     0
  9
$DIMALTD
 70
     3
  9
$DIMALTF
 40
0.03937
  9
$DIMLFAC
 40
1.0
  9
$DIMTOFL
 70
     1
  9
$DIMTVP
 40
0.0
  9
$DIMTIX
 70
     0
  9
$DIMSOXD
 70
     0
  9
$DIMSAH
 70
     0
  9
$DIMBLK1
  1

  9
$DIMBLK2
  1

  9
$DIMSTYLE
  2
ISO-25
  9
$DIMCLRD
 70
     0
  9
$DIMCLRE
 70
     0
  9
$DIMCLRT
 70
     0
  9
$DIMTFAC
 40
1.0
  9
$DIMGAP
 40
0.625
  9
$DIMJUST
 70
     0
  9
$DIMSD1
 70
     0
  9
$DIMSD2
 70
     0
  9
$DIMTOLJ
 70
     0
  9
$DIMTZIN
 70
     8
  9
$DIMALTZ
 70
     0
  9
$DIMALTTZ
 70
     0
  9
$DIMUPT
 70
     0
  9
$DIMDEC
 70
     2
  9
$DIMTDEC
 70
     2
  9
$DIMALTU
 70
     2
  9
$DIMALTTD
 70
     3
  9
$DIMTXSTY
  7
Standard
  9
$DIMAUNIT
 70
     0
  9
$DIMADEC
 70
     0
  9
$DIMALTRND
 40
0.0
  9
$DIMAZIN
 70
     0
  9
$DIMDSEP
 70
    44
  9
$DIMATFIT
 70
     3
  9
$DIMFRAC
 70
     0
  9
$DIMLDRBLK
  1

  9
$DIMLUNIT
 70
     2
  9
$DIMLWD
 70
    -2
  9
$DIMLWE
 70
    -2
  9
$DIMTMOVE
 70
     0
  9
$LUNITS
 70
     2
  9
$LUPREC
 70
     4
  9
$SKETCHINC
 40
1.0
  9
$FILLETRAD
 40
10.0
  9
$AUNITS
 70
     0
  9
$AUPREC
 70
     0
  9
$MENU
  1
.
  9
$ELEVATION
 40
0.0
  9
$PELEVATION
 40
0.0
  9
$THICKNESS
 40
0.0
  9
$LIMCHECK
 70
     0
  9
$CHAMFERA
 40
10.0
  9
$CHAMFERB
 40
10.0
  9
$CHAMFERC
 40
20.0
  9
$CHAMFERD
 40
0.0
  9
$SKPOLY
 70
     0
  9
$TDCREATE
 40
2455519.49538691
  9
$TDUCREATE
 40
2455519.453720243
  9
$TDUPDATE
 40
2455519.495386921
  9
$TDUUPDATE
 40
2455519.453720255
  9
$TDINDWG
 40
0.0000000116
  9
$TDUSRTIMER
 40
0.0000000116
  9
$USRTIMER
 70
     1
  9
$ANGBASE
 50
0.0
  9
$ANGDIR
 70
     0
  9
$PDMODE
 70
     0
  9
$PDSIZE
 40
0.0
  9
$PLINEWID
 40
0.0
  9
$SPLFRAME
 70
     0
  9
$SPLINETYPE
 70
     6
  9
$SPLINESEGS
 70
     8
  9
$HANDSEED
  5
335
  9
$SURFTAB1
 70
     6
  9
$SURFTAB2
 70
     6
  9
$SURFTYPE
 70
     6
  9
$SURFU
 70
     6
  9
$SURFV
 70
     6
  9
$UCSBASE
  2

  9
$UCSNAME
  2

  9
$UCSORG
 10
0.0
 20
0.0
 30
0.0
  9
$UCSXDIR
 10
1.0
 20
0.0
 30
0.0
  9
$UCSYDIR
 10
0.0
 20
1.0
 30
0.0
  9
$UCSORTHOREF
  2

  9
$UCSORTHOVIEW
 70
     0
  9
$UCSORGTOP
 10
0.0
 20
0.0
 30
0.0
  9
$UCSORGBOTTOM
 10
0.0
 20
0.0
 30
0.0
  9
$UCSORGLEFT
 10
0.0
 20
0.0
 30
0.0
  9
$UCSORGRIGHT
 10
0.0
 20
0.0
 30
0.0
  9
$UCSORGFRONT
 10
0.0
 20
0.0
 30
0.0
  9
$UCSORGBACK
 10
0.0
 20
0.0
 30
0.0
  9
$PUCSBASE
  2

  9
$PUCSNAME
  2

  9
$PUCSORG
 10
0.0
 20
0.0
 30
0.0
  9
$PUCSXDIR
 10
1.0
 20
0.0
 30
0.0
  9
$PUCSYDIR
 10
0.0
 20
1.0
 30
0.0
  9
$PUCSORTHOREF
  2

  9
$PUCSORTHOVIEW
 70
     0
  9
$PUCSORGTOP
 10
0.0
 20
0.0
 30
0.0
  9
$PUCSORGBOTTOM
 10
0.0
 20
0.0
 30
0.0
  9
$PUCSORGLEFT
 10
0.0
 20
0.0
 30
0.0
  9
$PUCSORGRIGHT
 10
0.0
 20
0.0
 30
0.0
  9
$PUCSORGFRONT
 10
0.0
 20
0.0
 30
0.0
  9
$PUCSORGBACK
 10
0.0
 20
0.0
 30
0.0
  9
$USERI1
 70
     0
  9
$USERI2
 70
     0
  9
$USERI3
 70
     0
  9
$USERI4
 70
     0
  9
$USERI5
 70
     0
  9
$USERR1
 40
0.0
  9
$USERR2
 40
0.0
  9
$USERR3
 40
0.0
  9
$USERR4
 40
0.0
  9
$USERR5
 40
0.0
  9
$WORLDVIEW
 70
     1
  9
$SHADEDGE
 70
     3
  9
$SHADEDIF
 70
    70
  9
$TILEMODE
 70
     1
  9
$MAXACTVP
 70
    64
  9
$PINSBASE
 10
0.0
 20
0.0
 30
0.0
  9
$PLIMCHECK
 70
     0
  9
$PEXTMIN
 10
1.000000E+20
 20
1.000000E+20
 30
1.000000E+20
  9
$PEXTMAX
 10
-1.000000E+20
 20
-1.000000E+20
 30
-1.000000E+20
  9
$PLIMMIN
 10
0.0
 20
0.0
  9
$PLIMMAX
 10
420.0
 20
297.0
  9
$UNITMODE
 70
     0
  9
$VISRETAIN
 70
     1
  9
$PLINEGEN
 70
     0
  9
$PSLTSCALE
 70
     1
  9
$TREEDEPTH
 70
  3020
  9
$CMLSTYLE
  2
Standard
  9
$CMLJUST
 70
     0
  9
$CMLSCALE
 40
20.0
  9
$PROXYGRAPHICS
 70
     1
  9
$MEASUREMENT
 70
     1
  9
$CELWEIGHT
370
    -1
  9
$ENDCAPS
280
     0
  9
$JOINSTYLE
280
     0
  9
$LWDISPLAY
290
     0
  9
$INSUNITS
 70
     4
  9
$HYPERLINKBASE
  1

  9
$STYLESHEET
  1

  9
$XEDIT
290
     1
  9
$CEPSNTYPE
380
     0
  9
$PSTYLEMODE
290
     1
  9
$FINGERPRINTGUID
  2
{68235DCF-5EA1-49B0-BB41-7EAD53D6D060}
  9
$VERSIONGUID
  2
{FAEB1C32-E019-11D5-929B-00C0DF256EC4}
  9
$EXTNAMES
290
     1
  9
$PSVPSCALE
 40
0.0
  9
$OLESTARTUP
290
     0
  9
$SORTENTS
280
   127
  9
$INDEXCTL
280
     0
  9
$HIDETEXT
280
     1
  9
$XCLIPFRAME
290
     0
  9
$HALOGAP
280
     0
  9
$OBSCOLOR
 70
   257
  9
$OBSLTYPE
280
     0
  9
$INTERSECTIONDISPLAY
280
     0
  9
$INTERSECTIONCOLOR
 70
   257
  9
$DIMASSOC
280
     2
  9
$PROJECTNAME
  1

  0
ENDSEC
  0
SECTION
  2
CLASSES
  0
CLASS
  1
ACDBDICTIONARYWDFLT
  2
AcDbDictionaryWithDefault
  3
ObjectDBX Classes
 90
        0
 91
        4
280
     0
281
     0
  0
CLASS
  1
VISUALSTYLE
  2
AcDbVisualStyle
  3
ObjectDBX Classes
 90
     4095
 91
        4
280
     0
281
     0
  0
ENDSEC
  0
SECTION
  2
TABLES
  0
TABLE
  2
VPORT
  5
8
330
0
100
AcDbSymbolTable
 70
     1
  0
VPORT
  5
29
330
8
100
AcDbSymbolTableRecord
100
AcDbViewportTableRecord
  2
*Active
 70
     0
 10
0.0
 20
0.0
 11
1.0
 21
1.0
 12
344.186916
 22
148.5
 13
0.0
 23
0.0
 14
10.0
 24
10.0
 15
10.0
 25
10.0
 16
0.0
 26
0.0
 36
1.0
 17
0.0
 27
0.0
 37
0.0
 40
297.0
 41
1.972973
 42
50.0
 43
0.0
 44
0.0
 50
0.0
 51
0.0
 71
     0
 72
   100
 73
     1
 74
     3
 75
     0
 76
     0
 77
     0
 78
     0
281
     0
 65
     1
110
0.0
120
0.0
130
0.0
111
1.0
121
0.0
131
0.0
112
0.0
122
1.0
132
0.0
 79
     0
146
0.0
  0
ENDTAB
  0
TABLE
  2
LTYPE
  5
5
330
0
100
AcDbSymbolTable
 70
     1
  0
LTYPE
  5
14
330
5
100
AcDbSymbolTableRecord
100
AcDbLinetypeTableRecord
  2
ByBlock
 70
     0
  3

 72
    65
 73
     0
 40
0.0
  0
LTYPE
  5
15
330
5
100
AcDbSymbolTableRecord
100
AcDbLinetypeTableRecord
  2
ByLayer
 70
     0
  3

 72
    65
 73
     0
 40
0.0
  0
LTYPE
  5
16
330
5
100
AcDbSymbolTableRecord
100
AcDbLinetypeTableRecord
  2
Continuous
 70
     0
  3
Solid line
 72
    65
 73
     0
 40
0.0
  0
ENDTAB
  0
TABLE
  2
LAYER
  5
2
330
0
100
AcDbSymbolTable
 70
     1
  0
LAYER
  5
10
330
2
100
AcDbSymbolTableRecord
100
AcDbLayerTableRecord
  2
0
 70
     0
 62
   106
  6
Continuous
370
     0
390
F
  0
ENDTAB
  0
TABLE
  2
STYLE
  5
3
330
0
100
AcDbSymbolTable
 70
     4
  0
STYLE
  5
11
330
3
100
AcDbSymbolTableRecord
100
AcDbTextStyleTableRecord
  2
Standard
 70
     0
 40
0.0
 41
1.0
 50
0.0
 71
     0
 42
2.5
  3
txt
  4

  0
STYLE
  5
3B
330
3
100
AcDbSymbolTableRecord
100
AcDbTextStyleTableRecord
  2
Default
 70
     0
 40
0.0
 41
1.0
 50
0.0
 71
     0
 42
0.2
  3

  4

1001
ACAD
1000
txt
1071
        0
  0
STYLE
  5
3C
330
3
100
AcDbSymbolTableRecord
100
AcDbTextStyleTableRecord
  2
ISO
 70
     0
 40
0.0
 41
1.0
 50
0.0
 71
     0
 42
0.2
  3

  4

1001
ACAD
1000
txt
1071
        0
  0
STYLE
  5
3D
330
3
100
AcDbSymbolTableRecord
100
AcDbTextStyleTableRecord
  2
GIANLU
 70
     0
 40
0.0
 41
1.0
 50
0.0
 71
     0
 42
0.2
  3

  4

1001
ACAD
1000
Arial
1071
 33554432
  0
ENDTAB
  0
TABLE
  2
VIEW
  5
6
330
0
100
AcDbSymbolTable
 70
     0
  0
ENDTAB
  0
TABLE
  2
UCS
  5
7
330
0
100
AcDbSymbolTable
 70
     0
  0
ENDTAB
  0
TABLE
  2
APPID
  5
9
330
0
100
AcDbSymbolTable
 70
     1
  0
APPID
  5
12
330
9
100
AcDbSymbolTableRecord
100
AcDbRegAppTableRecord
  2
ACAD
 70
     0
  0
ENDTAB
  0
TABLE
  2
DIMSTYLE
  5
A
330
0
100
AcDbSymbolTable
 70
     4
100
AcDbDimStyleTable
  0
DIMSTYLE
105
27
330
A
100
AcDbSymbolTableRecord
100
AcDbDimStyleTableRecord
  2
ISO-25
 70
     0
 41
2.5
 42
0.625
 43
3.75
 44
1.25
 73
     0
 74
     0
 77
     1
 78
     8
140
2.5
141
2.5
143
0.03937
147
0.625
171
     3
172
     1
271
     2
272
     2
274
     3
278
    44
283
     0
284
     8
340
11
  0
DIMSTYLE
105
3E
330
A
100
AcDbSymbolTableRecord
100
AcDbDimStyleTableRecord
  2
Default
 70
     0
  3
<>
 41
4.375
 42
1.05
 44
2.1
 73
     0
 74
     0
 77
     1
 78
     8
140
3.5
146
0.4
147
1.75
178
     3
271
     2
272
     3
284
     8
340
3B
341
3F
342
3F
  0
DIMSTYLE
105
46
330
A
100
AcDbSymbolTableRecord
100
AcDbDimStyleTableRecord
  2
ISO
 70
     0
  3
<>
 41
4.375
 42
1.05
 44
2.1
 73
     0
 74
     0
 77
     1
 78
     8
140
3.5
146
0.4
147
1.75
178
     3
271
     2
272
     3
284
     8
340
3C
341
3F
342
3F
  0
DIMSTYLE
105
47
330
A
100
AcDbSymbolTableRecord
100
AcDbDimStyleTableRecord
  2
zucchetti_unico
 70
     0
  3
<>
 41
3.0
 42
0.9
 44
1.8
 73
     0
 74
     0
 77
     1
 78
     8
140
3.0
146
0.6
147
1.5
176
     3
177
     3
178
     3
271
     2
272
     2
284
     8
340
3D
  0
ENDTAB
  0
TABLE
  2
BLOCK_RECORD
  5
1
330
0
100
AcDbSymbolTable
 70
     7
  0
BLOCK_RECORD
  5
1F
330
1
100
AcDbSymbolTableRecord
100
AcDbBlockTableRecord
  2
*Model_Space
340
22
  0
BLOCK_RECORD
  5
1B
330
1
100
AcDbSymbolTableRecord
100
AcDbBlockTableRecord
  2
*Paper_Space
340
1E
  0
BLOCK_RECORD
  5
23
330
1
100
AcDbSymbolTableRecord
100
AcDbBlockTableRecord
  2
*Paper_Space0
340
26
  0
BLOCK_RECORD
  5
3F
330
1
100
AcDbSymbolTableRecord
100
AcDbBlockTableRecord
  2
_CLOSED
340
0
  0
BLOCK_RECORD
  5
48
330
1
100
AcDbSymbolTableRecord
100
AcDbBlockTableRecord
  2
a
340
0
102
{BLKREFS
331
12D
102
}
  0
BLOCK_RECORD
  5
12E
330
1
100
AcDbSymbolTableRecord
100
AcDbBlockTableRecord
  2
b
340
0
102
{BLKREFS
331
133
102
}
  0
BLOCK_RECORD
  5
134
330
1
100
AcDbSymbolTableRecord
100
AcDbBlockTableRecord
  2
c
340
0
102
{BLKREFS
331
1C2
102
}
  0
BLOCK_RECORD
  5
1C3
330
1
100
AcDbSymbolTableRecord
100
AcDbBlockTableRecord
  2
d
340
0
102
{BLKREFS
331
2A4
102
}
  0
BLOCK_RECORD
  5
2A5
330
1
100
AcDbSymbolTableRecord
100
AcDbBlockTableRecord
  2
e
340
0
102
{BLKREFS
331
332
102
}
  0
ENDTAB
  0
ENDSEC
  0
SECTION
  2
BLOCKS
  0
BLOCK
  5
20
330
1F
100
AcDbEntity
  8
0
100
AcDbBlockBegin
  2
*Model_Space
 70
     0
 10
0.0
 20
0.0
 30
0.0
  3
*Model_Space
  1

  0
ENDBLK
  5
21
330
1F
100
AcDbEntity
  8
0
100
AcDbBlockEnd
  0
BLOCK
  5
1C
330
1B
100
AcDbEntity
 67
     1
  8
0
100
AcDbBlockBegin
  2
*Paper_Space
 70
     0
 10
0.0
 20
0.0
 30
0.0
  3
*Paper_Space
  1

  0
ENDBLK
  5
1D
330
1B
100
AcDbEntity
 67
     1
  8
0
100
AcDbBlockEnd
  0
BLOCK
  5
24
330
23
100
AcDbEntity
  8
0
100
AcDbBlockBegin
  2
*Paper_Space0
 70
     0
 10
0.0
 20
0.0
 30
0.0
  3
*Paper_Space0
  1

  0
ENDBLK
  5
25
330
23
100
AcDbEntity
  8
0
100
AcDbBlockEnd
  0
BLOCK
  5
40
330
3F
100
AcDbEntity
  8
0
100
AcDbBlockBegin
  2
_CLOSED
 70
     0
 10
0.0
 20
0.0
 30
0.0
  3
_CLOSED
  1

  0
LINE
  5
42
330
3F
100
AcDbEntity
  8
0
  6
ByBlock
 62
     0
370
    -2
100
AcDbLine
 10
-1.0
 20
0.166667
 30
0.0
 11
0.0
 21
0.0
 31
0.0
  0
LINE
  5
43
330
3F
100
AcDbEntity
  8
0
  6
ByBlock
 62
     0
370
    -2
100
AcDbLine
 10
0.0
 20
0.0
 30
0.0
 11
-1.0
 21
-0.166667
 31
0.0
  0
LINE
  5
44
330
3F
100
AcDbEntity
  8
0
  6
ByBlock
 62
     0
370
    -2
100
AcDbLine
 10
-1.0
 20
0.166667
 30
0.0
 11
-1.0
 21
-0.166667
 31
0.0
  0
LINE
  5
45
330
3F
100
AcDbEntity
  8
0
  6
ByBlock
 62
     0
370
    -2
100
AcDbLine
 10
0.0
 20
0.0
 30
0.0
 11
-1.0
 21
0.0
 31
0.0
  0
ENDBLK
  5
41
330
3F
100
AcDbEntity
  8
0
100
AcDbBlockEnd
  0
BLOCK
  5
12B
330
48
100
AcDbEntity
  8
0
100
AcDbBlockBegin
  2
a
 70
     0
 10
292.425201
 20
118.046913
 30
0.0
  3
a
  1

  0
LINE
  5
49
330
48
100
AcDbEntity
  8
0
  6
Continuous
 62
     0
370
     0
100
AcDbLine
 10
343.175288
 20
525.898407
 30
0.0
 11
343.172781
 21
525.898407
 31
0.0
  0
LINE
  5
4A
330
48
100
AcDbEntity
  8
0
  6
Continuous
 62
     0
370
     0
100
AcDbLine
 10
343.172781
 20
525.898407
 30
0.0
 11
319.175288
 21
525.898407
 31
0.0
  0
LINE
  5
4B
330
48
100
AcDbEntity
  8
0
  6
Continuous
 62
     0
370
    30
100
AcDbLine
 10
319.175288
 20
347.898407
 30
0.0
 11
343.175288
 21
347.898407
 31
0.0
  0
LWPOLYLINE
  5
4C
330
48
100
AcDbEntity
  8
0
  6
Continuous
 62
     0
370
    30
100
AcDbPolyline
 90
       18
 70
     0
 43
0.0
 10
329.68161
 20
459.398407
 10
329.702789
 20
459.627869
 10
329.765991
 20
459.850128
 10
329.868896
 20
460.056519
 10
330.007355
 20
460.240173
 10
330.176758
 20
460.395081
 10
330.371918
 20
460.515594
 10
330.585754
 20
460.598328
 10
330.811035
 20
460.641663
 10
331.040741
 20
460.642273
 10
331.266785
 20
460.601532
 10
331.481079
 20
460.519043
 10
331.677643
 20
460.400146
 10
331.848755
 20
460.246552
 10
331.98877
 20
460.063782
 10
332.093231
 20
459.858002
 10
332.158081
 20
459.636139
 10
332.181091
 20
459.398376
  0
LWPOLYLINE
  5
4D
330
48
100
AcDbEntity
  8
0
  6
Continuous
 62
     0
370
    30
100
AcDbPolyline
 90
       18
 70
     0
 43
0.0
 10
332.181091
 20
459.398376
 10
332.159698
 20
459.168976
 10
332.096283
 20
458.946686
 10
331.993286
 20
458.740204
 10
331.854462
 20
458.556549
 10
331.684448
 20
458.401794
 10
331.488861
 20
458.281311
 10
331.27478
 20
458.198425
 10
331.049347
 20
458.155212
 10
330.819672
 20
458.15451
 10
330.593842
 20
458.195221
 10
330.379913
 20
458.27771
 10
330.183685
 20
458.396454
 10
330.013092
 20
458.549957
 10
329.873474
 20
458.732666
 10
329.769287
 20
458.938354
 10
329.704559
 20
459.160126
 10
329.68161
 20
459.398407
  0
LWPOLYLINE
  5
4E
330
48
100
AcDbEntity
  8
0
  6
Continuous
 62
     0
370
    30
100
AcDbPolyline
 90
       18
 70
     0
 43
0.0
 10
329.68161
 20
464.698395
 10
329.702789
 20
464.927856
 10
329.765991
 20
465.150146
 10
329.868896
 20
465.356506
 10
330.007355
 20
465.540192
 10
330.176758
 20
465.695099
 10
330.371918
 20
465.815613
 10
330.585754
 20
465.898315
 10
330.811035
 20
465.941681
 10
331.040741
 20
465.942261
 10
331.266785
 20
465.90152
 10
331.481079
 20
465.819061
 10
331.677643
 20
465.700134
 10
331.848755
 20
465.54657
 10
331.98877
 20
465.36377
 10
332.093231
 20
465.15799
 10
332.158081
 20
464.936157
 10
332.181091
 20
464.698395
  0
LWPOLYLINE
  5
4F
330
48
100
AcDbEntity
  8
0
  6
Continuous
 62
     0
370
    30
100
AcDbPolyline
 90
       18
 70
     0
 43
0.0
 10
332.181091
 20
464.698395
 10
332.159698
 20
464.468964
 10
332.096283
 20
464.246704
 10
331.993286
 20
464.040192
 10
331.854462
 20
463.856537
 10
331.684448
 20
463.701813
 10
331.488861
 20
463.581299
 10
331.27478
 20
463.498413
 10
331.049347
 20
463.4552
 10
330.819672
 20
463.454498
 10
330.593842
 20
463.495239
 10
330.379913
 20
463.577728
 10
330.183685
 20
463.696442
 10
330.013092
 20
463.849945
 10
329.873474
 20
464.032684
 10
329.769287
 20
464.238342
 10
329.704559
 20
464.460144
 10
329.68161
 20
464.698395
  0
LWPOLYLINE
  5
50
330
48
100
AcDbEntity
  8
0
  6
Continuous
 62
     0
370
    30
100
AcDbPolyline
 90
       18
 70
     0
 43
0.0
 10
329.68161
 20
469.998413
 10
329.702789
 20
470.227875
 10
329.765991
 20
470.450134
 10
329.868896
 20
470.656525
 10
330.007355
 20
470.840179
 10
330.176758
 20
470.995087
 10
330.371918
 20
471.115601
 10
330.585754
 20
471.198334
 10
330.811035
 20
471.241669
 10
331.040741
 20
471.242279
 10
331.266785
 20
471.201538
 10
331.481079
 20
471.119049
 10
331.677643
 20
471.000122
 10
331.848755
 20
470.846558
 10
331.98877
 20
470.663788
 10
332.093231
 20
470.458008
 10
332.158081
 20
470.236145
 10
332.181091
 20
469.998383
  0
LWPOLYLINE
  5
51
330
48
100
AcDbEntity
  8
0
  6
Continuous
 62
     0
370
    30
100
AcDbPolyline
 90
       18
 70
     0
 43
0.0
 10
332.181091
 20
469.998383
 10
332.159698
 20
469.768982
 10
332.096283
 20
469.546692
 10
331.993286
 20
469.34021
 10
331.854462
 20
469.156525
 10
331.684448
 20
469.001801
 10
331.488861
 20
468.881287
 10
331.27478
 20
468.798431
 10
331.049347
 20
468.755188
 10
330.819672
 20
468.754517
 10
330.593842
 20
468.795227
 10
330.379913
 20
468.877716
 10
330.183685
 20
468.99646
 10
330.013092
 20
469.149963
 10
329.873474
 20
469.332672
 10
329.769287
 20
469.538361
 10
329.704559
 20
469.760132
 10
329.68161
 20
469.998413
  0
LWPOLYLINE
  5
52
330
48
100
AcDbEntity
  8
0
  6
Continuous
 62
     0
370
    30
100
AcDbPolyline
 90
       18
 70
     0
 43
0.0
 10
329.68161
 20
475.298401
 10
329.702789
 20
475.527863
 10
329.765991
 20
475.750122
 10
329.868896
 20
475.956512
 10
330.007355
 20
476.140167
 10
330.176758
 20
476.295105
 10
330.371918
 20
476.415619
 10
330.585754
 20
476.498322
 10
330.811035
 20
476.541656
 10
331.040741
 20
476.542267
 10
331.266785
 20
476.501526
 10
331.481079
 20
476.419067
 10
331.677643
 20
476.30014
 10
331.848755
 20
476.146576
 10
331.98877
 20
475.963776
 10
332.093231
 20
475.757996
 10
332.158081
 20
475.536133
 10
332.181091
 20
475.29837
  0
LWPOLYLINE
  5
53
330
48
100
AcDbEntity
  8
0
  6
Continuous
 62
     0
370
    30
100
AcDbPolyline
 90
       18
 70
     0
 43
0.0
 10
332.181091
 20
475.29837
 10
332.159698
 20
475.06897
 10
332.096283
 20
474.84671
 10
331.993286
 20
474.640198
 10
331.854462
 20
474.456543
 10
331.684448
 20
474.301819
 10
331.488861
 20
474.181305
 10
331.27478
 20
474.098419
 10
331.049347
 20
474.055206
 10
330.819672
 20
474.054504
 10
330.593842
 20
474.095245
 10
330.379913
 20
474.177734
 10
330.183685
 20
474.296448
 10
330.013092
 20
474.449951
 10
329.873474
 20
474.63269
 10
329.769287
 20
474.838348
 10
329.704559
 20
475.06012
 10
329.68161
 20
475.298401
  0
LWPOLYLINE
  5
54
330
48
100
AcDbEntity
  8
0
  6
Continuous
 62
     0
370
    30
100
AcDbPolyline
 90
       18
 70
     0
 43
0.0
 10
329.68161
 20
480.598419
 10
329.702789
 20
480.827881
 10
329.765991
 20
481.05014
 10
329.868896
 20
481.2565
 10
330.007355
 20
481.440186
 10
330.176758
 20
481.595093
 10
330.371918
 20
481.715607
 10
330.585754
 20
481.798309
 10
330.811035
 20
481.841675
 10
331.040741
 20
481.842255
 10
331.266785
 20
481.801544
 10
331.481079
 20
481.719055
 10
331.677643
 20
481.600128
 10
331.848755
 20
481.446564
 10
331.98877
 20
481.263794
 10
332.093231
 20
481.058014
 10
332.158081
 20
480.836151
 10
332.181091
 20
480.598389
  0
LWPOLYLINE
  5
55
330
48
100
AcDbEntity
  8
0
  6
Continuous
 62
     0
370
    30
100
AcDbPolyline
 90
       18
 70
     0
 43
0.0
 10
332.181091
 20
480.598389
 10
332.159698
 20
480.368988
 10
332.096283
 20
480.146698
 10
331.993286
 20
479.940186
 10
331.854462
 20
479.756531
 10
331.684448
 20
479.601807
 10
331.488861
 20
479.481293
 10
331.27478
 20
479.398438
 10
331.049347
 20
479.355194
 10
330.819672
 20
479.354492
 10
330.593842
 20
479.395233
 10
330.379913
 20
479.477722
 10
330.183685
 20
479.596466
 10
330.013092
 20
479.749969
 10
329.873474
 20
479.932678
 10
329.769287
 20
480.138367
 10
329.704559
 20
480.360138
 10
329.68161
 20
480.598419
  0
LWPOLYLINE
  5
56
330
48
100
AcDbEntity
  8
0
  6
Continuous
 62
     0
370
    30
100
AcDbPolyline
 90
       18
 70
     0
 43
0.0
 10
329.68161
 20
485.898407
 10
329.702789
 20
486.127869
 10
329.765991
 20
486.350128
 10
329.868896
 20
486.556519
 10
330.007355
 20
486.740173
 10
330.176758
 20
486.895081
 10
330.371918
 20
487.015594
 10
330.585754
 20
487.098328
 10
330.811035
 20
487.141663
 10
331.040741
 20
487.142273
 10
331.266785
 20
487.101532
 10
331.481079
 20
487.019043
 10
331.677643
 20
486.900146
 10
331.848755
 20
486.746552
 10
331.98877
 20
486.563782
 10
332.093231
 20
486.358002
 10
332.158081
 20
486.136139
 10
332.181091
 20
485.898376
  0
LWPOLYLINE
  5
57
330
48
100
AcDbEntity
  8
0
  6
Continuous
 62
     0
370
    30
100
AcDbPolyline
 90
       18
 70
     0
 43
0.0
 10
332.181091
 20
485.898376
 10
332.159698
 20
485.668976
 10
332.096283
 20
485.446686
 10
331.993286
 20
485.240204
 10
331.854462
 20
485.056549
 10
331.684448
 20
484.901794
 10
331.488861
 20
484.781311
 10
331.27478
 20
484.698425
 10
331.049347
 20
484.655212
 10
330.819672
 20
484.65451
 10
330.593842
 20
484.695221
 10
330.379913
 20
484.77771
 10
330.183685
 20
484.896454
 10
330.013092
 20
485.049957
 10
329.873474
 20
485.232666
 10
329.769287
 20
485.438354
 10
329.704559
 20
485.660126
 10
329.68161
 20
485.898407
  0
LWPOLYLINE
  5
58
330
48
100
AcDbEntity
  8
0
  6
Continuous
 62
     0
370
    30
100
AcDbPolyline
 90
       18
 70
     0
 43
0.0
 10
329.68161
 20
491.198395
 10
329.702789
 20
491.427856
 10
329.765991
 20
491.650146
 10
329.868896
 20
491.856506
 10
330.007355
 20
492.040192
 10
330.176758
 20
492.195099
 10
330.371918
 20
492.315613
 10
330.585754
 20
492.398315
 10
330.811035
 20
492.441681
 10
331.040741
 20
492.442261
 10
331.266785
 20
492.40152
 10
331.481079
 20
492.319061
 10
331.677643
 20
492.200134
 10
331.848755
 20
492.04657
 10
331.98877
 20
491.86377
 10
332.093231
 20
491.65799
 10
332.158081
 20
491.436157
 10
332.181091
 20
491.198395
  0
LWPOLYLINE
  5
59
330
48
100
AcDbEntity
  8
0
  6
Continuous
 62
     0
370
    30
100
AcDbPolyline
 90
       18
 70
     0
 43
0.0
 10
332.181091
 20
491.198395
 10
332.159698
 20
490.968964
 10
332.096283
 20
490.746704
 10
331.993286
 20
490.540192
 10
331.854462
 20
490.356537
 10
331.684448
 20
490.201813
 10
331.488861
 20
490.081299
 10
331.27478
 20
489.998413
 10
331.049347
 20
489.9552
 10
330.819672
 20
489.954498
 10
330.593842
 20
489.995239
 10
330.379913
 20
490.077728
 10
330.183685
 20
490.196442
 10
330.013092
 20
490.349945
 10
329.873474
 20
490.532684
 10
329.769287
 20
490.738342
 10
329.704559
 20
490.960144
 10
329.68161
 20
491.198395
  0
LWPOLYLINE
  5
5A
330
48
100
AcDbEntity
  8
0
  6
Continuous
 62
     0
370
    30
100
AcDbPolyline
 90
       18
 70
     0
 43
0.0
 10
329.68161
 20
496.498413
 10
329.702789
 20
496.727875
 10
329.765991
 20
496.950134
 10
329.868896
 20
497.156525
 10
330.007355
 20
497.340179
 10
330.176758
 20
497.495087
 10
330.371918
 20
497.615601
 10
330.585754
 20
497.698334
 10
330.811035
 20
497.741669
 10
331.040741
 20
497.742279
 10
331.266785
 20
497.701538
 10
331.481079
 20
497.619049
 10
331.677643
 20
497.500122
 10
331.848755
 20
497.346558
 10
331.98877
 20
497.163788
 10
332.093231
 20
496.958008
 10
332.158081
 20
496.736145
 10
332.181091
 20
496.498383
  0
LWPOLYLINE
  5
5B
330
48
100
AcDbEntity
  8
0
  6
Continuous
 62
     0
370
    30
100
AcDbPolyline
 90
       18
 70
     0
 43
0.0
 10
332.181091
 20
496.498383
 10
332.159698
 20
496.268982
 10
332.096283
 20
496.046692
 10
331.993286
 20
495.84021
 10
331.854462
 20
495.656525
 10
331.684448
 20
495.501801
 10
331.488861
 20
495.381287
 10
331.27478
 20
495.298431
 10
331.049347
 20
495.255188
 10
330.819672
 20
495.254517
 10
330.593842
 20
495.295227
 10
330.379913
 20
495.377716
 10
330.183685
 20
495.49646
 10
330.013092
 20
495.649963
 10
329.873474
 20
495.832672
 10
329.769287
 20
496.038361
 10
329.704559
 20
496.260132
 10
329.68161
 20
496.498413
  0
LWPOLYLINE
  5
5C
330
48
100
AcDbEntity
  8
0
  6
Continuous
 62
     0
370
    30
100
AcDbPolyline
 90
       18
 70
     0
 43
0.0
 10
329.68161
 20
501.798401
 10
329.702789
 20
502.027863
 10
329.765991
 20
502.250122
 10
329.868896
 20
502.456512
 10
330.007355
 20
502.640167
 10
330.176758
 20
502.795105
 10
330.371918
 20
502.915619
 10
330.585754
 20
502.998322
 10
330.811035
 20
503.041656
 10
331.040741
 20
503.042267
 10
331.266785
 20
503.001526
 10
331.481079
 20
502.919067
 10
331.677643
 20
502.80014
 10
331.848755
 20
502.646576
 10
331.98877
 20
502.463776
 10
332.093231
 20
502.257996
 10
332.158081
 20
502.036133
 10
332.181091
 20
501.79837
  0
LWPOLYLINE
  5
5D
330
48
100
AcDbEntity
  8
0
  6
Continuous
 62
     0
370
    30
100
AcDbPolyline
 90
       18
 70
     0
 43
0.0
 10
332.181091
 20
501.79837
 10
332.159698
 20
501.56897
 10
332.096283
 20
501.34671
 10
331.993286
 20
501.140198
 10
331.854462
 20
500.956543
 10
331.684448
 20
500.801819
 10
331.488861
 20
500.681305
 10
331.27478
 20
500.598419
 10
331.049347
 20
500.555206
 10
330.819672
 20
500.554504
 10
330.593842
 20
500.595245
 10
330.379913
 20
500.677734
 10
330.183685
 20
500.796448
 10
330.013092
 20
500.949951
 10
329.873474
 20
501.13269
 10
329.769287
 20
501.338348
 10
329.704559
 20
501.56012
 10
329.68161
 20
501.798401
  0
LWPOLYLINE
  5
5E
330
48
100
AcDbEntity
  8
0
  6
Continuous
 62
     0
370
    30
100
AcDbPolyline
 90
       18
 70
     0
 43
0.0
 10
329.68161
 20
507.098419
 10
329.702789
 20
507.327881
 10
329.765991
 20
507.55014
 10
329.868896
 20
507.7565
 10
330.007355
 20
507.940186
 10
330.176758
 20
508.095093
 10
330.371918
 20
508.215607
 10
330.585754
 20
508.298309
 10
330.811035
 20
508.341675
 10
331.040741
 20
508.342255
 10
331.266785
 20
508.301544
 10
331.481079
 20
508.219055
 10
331.677643
 20
508.100128
 10
331.848755
 20
507.946564
 10
331.98877
 20
507.763794
 10
332.093231
 20
507.558014
 10
332.158081
 20
507.336151
 10
332.181091
 20
507.098389
  0
LWPOLYLINE
  5
5F
330
48
100
AcDbEntity
  8
0
  6
Continuous
 62
     0
370
    30
100
AcDbPolyline
 90
       18
 70
     0
 43
0.0
 10
332.181091
 20
507.098389
 10
332.159698
 20
506.868988
 10
332.096283
 20
506.646698
 10
331.993286
 20
506.440186
 10
331.854462
 20
506.256531
 10
331.684448
 20
506.101807
 10
331.488861
 20
505.981293
 10
331.27478
 20
505.898438
 10
331.049347
 20
505.855194
 10
330.819672
 20
505.854492
 10
330.593842
 20
505.895233
 10
330.379913
 20
505.977722
 10
330.183685
 20
506.096466
 10
330.013092
 20
506.249969
 10
329.873474
 20
506.432678
 10
329.769287
 20
506.638367
 10
329.704559
 20
506.860138
 10
329.68161
 20
507.098419
  0
LWPOLYLINE
  5
60
330
48
100
AcDbEntity
  8
0
  6
Continuous
 62
     0
370
    30
100
AcDbPolyline
 90
       18
 70
     0
 43
0.0
 10
329.68161
 20
512.398438
 10
329.702789
 20
512.627869
 10
329.765991
 20
512.850159
 10
329.868896
 20
513.056519
 10
330.007355
 20
513.240173
 10
330.176758
 20
513.395081
 10
330.371918
 20
513.515625
 10
330.585754
 20
513.598328
 10
330.811035
 20
513.641663
 10
331.040741
 20
513.642273
 10
331.266785
 20
513.601501
 10
331.481079
 20
513.519043
 10
331.677643
 20
513.400146
 10
331.848755
 20
513.246582
 10
331.98877
 20
513.063782
 10
332.093231
 20
512.857971
 10
332.158081
 20
512.636169
 10
332.181091
 20
512.398376
  0
LWPOLYLINE
  5
61
330
48
100
AcDbEntity
  8
0
  6
Continuous
 62
     0
370
    30
100
AcDbPolyline
 90
       18
 70
     0
 43
0.0
 10
332.181091
 20
512.398376
 10
332.159698
 20
512.168945
 10
332.096283
 20
511.946686
 10
331.993286
 20
511.740204
 10
331.854462
 20
511.556549
 10
331.684448
 20
511.401794
 10
331.488861
 20
511.281311
 10
331.27478
 20
511.198425
 10
331.049347
 20
511.155212
 10
330.819672
 20
511.15451
 10
330.593842
 20
511.195221
 10
330.379913
 20
511.27771
 10
330.183685
 20
511.396454
 10
330.013092
 20
511.549957
 10
329.873474
 20
511.732666
 10
329.769287
 20
511.938354
 10
329.704559
 20
512.160156
 10
329.68161
 20
512.398438
  0
LWPOLYLINE
  5
62
330
48
100
AcDbEntity
  8
0
  6
Continuous
 62
     0
370
    30
100
AcDbPolyline
 90
       18
 70
     0
 43
0.0
 10
323.928406
 20
459.398407
 10
323.945404
 20
459.627747
 10
323.996246
 20
459.849884
 10
324.079437
 20
460.056183
 10
324.192017
 20
460.239807
 10
324.330933
 20
460.394714
 10
324.492432
 20
460.515289
 10
324.671295
 20
460.597992
 10
324.861725
 20
460.641602
 10
325.058136
 20
460.642365
 10
325.253662
 20
460.60199
 10
325.440918
 20
460.519653
 10
325.614502
 20
460.401062
 10
325.766968
 20
460.247772
 10
325.892731
 20
460.065308
 10
325.987183
 20
459.859802
 10
326.046234
 20
459.638153
 10
326.067444
 20
459.398376
  0
LWPOLYLINE
  5
63
330
48
100
AcDbEntity
  8
0
  6
Continuous
 62
     0
370
    30
100
AcDbPolyline
 90
       18
 70
     0
 43
0.0
 10
326.067444
 20
459.398376
 10
326.048065
 20
459.169098
 10
325.990662
 20
458.94693
 10
325.897858
 20
458.74054
 10
325.773407
 20
458.556915
 10
325.622101
 20
458.402191
 10
325.449524
 20
458.281616
 10
325.26239
 20
458.198761
 10
325.067413
 20
458.155273
 10
324.870941
 20
458.154419
 10
324.679779
 20
458.194763
 10
324.500732
 20
458.27713
 10
324.338074
 20
458.395538
 10
324.197906
 20
458.548737
 10
324.084076
 20
458.73114
 10
323.999573
 20
458.936554
 10
323.947174
 20
459.158112
 10
323.928406
 20
459.398407
  0
LWPOLYLINE
  5
64
330
48
100
AcDbEntity
  8
0
  6
Continuous
 62
     0
370
    30
100
AcDbPolyline
 90
       18
 70
     0
 43
0.0
 10
323.928406
 20
464.698395
 10
323.945404
 20
464.927734
 10
323.996246
 20
465.149902
 10
324.079437
 20
465.356201
 10
324.192017
 20
465.539795
 10
324.330933
 20
465.694702
 10
324.492432
 20
465.815277
 10
324.671295
 20
465.89801
 10
324.861725
 20
465.941589
 10
325.058136
 20
465.942352
 10
325.253662
 20
465.902008
 10
325.440918
 20
465.819641
 10
325.614502
 20
465.70105
 10
325.766968
 20
465.547791
 10
325.892731
 20
465.365295
 10
325.987183
 20
465.15979
 10
326.046234
 20
464.938171
 10
326.067444
 20
464.698395
  0
LWPOLYLINE
  5
65
330
48
100
AcDbEntity
  8
0
  6
Continuous
 62
     0
370
    30
100
AcDbPolyline
 90
       18
 70
     0
 43
0.0
 10
326.067444
 20
464.698395
 10
326.048065
 20
464.469116
 10
325.990662
 20
464.246948
 10
325.897858
 20
464.040527
 10
325.773407
 20
463.856903
 10
325.622101
 20
463.702179
 10
325.449524
 20
463.581604
 10
325.26239
 20
463.498749
 10
325.067413
 20
463.455292
 10
324.870941
 20
463.454407
 10
324.679779
 20
463.494751
 10
324.500732
 20
463.577118
 10
324.338074
 20
463.695526
 10
324.197906
 20
463.848724
 10
324.084076
 20
464.031158
 10
323.999573
 20
464.236542
 10
323.947174
 20
464.458099
 10
323.928406
 20
464.698395
  0
LWPOLYLINE
  5
66
330
48
100
AcDbEntity
  8
0
  6
Continuous
 62
     0
370
    30
100
AcDbPolyline
 90
       18
 70
     0
 43
0.0
 10
323.928406
 20
469.998413
 10
323.945404
 20
470.227753
 10
323.996246
 20
470.44989
 10
324.079437
 20
470.656189
 10
324.192017
 20
470.839813
 10
324.330933
 20
470.99472
 10
324.492432
 20
471.115295
 10
324.671295
 20
471.197998
 10
324.861725
 20
471.241577
 10
325.058136
 20
471.24234
 10
325.253662
 20
471.201996
 10
325.440918
 20
471.119629
 10
325.614502
 20
471.001038
 10
325.766968
 20
470.847778
 10
325.892731
 20
470.665314
 10
325.987183
 20
470.459778
 10
326.046234
 20
470.238159
 10
326.067444
 20
469.998383
  0
LWPOLYLINE
  5
67
330
48
100
AcDbEntity
  8
0
  6
Continuous
 62
     0
370
    30
100
AcDbPolyline
 90
       18
 70
     0
 43
0.0
 10
326.067444
 20
469.998383
 10
326.048065
 20
469.769104
 10
325.990662
 20
469.546936
 10
325.897858
 20
469.340515
 10
325.773407
 20
469.156921
 10
325.622101
 20
469.002197
 10
325.449524
 20
468.881622
 10
325.26239
 20
468.798737
 10
325.067413
 20
468.75528
 10
324.870941
 20
468.754425
 10
324.679779
 20
468.794769
 10
324.500732
 20
468.877136
 10
324.338074
 20
468.995514
 10
324.197906
 20
469.148712
 10
324.084076
 20
469.331146
 10
323.999573
 20
469.53656
 10
323.947174
 20
469.758087
 10
323.928406
 20
469.998413
  0
LWPOLYLINE
  5
68
330
48
100
AcDbEntity
  8
0
  6
Continuous
 62
     0
370
    30
100
AcDbPolyline
 90
       18
 70
     0
 43
0.0
 10
323.928406
 20
475.298401
 10
323.945404
 20
475.52774
 10
323.996246
 20
475.749908
 10
324.079437
 20
475.956177
 10
324.192017
 20
476.139801
 10
324.330933
 20
476.294708
 10
324.492432
 20
476.415283
 10
324.671295
 20
476.497986
 10
324.861725
 20
476.541595
 10
325.058136
 20
476.542358
 10
325.253662
 20
476.501984
 10
325.440918
 20
476.419647
 10
325.614502
 20
476.301056
 10
325.766968
 20
476.147797
 10
325.892731
 20
475.965302
 10
325.987183
 20
475.759796
 10
326.046234
 20
475.538177
 10
326.067444
 20
475.29837
  0
LWPOLYLINE
  5
69
330
48
100
AcDbEntity
  8
0
  6
Continuous
 62
     0
370
    30
100
AcDbPolyline
 90
       18
 70
     0
 43
0.0
 10
326.067444
 20
475.29837
 10
326.048065
 20
475.069092
 10
325.990662
 20
474.846954
 10
325.897858
 20
474.640533
 10
325.773407
 20
474.456909
 10
325.622101
 20
474.302185
 10
325.449524
 20
474.18161
 10
325.26239
 20
474.098755
 10
325.067413
 20
474.055267
 10
324.870941
 20
474.054413
 10
324.679779
 20
474.094757
 10
324.500732
 20
474.177124
 10
324.338074
 20
474.295532
 10
324.197906
 20
474.44873
 10
324.084076
 20
474.631134
 10
323.999573
 20
474.836548
 10
323.947174
 20
475.058105
 10
323.928406
 20
475.298401
  0
LWPOLYLINE
  5
6A
330
48
100
AcDbEntity
  8
0
  6
Continuous
 62
     0
370
    30
100
AcDbPolyline
 90
       18
 70
     0
 43
0.0
 10
323.928406
 20
480.598419
 10
323.945404
 20
480.827728
 10
323.996246
 20
481.049896
 10
324.079437
 20
481.256195
 10
324.192017
 20
481.439789
 10
324.330933
 20
481.594696
 10
324.492432
 20
481.715302
 10
324.671295
 20
481.798004
 10
324.861725
 20
481.841583
 10
325.058136
 20
481.842346
 10
325.253662
 20
481.802002
 10
325.440918
 20
481.719635
 10
325.614502
 20
481.601044
 10
325.766968
 20
481.447784
 10
325.892731
 20
481.265289
 10
325.987183
 20
481.059784
 10
326.046234
 20
480.838165
 10
326.067444
 20
480.598389
  0
LWPOLYLINE
  5
6B
330
48
100
AcDbEntity
  8
0
  6
Continuous
 62
     0
370
    30
100
AcDbPolyline
 90
       18
 70
     0
 43
0.0
 10
326.067444
 20
480.598389
 10
326.048065
 20
480.36911
 10
325.990662
 20
480.146942
 10
325.897858
 20
479.940521
 10
325.773407
 20
479.756927
 10
325.622101
 20
479.602203
 10
325.449524
 20
479.481628
 10
325.26239
 20
479.398743
 10
325.067413
 20
479.355286
 10
324.870941
 20
479.354431
 10
324.679779
 20
479.394745
 10
324.500732
 20
479.477142
 10
324.338074
 20
479.59552
 10
324.197906
 20
479.748718
 10
324.084076
 20
479.931152
 10
323.999573
 20
480.136536
 10
323.947174
 20
480.358093
 10
323.928406
 20
480.598419
  0
LWPOLYLINE
  5
6C
330
48
100
AcDbEntity
  8
0
  6
Continuous
 62
     0
370
    30
100
AcDbPolyline
 90
       18
 70
     0
 43
0.0
 10
323.928406
 20
485.898407
 10
323.945404
 20
486.127747
 10
323.996246
 20
486.349884
 10
324.079437
 20
486.556183
 10
324.192017
 20
486.739807
 10
324.330933
 20
486.894714
 10
324.492432
 20
487.015289
 10
324.671295
 20
487.097992
 10
324.861725
 20
487.141602
 10
325.058136
 20
487.142365
 10
325.253662
 20
487.10199
 10
325.440918
 20
487.019653
 10
325.614502
 20
486.901062
 10
325.766968
 20
486.747772
 10
325.892731
 20
486.565308
 10
325.987183
 20
486.359802
 10
326.046234
 20
486.138153
 10
326.067444
 20
485.898376
  0
LWPOLYLINE
  5
6D
330
48
100
AcDbEntity
  8
0
  6
Continuous
 62
     0
370
    30
100
AcDbPolyline
 90
       18
 70
     0
 43
0.0
 10
326.067444
 20
485.898376
 10
326.048065
 20
485.669098
 10
325.990662
 20
485.44693
 10
325.897858
 20
485.24054
 10
325.773407
 20
485.056915
 10
325.622101
 20
484.902191
 10
325.449524
 20
484.781616
 10
325.26239
 20
484.698761
 10
325.067413
 20
484.655273
 10
324.870941
 20
484.654419
 10
324.679779
 20
484.694763
 10
324.500732
 20
484.77713
 10
324.338074
 20
484.895538
 10
324.197906
 20
485.048737
 10
324.084076
 20
485.23114
 10
323.999573
 20
485.436554
 10
323.947174
 20
485.658112
 10
323.928406
 20
485.898407
  0
LWPOLYLINE
  5
6E
330
48
100
AcDbEntity
  8
0
  6
Continuous
 62
     0
370
    30
100
AcDbPolyline
 90
       18
 70
     0
 43
0.0
 10
323.928406
 20
491.198395
 10
323.945404
 20
491.427734
 10
323.996246
 20
491.649902
 10
324.079437
 20
491.856201
 10
324.192017
 20
492.039795
 10
324.330933
 20
492.194702
 10
324.492432
 20
492.315277
 10
324.671295
 20
492.39801
 10
324.861725
 20
492.441589
 10
325.058136
 20
492.442352
 10
325.253662
 20
492.402008
 10
325.440918
 20
492.319641
 10
325.614502
 20
492.20105
 10
325.766968
 20
492.047791
 10
325.892731
 20
491.865295
 10
325.987183
 20
491.65979
 10
326.046234
 20
491.438171
 10
326.067444
 20
491.198395
  0
LWPOLYLINE
  5
6F
330
48
100
AcDbEntity
  8
0
  6
Continuous
 62
     0
370
    30
100
AcDbPolyline
 90
       18
 70
     0
 43
0.0
 10
326.067444
 20
491.198395
 10
326.048065
 20
490.969116
 10
325.990662
 20
490.746948
 10
325.897858
 20
490.540527
 10
325.773407
 20
490.356903
 10
325.622101
 20
490.202179
 10
325.449524
 20
490.081604
 10
325.26239
 20
489.998749
 10
325.067413
 20
489.955292
 10
324.870941
 20
489.954407
 10
324.679779
 20
489.994751
 10
324.500732
 20
490.077118
 10
324.338074
 20
490.195526
 10
324.197906
 20
490.348724
 10
324.084076
 20
490.531158
 10
323.999573
 20
490.736542
 10
323.947174
 20
490.958099
 10
323.928406
 20
491.198395
  0
LWPOLYLINE
  5
70
330
48
100
AcDbEntity
  8
0
  6
Continuous
 62
     0
370
    30
100
AcDbPolyline
 90
       18
 70
     0
 43
0.0
 10
323.928406
 20
496.498413
 10
323.945404
 20
496.727753
 10
323.996246
 20
496.94989
 10
324.079437
 20
497.156189
 10
324.192017
 20
497.339813
 10
324.330933
 20
497.49472
 10
324.492432
 20
497.615295
 10
324.671295
 20
497.697998
 10
324.861725
 20
497.741577
 10
325.058136
 20
497.74234
 10
325.253662
 20
497.701996
 10
325.440918
 20
497.619629
 10
325.614502
 20
497.501038
 10
325.766968
 20
497.347778
 10
325.892731
 20
497.165314
 10
325.987183
 20
496.959778
 10
326.046234
 20
496.738159
 10
326.067444
 20
496.498383
  0
LWPOLYLINE
  5
71
330
48
100
AcDbEntity
  8
0
  6
Continuous
 62
     0
370
    30
100
AcDbPolyline
 90
       18
 70
     0
 43
0.0
 10
326.067444
 20
496.498383
 10
326.048065
 20
496.269104
 10
325.990662
 20
496.046936
 10
325.897858
 20
495.840515
 10
325.773407
 20
495.656921
 10
325.622101
 20
495.502197
 10
325.449524
 20
495.381622
 10
325.26239
 20
495.298737
 10
325.067413
 20
495.25528
 10
324.870941
 20
495.254425
 10
324.679779
 20
495.294769
 10
324.500732
 20
495.377136
 10
324.338074
 20
495.495514
 10
324.197906
 20
495.648712
 10
324.084076
 20
495.831146
 10
323.999573
 20
496.03656
 10
323.947174
 20
496.258087
 10
323.928406
 20
496.498413
  0
LWPOLYLINE
  5
72
330
48
100
AcDbEntity
  8
0
  6
Continuous
 62
     0
370
    30
100
AcDbPolyline
 90
       18
 70
     0
 43
0.0
 10
323.928406
 20
501.798401
 10
323.945404
 20
502.02774
 10
323.996246
 20
502.249908
 10
324.079437
 20
502.456177
 10
324.192017
 20
502.639801
 10
324.330933
 20
502.794708
 10
324.492432
 20
502.915283
 10
324.671295
 20
502.997986
 10
324.861725
 20
503.041595
 10
325.058136
 20
503.042358
 10
325.253662
 20
503.001984
 10
325.440918
 20
502.919647
 10
325.614502
 20
502.801056
 10
325.766968
 20
502.647797
 10
325.892731
 20
502.465302
 10
325.987183
 20
502.259796
 10
326.046234
 20
502.038177
 10
326.067444
 20
501.79837
  0
LWPOLYLINE
  5
73
330
48
100
AcDbEntity
  8
0
  6
Continuous
 62
     0
370
    30
100
AcDbPolyline
 90
       18
 70
     0
 43
0.0
 10
326.067444
 20
501.79837
 10
326.048065
 20
501.569092
 10
325.990662
 20
501.346954
 10
325.897858
 20
501.140533
 10
325.773407
 20
500.956909
 10
325.622101
 20
500.802185
 10
325.449524
 20
500.68161
 10
325.26239
 20
500.598755
 10
325.067413
 20
500.555267
 10
324.870941
 20
500.554413
 10
324.679779
 20
500.594757
 10
324.500732
 20
500.677124
 10
324.338074
 20
500.795532
 10
324.197906
 20
500.94873
 10
324.084076
 20
501.131134
 10
323.999573
 20
501.336548
 10
323.947174
 20
501.558105
 10
323.928406
 20
501.798401
  0
LWPOLYLINE
  5
74
330
48
100
AcDbEntity
  8
0
  6
Continuous
 62
     0
370
    30
100
AcDbPolyline
 90
       18
 70
     0
 43
0.0
 10
323.928406
 20
507.098419
 10
323.945404
 20
507.327728
 10
323.996246
 20
507.549896
 10
324.079437
 20
507.756195
 10
324.192017
 20
507.939789
 10
324.330933
 20
508.094696
 10
324.492432
 20
508.215302
 10
324.671295
 20
508.298004
 10
324.861725
 20
508.341583
 10
325.058136
 20
508.342346
 10
325.253662
 20
508.302002
 10
325.440918
 20
508.219635
 10
325.614502
 20
508.101044
 10
325.766968
 20
507.947784
 10
325.892731
 20
507.765289
 10
325.987183
 20
507.559784
 10
326.046234
 20
507.338165
 10
326.067444
 20
507.098389
  0
LWPOLYLINE
  5
75
330
48
100
AcDbEntity
  8
0
  6
Continuous
 62
     0
370
    30
100
AcDbPolyline
 90
       18
 70
     0
 43
0.0
 10
326.067444
 20
507.098389
 10
326.048065
 20
506.86911
 10
325.990662
 20
506.646942
 10
325.897858
 20
506.440521
 10
325.773407
 20
506.256927
 10
325.622101
 20
506.102203
 10
325.449524
 20
505.981628
 10
325.26239
 20
505.898743
 10
325.067413
 20
505.855286
 10
324.870941
 20
505.854431
 10
324.679779
 20
505.894745
 10
324.500732
 20
505.977142
 10
324.338074
 20
506.09552
 10
324.197906
 20
506.248718
 10
324.084076
 20
506.431152
 10
323.999573
 20
506.636536
 10
323.947174
 20
506.858093
 10
323.928406
 20
507.098419
  0
LWPOLYLINE
  5
76
330
48
100
AcDbEntity
  8
0
  6
Continuous
 62
     0
370
    30
100
AcDbPolyline
 90
       18
 70
     0
 43
0.0
 10
323.928406
 20
512.398438
 10
323.945404
 20
512.627747
 10
323.996246
 20
512.849915
 10
324.079437
 20
513.056213
 10
324.192017
 20
513.239807
 10
324.330933
 20
513.394714
 10
324.492432
 20
513.51532
 10
324.671295
 20
513.598022
 10
324.861725
 20
513.641602
 10
325.058136
 20
513.642334
 10
325.253662
 20
513.60199
 10
325.440918
 20
513.519653
 10
325.614502
 20
513.401062
 10
325.766968
 20
513.247803
 10
325.892731
 20
513.065308
 10
325.987183
 20
512.859802
 10
326.046234
 20
512.638184
 10
326.067444
 20
512.398376
  0
LWPOLYLINE
  5
77
330
48
100
AcDbEntity
  8
0
  6
Continuous
 62
     0
370
    30
100
AcDbPolyline
 90
       18
 70
     0
 43
0.0
 10
326.067444
 20
512.398376
 10
326.048065
 20
512.169128
 10
325.990662
 20
511.94693
 10
325.897858
 20
511.74054
 10
325.773407
 20
511.556915
 10
325.622101
 20
511.402191
 10
325.449524
 20
511.281616
 10
325.26239
 20
511.198761
 10
325.067413
 20
511.155273
 10
324.870941
 20
511.154419
 10
324.679779
 20
511.194763
 10
324.500732
 20
511.27713
 10
324.338074
 20
511.395538
 10
324.197906
 20
511.548737
 10
324.084076
 20
511.73114
 10
323.999573
 20
511.936554
 10
323.947174
 20
512.158081
 10
323.928406
 20
512.398438
  0
LWPOLYLINE
  5
78
330
48
100
AcDbEntity
  8
0
  6
Continuous
 62
     0
370
    30
100
AcDbPolyline
 90
       18
 70
     0
 43
0.0
 10
335.835083
 20
459.398407
 10
335.854736
 20
459.627838
 10
335.913239
 20
459.850067
 10
336.008209
 20
460.056396
 10
336.135223
 20
460.240051
 10
336.289581
 20
460.394958
 10
336.465881
 20
460.515503
 10
336.657257
 20
460.598206
 10
336.856781
 20
460.641632
 10
337.058044
 20
460.642303
 10
337.253998
 20
460.601685
 10
337.437775
 20
460.519257
 10
337.604736
 20
460.400452
 10
337.748749
 20
460.246979
 10
337.865723
 20
460.064301
 10
337.952484
 20
459.858612
 10
338.006165
 20
459.636841
 10
338.025208
 20
459.398376
  0
LWPOLYLINE
  5
79
330
48
100
AcDbEntity
  8
0
  6
Continuous
 62
     0
370
    30
100
AcDbPolyline
 90
       18
 70
     0
 43
0.0
 10
338.025208
 20
459.398376
 10
338.007599
 20
459.169006
 10
337.955231
 20
458.946777
 10
337.869812
 20
458.740295
 10
337.753967
 20
458.556671
 10
337.610992
 20
458.401947
 10
337.445007
 20
458.281403
 10
337.261505
 20
458.198547
 10
337.066193
 20
458.155243
 10
336.865021
 20
458.15448
 10
336.665039
 20
458.195068
 10
336.473663
 20
458.277527
 10
336.296417
 20
458.396149
 10
336.14093
 20
458.54953
 10
336.012787
 20
458.732178
 10
335.916565
 20
458.937744
 10
335.856506
 20
459.159454
 10
335.835083
 20
459.398407
  0
LWPOLYLINE
  5
7A
330
48
100
AcDbEntity
  8
0
  6
Continuous
 62
     0
370
    30
100
AcDbPolyline
 90
       18
 70
     0
 43
0.0
 10
335.835083
 20
464.698395
 10
335.854736
 20
464.927826
 10
335.913239
 20
465.150055
 10
336.008209
 20
465.356415
 10
336.135223
 20
465.540039
 10
336.289581
 20
465.694977
 10
336.465881
 20
465.815491
 10
336.657257
 20
465.898224
 10
336.856781
 20
465.94165
 10
337.058044
 20
465.942291
 10
337.253998
 20
465.901703
 10
337.437775
 20
465.819244
 10
337.604736
 20
465.700439
 10
337.748749
 20
465.546967
 10
337.865723
 20
465.364288
 10
337.952484
 20
465.1586
 10
338.006165
 20
464.936829
 10
338.025208
 20
464.698395
  0
LWPOLYLINE
  5
7B
330
48
100
AcDbEntity
  8
0
  6
Continuous
 62
     0
370
    30
100
AcDbPolyline
 90
       18
 70
     0
 43
0.0
 10
338.025208
 20
464.698395
 10
338.007599
 20
464.469025
 10
337.955231
 20
464.246796
 10
337.869812
 20
464.040314
 10
337.753967
 20
463.856659
 10
337.610992
 20
463.701935
 10
337.445007
 20
463.58139
 10
337.261505
 20
463.498535
 10
337.066193
 20
463.455231
 10
336.865021
 20
463.454468
 10
336.665039
 20
463.495087
 10
336.473663
 20
463.577515
 10
336.296417
 20
463.696136
 10
336.14093
 20
463.849548
 10
336.012787
 20
464.032166
 10
335.916565
 20
464.237732
 10
335.856506
 20
464.459442
 10
335.835083
 20
464.698395
  0
LWPOLYLINE
  5
7C
330
48
100
AcDbEntity
  8
0
  6
Continuous
 62
     0
370
    30
100
AcDbPolyline
 90
       18
 70
     0
 43
0.0
 10
335.835083
 20
469.998413
 10
335.854736
 20
470.227814
 10
335.913239
 20
470.450043
 10
336.008209
 20
470.656403
 10
336.135223
 20
470.840057
 10
336.289581
 20
470.994965
 10
336.465881
 20
471.115509
 10
336.657257
 20
471.198212
 10
336.856781
 20
471.241638
 10
337.058044
 20
471.24231
 10
337.253998
 20
471.201691
 10
337.437775
 20
471.119263
 10
337.604736
 20
471.000427
 10
337.748749
 20
470.846985
 10
337.865723
 20
470.664307
 10
337.952484
 20
470.458618
 10
338.006165
 20
470.236816
 10
338.025208
 20
469.998383
  0
LWPOLYLINE
  5
7D
330
48
100
AcDbEntity
  8
0
  6
Continuous
 62
     0
370
    30
100
AcDbPolyline
 90
       18
 70
     0
 43
0.0
 10
338.025208
 20
469.998383
 10
338.007599
 20
469.769012
 10
337.955231
 20
469.546783
 10
337.869812
 20
469.340302
 10
337.753967
 20
469.156677
 10
337.610992
 20
469.001923
 10
337.445007
 20
468.881409
 10
337.261505
 20
468.798523
 10
337.066193
 20
468.755219
 10
336.865021
 20
468.754486
 10
336.665039
 20
468.795074
 10
336.473663
 20
468.877533
 10
336.296417
 20
468.996155
 10
336.14093
 20
469.149536
 10
336.012787
 20
469.332153
 10
335.916565
 20
469.53775
 10
335.856506
 20
469.75946
 10
335.835083
 20
469.998413
  0
LWPOLYLINE
  5
7E
330
48
100
AcDbEntity
  8
0
  6
Continuous
 62
     0
370
    30
100
AcDbPolyline
 90
       18
 70
     0
 43
0.0
 10
335.835083
 20
475.298401
 10
335.854736
 20
475.527832
 10
335.913239
 20
475.750061
 10
336.008209
 20
475.95639
 10
336.135223
 20
476.140045
 10
336.289581
 20
476.294952
 10
336.465881
 20
476.415497
 10
336.657257
 20
476.498199
 10
336.856781
 20
476.541626
 10
337.058044
 20
476.542297
 10
337.253998
 20
476.501678
 10
337.437775
 20
476.41925
 10
337.604736
 20
476.300446
 10
337.748749
 20
476.146973
 10
337.865723
 20
475.964294
 10
337.952484
 20
475.758606
 10
338.006165
 20
475.536835
 10
338.025208
 20
475.29837
  0
LWPOLYLINE
  5
7F
330
48
100
AcDbEntity
  8
0
  6
Continuous
 62
     0
370
    30
100
AcDbPolyline
 90
       18
 70
     0
 43
0.0
 10
338.025208
 20
475.29837
 10
338.007599
 20
475.069031
 10
337.955231
 20
474.846771
 10
337.869812
 20
474.64032
 10
337.753967
 20
474.456665
 10
337.610992
 20
474.301941
 10
337.445007
 20
474.181396
 10
337.261505
 20
474.098541
 10
337.066193
 20
474.055237
 10
336.865021
 20
474.054474
 10
336.665039
 20
474.095062
 10
336.473663
 20
474.177521
 10
336.296417
 20
474.296143
 10
336.14093
 20
474.449554
 10
336.012787
 20
474.632172
 10
335.916565
 20
474.837738
 10
335.856506
 20
475.059448
 10
335.835083
 20
475.298401
  0
LWPOLYLINE
  5
80
330
48
100
AcDbEntity
  8
0
  6
Continuous
 62
     0
370
    30
100
AcDbPolyline
 90
       18
 70
     0
 43
0.0
 10
335.835083
 20
480.598419
 10
335.854736
 20
480.82782
 10
335.913239
 20
481.050049
 10
336.008209
 20
481.256409
 10
336.135223
 20
481.440063
 10
336.289581
 20
481.594971
 10
336.465881
 20
481.715485
 10
336.657257
 20
481.798218
 10
336.856781
 20
481.841644
 10
337.058044
 20
481.842285
 10
337.253998
 20
481.801697
 10
337.437775
 20
481.719269
 10
337.604736
 20
481.600433
 10
337.748749
 20
481.446991
 10
337.865723
 20
481.264282
 10
337.952484
 20
481.058594
 10
338.006165
 20
480.836823
 10
338.025208
 20
480.598389
  0
LWPOLYLINE
  5
81
330
48
100
AcDbEntity
  8
0
  6
Continuous
 62
     0
370
    30
100
AcDbPolyline
 90
       18
 70
     0
 43
0.0
 10
338.025208
 20
480.598389
 10
338.007599
 20
480.369019
 10
337.955231
 20
480.14679
 10
337.869812
 20
479.940308
 10
337.753967
 20
479.756653
 10
337.610992
 20
479.601929
 10
337.445007
 20
479.481415
 10
337.261505
 20
479.398529
 10
337.066193
 20
479.355225
 10
336.865021
 20
479.354462
 10
336.665039
 20
479.395081
 10
336.473663
 20
479.477509
 10
336.296417
 20
479.59613
 10
336.14093
 20
479.749542
 10
336.012787
 20
479.932159
 10
335.916565
 20
480.137756
 10
335.856506
 20
480.359436
 10
335.835083
 20
480.598419
  0
LWPOLYLINE
  5
82
330
48
100
AcDbEntity
  8
0
  6
Continuous
 62
     0
370
    30
100
AcDbPolyline
 90
       18
 70
     0
 43
0.0
 10
335.835083
 20
485.898407
 10
335.854736
 20
486.127838
 10
335.913239
 20
486.350067
 10
336.008209
 20
486.556396
 10
336.135223
 20
486.740051
 10
336.289581
 20
486.894958
 10
336.465881
 20
487.015503
 10
336.657257
 20
487.098206
 10
336.856781
 20
487.141632
 10
337.058044
 20
487.142303
 10
337.253998
 20
487.101685
 10
337.437775
 20
487.019257
 10
337.604736
 20
486.900452
 10
337.748749
 20
486.746979
 10
337.865723
 20
486.564301
 10
337.952484
 20
486.358612
 10
338.006165
 20
486.136841
 10
338.025208
 20
485.898376
  0
LWPOLYLINE
  5
83
330
48
100
AcDbEntity
  8
0
  6
Continuous
 62
     0
370
    30
100
AcDbPolyline
 90
       18
 70
     0
 43
0.0
 10
338.025208
 20
485.898376
 10
338.007599
 20
485.669006
 10
337.955231
 20
485.446777
 10
337.869812
 20
485.240295
 10
337.753967
 20
485.056671
 10
337.610992
 20
484.901947
 10
337.445007
 20
484.781403
 10
337.261505
 20
484.698547
 10
337.066193
 20
484.655243
 10
336.865021
 20
484.65448
 10
336.665039
 20
484.695068
 10
336.473663
 20
484.777527
 10
336.296417
 20
484.896149
 10
336.14093
 20
485.04953
 10
336.012787
 20
485.232178
 10
335.916565
 20
485.437744
 10
335.856506
 20
485.659454
 10
335.835083
 20
485.898407
  0
LWPOLYLINE
  5
84
330
48
100
AcDbEntity
  8
0
  6
Continuous
 62
     0
370
    30
100
AcDbPolyline
 90
       18
 70
     0
 43
0.0
 10
335.835083
 20
491.198395
 10
335.854736
 20
491.427826
 10
335.913239
 20
491.650055
 10
336.008209
 20
491.856415
 10
336.135223
 20
492.040039
 10
336.289581
 20
492.194977
 10
336.465881
 20
492.315491
 10
336.657257
 20
492.398224
 10
336.856781
 20
492.44165
 10
337.058044
 20
492.442291
 10
337.253998
 20
492.401703
 10
337.437775
 20
492.319244
 10
337.604736
 20
492.200439
 10
337.748749
 20
492.046967
 10
337.865723
 20
491.864288
 10
337.952484
 20
491.6586
 10
338.006165
 20
491.436829
 10
338.025208
 20
491.198395
  0
LWPOLYLINE
  5
85
330
48
100
AcDbEntity
  8
0
  6
Continuous
 62
     0
370
    30
100
AcDbPolyline
 90
       18
 70
     0
 43
0.0
 10
338.025208
 20
491.198395
 10
338.007599
 20
490.969025
 10
337.955231
 20
490.746796
 10
337.869812
 20
490.540314
 10
337.753967
 20
490.356659
 10
337.610992
 20
490.201935
 10
337.445007
 20
490.08139
 10
337.261505
 20
489.998535
 10
337.066193
 20
489.955231
 10
336.865021
 20
489.954468
 10
336.665039
 20
489.995087
 10
336.473663
 20
490.077515
 10
336.296417
 20
490.196136
 10
336.14093
 20
490.349548
 10
336.012787
 20
490.532166
 10
335.916565
 20
490.737732
 10
335.856506
 20
490.959442
 10
335.835083
 20
491.198395
  0
LWPOLYLINE
  5
86
330
48
100
AcDbEntity
  8
0
  6
Continuous
 62
     0
370
    30
100
AcDbPolyline
 90
       18
 70
     0
 43
0.0
 10
335.835083
 20
496.498413
 10
335.854736
 20
496.727814
 10
335.913239
 20
496.950043
 10
336.008209
 20
497.156403
 10
336.135223
 20
497.340057
 10
336.289581
 20
497.494965
 10
336.465881
 20
497.615509
 10
336.657257
 20
497.698212
 10
336.856781
 20
497.741638
 10
337.058044
 20
497.74231
 10
337.253998
 20
497.701691
 10
337.437775
 20
497.619263
 10
337.604736
 20
497.500427
 10
337.748749
 20
497.346985
 10
337.865723
 20
497.164307
 10
337.952484
 20
496.958618
 10
338.006165
 20
496.736816
 10
338.025208
 20
496.498383
  0
LWPOLYLINE
  5
87
330
48
100
AcDbEntity
  8
0
  6
Continuous
 62
     0
370
    30
100
AcDbPolyline
 90
       18
 70
     0
 43
0.0
 10
338.025208
 20
496.498383
 10
338.007599
 20
496.269012
 10
337.955231
 20
496.046783
 10
337.869812
 20
495.840302
 10
337.753967
 20
495.656677
 10
337.610992
 20
495.501923
 10
337.445007
 20
495.381409
 10
337.261505
 20
495.298523
 10
337.066193
 20
495.255219
 10
336.865021
 20
495.254486
 10
336.665039
 20
495.295074
 10
336.473663
 20
495.377533
 10
336.296417
 20
495.496155
 10
336.14093
 20
495.649536
 10
336.012787
 20
495.832153
 10
335.916565
 20
496.03775
 10
335.856506
 20
496.25946
 10
335.835083
 20
496.498413
  0
LWPOLYLINE
  5
88
330
48
100
AcDbEntity
  8
0
  6
Continuous
 62
     0
370
    30
100
AcDbPolyline
 90
       18
 70
     0
 43
0.0
 10
335.835083
 20
501.798401
 10
335.854736
 20
502.027832
 10
335.913239
 20
502.250061
 10
336.008209
 20
502.45639
 10
336.135223
 20
502.640045
 10
336.289581
 20
502.794952
 10
336.465881
 20
502.915497
 10
336.657257
 20
502.998199
 10
336.856781
 20
503.041626
 10
337.058044
 20
503.042297
 10
337.253998
 20
503.001678
 10
337.437775
 20
502.91925
 10
337.604736
 20
502.800446
 10
337.748749
 20
502.646973
 10
337.865723
 20
502.464294
 10
337.952484
 20
502.258606
 10
338.006165
 20
502.036835
 10
338.025208
 20
501.79837
  0
LWPOLYLINE
  5
89
330
48
100
AcDbEntity
  8
0
  6
Continuous
 62
     0
370
    30
100
AcDbPolyline
 90
       18
 70
     0
 43
0.0
 10
338.025208
 20
501.79837
 10
338.007599
 20
501.569031
 10
337.955231
 20
501.346771
 10
337.869812
 20
501.14032
 10
337.753967
 20
500.956665
 10
337.610992
 20
500.801941
 10
337.445007
 20
500.681396
 10
337.261505
 20
500.598541
 10
337.066193
 20
500.555237
 10
336.865021
 20
500.554474
 10
336.665039
 20
500.595062
 10
336.473663
 20
500.677521
 10
336.296417
 20
500.796143
 10
336.14093
 20
500.949554
 10
336.012787
 20
501.132172
 10
335.916565
 20
501.337738
 10
335.856506
 20
501.559448
 10
335.835083
 20
501.798401
  0
LWPOLYLINE
  5
8A
330
48
100
AcDbEntity
  8
0
  6
Continuous
 62
     0
370
    30
100
AcDbPolyline
 90
       18
 70
     0
 43
0.0
 10
335.835083
 20
507.098419
 10
335.854736
 20
507.32782
 10
335.913239
 20
507.550049
 10
336.008209
 20
507.756409
 10
336.135223
 20
507.940063
 10
336.289581
 20
508.094971
 10
336.465881
 20
508.215485
 10
336.657257
 20
508.298218
 10
336.856781
 20
508.341644
 10
337.058044
 20
508.342285
 10
337.253998
 20
508.301697
 10
337.437775
 20
508.219269
 10
337.604736
 20
508.100433
 10
337.748749
 20
507.946991
 10
337.865723
 20
507.764282
 10
337.952484
 20
507.558594
 10
338.006165
 20
507.336823
 10
338.025208
 20
507.098389
  0
LWPOLYLINE
  5
8B
330
48
100
AcDbEntity
  8
0
  6
Continuous
 62
     0
370
    30
100
AcDbPolyline
 90
       18
 70
     0
 43
0.0
 10
338.025208
 20
507.098389
 10
338.007599
 20
506.869019
 10
337.955231
 20
506.64679
 10
337.869812
 20
506.440308
 10
337.753967
 20
506.256653
 10
337.610992
 20
506.101929
 10
337.445007
 20
505.981415
 10
337.261505
 20
505.898529
 10
337.066193
 20
505.855225
 10
336.865021
 20
505.854462
 10
336.665039
 20
505.895081
 10
336.473663
 20
505.977509
 10
336.296417
 20
506.09613
 10
336.14093
 20
506.249542
 10
336.012787
 20
506.432159
 10
335.916565
 20
506.637756
 10
335.856506
 20
506.859436
 10
335.835083
 20
507.098419
  0
LWPOLYLINE
  5
8C
330
48
100
AcDbEntity
  8
0
  6
Continuous
 62
     0
370
    30
100
AcDbPolyline
 90
       18
 70
     0
 43
0.0
 10
335.835083
 20
512.398438
 10
335.854736
 20
512.627808
 10
335.913239
 20
512.850037
 10
336.008209
 20
513.056396
 10
336.135223
 20
513.240051
 10
336.289581
 20
513.394958
 10
336.465881
 20
513.515503
 10
336.657257
 20
513.598206
 10
336.856781
 20
513.641663
 10
337.058044
 20
513.642273
 10
337.253998
 20
513.601685
 10
337.437775
 20
513.519226
 10
337.604736
 20
513.400452
 10
337.748749
 20
513.246948
 10
337.865723
 20
513.06427
 10
337.952484
 20
512.858582
 10
338.006165
 20
512.636841
 10
338.025208
 20
512.398376
  0
LWPOLYLINE
  5
8D
330
48
100
AcDbEntity
  8
0
  6
Continuous
 62
     0
370
    30
100
AcDbPolyline
 90
       18
 70
     0
 43
0.0
 10
338.025208
 20
512.398376
 10
338.007599
 20
512.169006
 10
337.955231
 20
511.946777
 10
337.869812
 20
511.740295
 10
337.753967
 20
511.556671
 10
337.610992
 20
511.401947
 10
337.445007
 20
511.281403
 10
337.261505
 20
511.198547
 10
337.066193
 20
511.155243
 10
336.865021
 20
511.15448
 10
336.665039
 20
511.195068
 10
336.473663
 20
511.277527
 10
336.296417
 20
511.396149
 10
336.14093
 20
511.54953
 10
336.012787
 20
511.732178
 10
335.916565
 20
511.937744
 10
335.856506
 20
512.159424
 10
335.835083
 20
512.398376
  0
LWPOLYLINE
  5
8E
330
48
100
AcDbEntity
  8
0
  6
Continuous
 62
     0
370
    30
100
AcDbPolyline
 90
       18
 70
     0
 43
0.0
 10
326.650848
 20
461.898407
 10
326.670685
 20
462.127777
 10
326.729645
 20
462.349976
 10
326.825836
 20
462.556396
 10
326.955658
 20
462.740112
 10
327.115356
 20
462.894836
 10
327.300049
 20
463.015289
 10
327.503235
 20
463.098175
 10
327.718414
 20
463.141602
 10
327.938934
 20
463.142334
 10
328.157166
 20
463.101837
 10
328.365021
 20
463.01944
 10
328.556641
 20
462.900726
 10
328.724121
 20
462.747314
 10
328.861786
 20
462.564789
 10
328.964722
 20
462.359161
 10
329.028992
 20
462.137421
 10
329.05191
 20
461.898438
  0
LWPOLYLINE
  5
8F
330
48
100
AcDbEntity
  8
0
  6
Continuous
 62
     0
370
    30
100
AcDbPolyline
 90
       18
 70
     0
 43
0.0
 10
329.05191
 20
461.898438
 10
329.030792
 20
461.669037
 10
328.968292
 20
461.446777
 10
328.866852
 20
461.240326
 10
328.73056
 20
461.05658
 10
328.564178
 20
460.901886
 10
328.373535
 20
460.781342
 10
328.165833
 20
460.698456
 10
327.94812
 20
460.655212
 10
327.727509
 20
460.65448
 10
327.511658
 20
460.695251
 10
327.308167
 20
460.777527
 10
327.122467
 20
460.896332
 10
326.961792
 20
461.049988
 10
326.830566
 20
461.232574
 10
326.732788
 20
461.438141
 10
326.672211
 20
461.659882
 10
326.650848
 20
461.898407
  0
LWPOLYLINE
  5
90
330
48
100
AcDbEntity
  8
0
  6
Continuous
 62
     0
370
    30
100
AcDbPolyline
 90
       18
 70
     0
 43
0.0
 10
326.650848
 20
467.214722
 10
326.670685
 20
467.444092
 10
326.729645
 20
467.66629
 10
326.825836
 20
467.872711
 10
326.955658
 20
468.056427
 10
327.115356
 20
468.211151
 10
327.300049
 20
468.331604
 10
327.503235
 20
468.41449
 10
327.718414
 20
468.457916
 10
327.938934
 20
468.458618
 10
328.157166
 20
468.418121
 10
328.365021
 20
468.335724
 10
328.556641
 20
468.217041
 10
328.724121
 20
468.063629
 10
328.861786
 20
467.881104
 10
328.964722
 20
467.675476
 10
329.028992
 20
467.453735
 10
329.05191
 20
467.214752
  0
LWPOLYLINE
  5
91
330
48
100
AcDbEntity
  8
0
  6
Continuous
 62
     0
370
    30
100
AcDbPolyline
 90
       18
 70
     0
 43
0.0
 10
329.05191
 20
467.214752
 10
329.030792
 20
466.985352
 10
328.968292
 20
466.763092
 10
328.866852
 20
466.55661
 10
328.73056
 20
466.372894
 10
328.564178
 20
466.21817
 10
328.373535
 20
466.097656
 10
328.165833
 20
466.014771
 10
327.94812
 20
465.971527
 10
327.727509
 20
465.970795
 10
327.511658
 20
466.011566
 10
327.308167
 20
466.093842
 10
327.122467
 20
466.212616
 10
326.961792
 20
466.366302
 10
326.830566
 20
466.548889
 10
326.732788
 20
466.754456
 10
326.672211
 20
466.976196
 10
326.650848
 20
467.214722
  0
LWPOLYLINE
  5
92
330
48
100
AcDbEntity
  8
0
  6
Continuous
 62
     0
370
    30
100
AcDbPolyline
 90
       18
 70
     0
 43
0.0
 10
326.650848
 20
472.531006
 10
326.670685
 20
472.760406
 10
326.729645
 20
472.982605
 10
326.825836
 20
473.188995
 10
326.955658
 20
473.372711
 10
327.115356
 20
473.527466
 10
327.300049
 20
473.647888
 10
327.503235
 20
473.730804
 10
327.718414
 20
473.774231
 10
327.938934
 20
473.774933
 10
328.157166
 20
473.734436
 10
328.365021
 20
473.652039
 10
328.556641
 20
473.533356
 10
328.724121
 20
473.379944
 10
328.861786
 20
473.197418
 10
328.964722
 20
472.99176
 10
329.028992
 20
472.77005
 10
329.05191
 20
472.531036
  0
LWPOLYLINE
  5
93
330
48
100
AcDbEntity
  8
0
  6
Continuous
 62
     0
370
    30
100
AcDbPolyline
 90
       18
 70
     0
 43
0.0
 10
329.05191
 20
472.531036
 10
329.030792
 20
472.301636
 10
328.968292
 20
472.079407
 10
328.866852
 20
471.872925
 10
328.73056
 20
471.689209
 10
328.564178
 20
471.534485
 10
328.373535
 20
471.413971
 10
328.165833
 20
471.331085
 10
327.94812
 20
471.287842
 10
327.727509
 20
471.287079
 10
327.511658
 20
471.32785
 10
327.308167
 20
471.410156
 10
327.122467
 20
471.528931
 10
326.961792
 20
471.682587
 10
326.830566
 20
471.865204
 10
326.732788
 20
472.07077
 10
326.672211
 20
472.292511
 10
326.650848
 20
472.531006
  0
LWPOLYLINE
  5
94
330
48
100
AcDbEntity
  8
0
  6
Continuous
 62
     0
370
    30
100
AcDbPolyline
 90
       18
 70
     0
 43
0.0
 10
326.650848
 20
477.847321
 10
326.670685
 20
478.076691
 10
326.729645
 20
478.29892
 10
326.825836
 20
478.50531
 10
326.955658
 20
478.689026
 10
327.115356
 20
478.84375
 10
327.300049
 20
478.964203
 10
327.503235
 20
479.047089
 10
327.718414
 20
479.090515
 10
327.938934
 20
479.091248
 10
328.157166
 20
479.050751
 10
328.365021
 20
478.968353
 10
328.556641
 20
478.84964
 10
328.724121
 20
478.696259
 10
328.861786
 20
478.513733
 10
328.964722
 20
478.308075
 10
329.028992
 20
478.086365
 10
329.05191
 20
477.847351
  0
LWPOLYLINE
  5
95
330
48
100
AcDbEntity
  8
0
  6
Continuous
 62
     0
370
    30
100
AcDbPolyline
 90
       18
 70
     0
 43
0.0
 10
329.05191
 20
477.847351
 10
329.030792
 20
477.61795
 10
328.968292
 20
477.395691
 10
328.866852
 20
477.18924
 10
328.73056
 20
477.005524
 10
328.564178
 20
476.8508
 10
328.373535
 20
476.730286
 10
328.165833
 20
476.647369
 10
327.94812
 20
476.604126
 10
327.727509
 20
476.603394
 10
327.511658
 20
476.644165
 10
327.308167
 20
476.72644
 10
327.122467
 20
476.845245
 10
326.961792
 20
476.998901
 10
326.830566
 20
477.181519
 10
326.732788
 20
477.387085
 10
326.672211
 20
477.608826
 10
326.650848
 20
477.847321
  0
LWPOLYLINE
  5
96
330
48
100
AcDbEntity
  8
0
  6
Continuous
 62
     0
370
    30
100
AcDbPolyline
 90
       18
 70
     0
 43
0.0
 10
326.650848
 20
483.163635
 10
326.670685
 20
483.393005
 10
326.729645
 20
483.615204
 10
326.825836
 20
483.821625
 10
326.955658
 20
484.005341
 10
327.115356
 20
484.160065
 10
327.300049
 20
484.280518
 10
327.503235
 20
484.363403
 10
327.718414
 20
484.40683
 10
327.938934
 20
484.407562
 10
328.157166
 20
484.367065
 10
328.365021
 20
484.284668
 10
328.556641
 20
484.165955
 10
328.724121
 20
484.012543
 10
328.861786
 20
483.830017
 10
328.964722
 20
483.62439
 10
329.028992
 20
483.402649
 10
329.05191
 20
483.163666
  0
LWPOLYLINE
  5
97
330
48
100
AcDbEntity
  8
0
  6
Continuous
 62
     0
370
    30
100
AcDbPolyline
 90
       18
 70
     0
 43
0.0
 10
329.05191
 20
483.163666
 10
329.030792
 20
482.934265
 10
328.968292
 20
482.712006
 10
328.866852
 20
482.505554
 10
328.73056
 20
482.321808
 10
328.564178
 20
482.167114
 10
328.373535
 20
482.04657
 10
328.165833
 20
481.963684
 10
327.94812
 20
481.920441
 10
327.727509
 20
481.919708
 10
327.511658
 20
481.96048
 10
327.308167
 20
482.042755
 10
327.122467
 20
482.16156
 10
326.961792
 20
482.315216
 10
326.830566
 20
482.497803
 10
326.732788
 20
482.703369
 10
326.672211
 20
482.92511
 10
326.650848
 20
483.163635
  0
LWPOLYLINE
  5
98
330
48
100
AcDbEntity
  8
0
  6
Continuous
 62
     0
370
    30
100
AcDbPolyline
 90
       18
 70
     0
 43
0.0
 10
326.650848
 20
488.47995
 10
326.670685
 20
488.70932
 10
326.729645
 20
488.931519
 10
326.825836
 20
489.137939
 10
326.955658
 20
489.321655
 10
327.115356
 20
489.476379
 10
327.300049
 20
489.596832
 10
327.503235
 20
489.679718
 10
327.718414
 20
489.723145
 10
327.938934
 20
489.723846
 10
328.157166
 20
489.68335
 10
328.365021
 20
489.600952
 10
328.556641
 20
489.482269
 10
328.724121
 20
489.328857
 10
328.861786
 20
489.146332
 10
328.964722
 20
488.940704
 10
329.028992
 20
488.718964
 10
329.05191
 20
488.47995
  0
LWPOLYLINE
  5
99
330
48
100
AcDbEntity
  8
0
  6
Continuous
 62
     0
370
    30
100
AcDbPolyline
 90
       18
 70
     0
 43
0.0
 10
329.05191
 20
488.47995
 10
329.030792
 20
488.25058
 10
328.968292
 20
488.02832
 10
328.866852
 20
487.821838
 10
328.73056
 20
487.638123
 10
328.564178
 20
487.483398
 10
328.373535
 20
487.362885
 10
328.165833
 20
487.279999
 10
327.94812
 20
487.236755
 10
327.727509
 20
487.236023
 10
327.511658
 20
487.276764
 10
327.308167
 20
487.35907
 10
327.122467
 20
487.477844
 10
326.961792
 20
487.631531
 10
326.830566
 20
487.814117
 10
326.732788
 20
488.019684
 10
326.672211
 20
488.241425
 10
326.650848
 20
488.47995
  0
LWPOLYLINE
  5
9A
330
48
100
AcDbEntity
  8
0
  6
Continuous
 62
     0
370
    30
100
AcDbPolyline
 90
       18
 70
     0
 43
0.0
 10
326.650848
 20
493.796234
 10
326.670685
 20
494.025635
 10
326.729645
 20
494.247833
 10
326.825836
 20
494.454224
 10
326.955658
 20
494.637939
 10
327.115356
 20
494.792694
 10
327.300049
 20
494.913116
 10
327.503235
 20
494.996033
 10
327.718414
 20
495.039459
 10
327.938934
 20
495.040161
 10
328.157166
 20
494.999664
 10
328.365021
 20
494.917267
 10
328.556641
 20
494.798584
 10
328.724121
 20
494.645172
 10
328.861786
 20
494.462646
 10
328.964722
 20
494.256989
 10
329.028992
 20
494.035278
 10
329.05191
 20
493.796265
  0
LWPOLYLINE
  5
9B
330
48
100
AcDbEntity
  8
0
  6
Continuous
 62
     0
370
    30
100
AcDbPolyline
 90
       18
 70
     0
 43
0.0
 10
329.05191
 20
493.796265
 10
329.030792
 20
493.566864
 10
328.968292
 20
493.344604
 10
328.866852
 20
493.138153
 10
328.73056
 20
492.954437
 10
328.564178
 20
492.799713
 10
328.373535
 20
492.679199
 10
328.165833
 20
492.596283
 10
327.94812
 20
492.55307
 10
327.727509
 20
492.552307
 10
327.511658
 20
492.593079
 10
327.308167
 20
492.675354
 10
327.122467
 20
492.794159
 10
326.961792
 20
492.947815
 10
326.830566
 20
493.130432
 10
326.732788
 20
493.335999
 10
326.672211
 20
493.557739
 10
326.650848
 20
493.796234
  0
LWPOLYLINE
  5
9C
330
48
100
AcDbEntity
  8
0
  6
Continuous
 62
     0
370
    30
100
AcDbPolyline
 90
       18
 70
     0
 43
0.0
 10
326.650848
 20
499.112549
 10
326.670685
 20
499.341919
 10
326.729645
 20
499.564148
 10
326.825836
 20
499.770538
 10
326.955658
 20
499.954254
 10
327.115356
 20
500.108978
 10
327.300049
 20
500.229431
 10
327.503235
 20
500.312317
 10
327.718414
 20
500.355743
 10
327.938934
 20
500.356476
 10
328.157166
 20
500.315979
 10
328.365021
 20
500.233582
 10
328.556641
 20
500.114868
 10
328.724121
 20
499.961487
 10
328.861786
 20
499.778961
 10
328.964722
 20
499.573303
 10
329.028992
 20
499.351593
 10
329.05191
 20
499.112579
  0
LWPOLYLINE
  5
9D
330
48
100
AcDbEntity
  8
0
  6
Continuous
 62
     0
370
    30
100
AcDbPolyline
 90
       18
 70
     0
 43
0.0
 10
329.05191
 20
499.112579
 10
329.030792
 20
498.883179
 10
328.968292
 20
498.660919
 10
328.866852
 20
498.454468
 10
328.73056
 20
498.270752
 10
328.564178
 20
498.116028
 10
328.373535
 20
497.995514
 10
328.165833
 20
497.912598
 10
327.94812
 20
497.869354
 10
327.727509
 20
497.868622
 10
327.511658
 20
497.909393
 10
327.308167
 20
497.991669
 10
327.122467
 20
498.110474
 10
326.961792
 20
498.26413
 10
326.830566
 20
498.446747
 10
326.732788
 20
498.652283
 10
326.672211
 20
498.874023
 10
326.650848
 20
499.112549
  0
LWPOLYLINE
  5
9E
330
48
100
AcDbEntity
  8
0
  6
Continuous
 62
     0
370
    30
100
AcDbPolyline
 90
       18
 70
     0
 43
0.0
 10
326.650848
 20
504.428864
 10
326.670685
 20
504.658234
 10
326.729645
 20
504.880432
 10
326.825836
 20
505.086853
 10
326.955658
 20
505.270569
 10
327.115356
 20
505.425293
 10
327.300049
 20
505.545746
 10
327.503235
 20
505.628632
 10
327.718414
 20
505.672058
 10
327.938934
 20
505.672791
 10
328.157166
 20
505.632294
 10
328.365021
 20
505.549896
 10
328.556641
 20
505.431183
 10
328.724121
 20
505.277771
 10
328.861786
 20
505.095245
 10
328.964722
 20
504.889618
 10
329.028992
 20
504.667877
 10
329.05191
 20
504.428894
  0
LWPOLYLINE
  5
9F
330
48
100
AcDbEntity
  8
0
  6
Continuous
 62
     0
370
    30
100
AcDbPolyline
 90
       18
 70
     0
 43
0.0
 10
329.05191
 20
504.428894
 10
329.030792
 20
504.199493
 10
328.968292
 20
503.977234
 10
328.866852
 20
503.770782
 10
328.73056
 20
503.587036
 10
328.564178
 20
503.432343
 10
328.373535
 20
503.311798
 10
328.165833
 20
503.228912
 10
327.94812
 20
503.185669
 10
327.727509
 20
503.184937
 10
327.511658
 20
503.225708
 10
327.308167
 20
503.307983
 10
327.122467
 20
503.426788
 10
326.961792
 20
503.580444
 10
326.830566
 20
503.763031
 10
326.732788
 20
503.968597
 10
326.672211
 20
504.190338
 10
326.650848
 20
504.428864
  0
LWPOLYLINE
  5
A0
330
48
100
AcDbEntity
  8
0
  6
Continuous
 62
     0
370
    30
100
AcDbPolyline
 90
       18
 70
     0
 43
0.0
 10
326.650848
 20
509.745178
 10
326.670685
 20
509.974548
 10
326.729645
 20
510.196747
 10
326.825836
 20
510.403168
 10
326.955658
 20
510.586884
 10
327.115356
 20
510.741608
 10
327.300049
 20
510.86203
 10
327.503235
 20
510.944946
 10
327.718414
 20
510.988373
 10
327.938934
 20
510.989075
 10
328.157166
 20
510.948578
 10
328.365021
 20
510.86618
 10
328.556641
 20
510.747498
 10
328.724121
 20
510.594086
 10
328.861786
 20
510.41156
 10
328.964722
 20
510.205933
 10
329.028992
 20
509.984192
 10
329.05191
 20
509.745178
  0
LWPOLYLINE
  5
A1
330
48
100
AcDbEntity
  8
0
  6
Continuous
 62
     0
370
    30
100
AcDbPolyline
 90
       18
 70
     0
 43
0.0
 10
329.05191
 20
509.745178
 10
329.030792
 20
509.515778
 10
328.968292
 20
509.293549
 10
328.866852
 20
509.087067
 10
328.73056
 20
508.903351
 10
328.564178
 20
508.748627
 10
328.373535
 20
508.628113
 10
328.165833
 20
508.545227
 10
327.94812
 20
508.501984
 10
327.727509
 20
508.501251
 10
327.511658
 20
508.541992
 10
327.308167
 20
508.624298
 10
327.122467
 20
508.743073
 10
326.961792
 20
508.896759
 10
326.830566
 20
509.079346
 10
326.732788
 20
509.284912
 10
326.672211
 20
509.506653
 10
326.650848
 20
509.745178
  0
LWPOLYLINE
  5
A2
330
48
100
AcDbEntity
  8
0
  6
Continuous
 62
     0
370
    30
100
AcDbPolyline
 90
       18
 70
     0
 43
0.0
 10
332.814178
 20
461.898407
 10
332.835419
 20
462.127838
 10
332.898376
 20
462.350067
 10
333.000641
 20
462.556519
 10
333.137909
 20
462.740265
 10
333.305634
 20
462.894989
 10
333.498016
 20
463.015411
 10
333.707672
 20
463.098297
 10
333.927582
 20
463.141632
 10
334.150635
 20
463.142303
 10
334.36908
 20
463.101654
 10
334.575134
 20
463.019196
 10
334.763306
 20
462.900391
 10
334.926422
 20
462.746857
 10
335.05954
 20
462.56424
 10
335.158447
 20
462.35849
 10
335.21994
 20
462.136658
 10
335.241699
 20
461.898438
  0
LWPOLYLINE
  5
A3
330
48
100
AcDbEntity
  8
0
  6
Continuous
 62
     0
370
    30
100
AcDbPolyline
 90
       18
 70
     0
 43
0.0
 10
335.241699
 20
461.898438
 10
335.221497
 20
461.668976
 10
335.161591
 20
461.446686
 10
335.063965
 20
461.240204
 10
334.932159
 20
461.056458
 10
334.77005
 20
460.901733
 10
334.582825
 20
460.781219
 10
334.376984
 20
460.698334
 10
334.159088
 20
460.655182
 10
333.936035
 20
460.65451
 10
333.715607
 20
460.695435
 10
333.505676
 20
460.77774
 10
333.312439
 20
460.896667
 10
333.14386
 20
461.050446
 10
333.005219
 20
461.233154
 10
332.901428
 20
461.438812
 10
332.836914
 20
461.660645
 10
332.814178
 20
461.898407
  0
LWPOLYLINE
  5
A4
330
48
100
AcDbEntity
  8
0
  6
Continuous
 62
     0
370
    30
100
AcDbPolyline
 90
       18
 70
     0
 43
0.0
 10
332.814178
 20
467.214722
 10
332.835419
 20
467.444122
 10
332.898376
 20
467.666382
 10
333.000641
 20
467.872833
 10
333.137909
 20
468.056549
 10
333.305634
 20
468.211304
 10
333.498016
 20
468.331696
 10
333.707672
 20
468.414612
 10
333.927582
 20
468.457947
 10
334.150635
 20
468.458588
 10
334.36908
 20
468.417969
 10
334.575134
 20
468.33551
 10
334.763306
 20
468.216675
 10
334.926422
 20
468.063171
 10
335.05954
 20
467.880524
 10
335.158447
 20
467.674774
 10
335.21994
 20
467.452972
 10
335.241699
 20
467.214752
  0
LWPOLYLINE
  5
A5
330
48
100
AcDbEntity
  8
0
  6
Continuous
 62
     0
370
    30
100
AcDbPolyline
 90
       18
 70
     0
 43
0.0
 10
335.241699
 20
467.214752
 10
335.221497
 20
466.985291
 10
335.161591
 20
466.763
 10
335.063965
 20
466.556488
 10
334.932159
 20
466.372772
 10
334.77005
 20
466.218048
 10
334.582825
 20
466.097534
 10
334.376984
 20
466.014648
 10
334.159088
 20
465.971497
 10
333.936035
 20
465.970825
 10
333.715607
 20
466.011719
 10
333.505676
 20
466.094055
 10
333.312439
 20
466.212982
 10
333.14386
 20
466.36676
 10
333.005219
 20
466.549469
 10
332.901428
 20
466.755127
 10
332.836914
 20
466.976959
 10
332.814178
 20
467.214722
  0
LWPOLYLINE
  5
A6
330
48
100
AcDbEntity
  8
0
  6
Continuous
 62
     0
370
    30
100
AcDbPolyline
 90
       18
 70
     0
 43
0.0
 10
332.814178
 20
472.531006
 10
332.835419
 20
472.760437
 10
332.898376
 20
472.982697
 10
333.000641
 20
473.189117
 10
333.137909
 20
473.372864
 10
333.305634
 20
473.527588
 10
333.498016
 20
473.64801
 10
333.707672
 20
473.730927
 10
333.927582
 20
473.774261
 10
334.150635
 20
473.774902
 10
334.36908
 20
473.734253
 10
334.575134
 20
473.651825
 10
334.763306
 20
473.53299
 10
334.926422
 20
473.379486
 10
335.05954
 20
473.196838
 10
335.158447
 20
472.991089
 10
335.21994
 20
472.769287
 10
335.241699
 20
472.531036
  0
LWPOLYLINE
  5
A7
330
48
100
AcDbEntity
  8
0
  6
Continuous
 62
     0
370
    30
100
AcDbPolyline
 90
       18
 70
     0
 43
0.0
 10
335.241699
 20
472.531036
 10
335.221497
 20
472.301605
 10
335.161591
 20
472.079315
 10
335.063965
 20
471.872803
 10
334.932159
 20
471.689056
 10
334.77005
 20
471.534332
 10
334.582825
 20
471.413849
 10
334.376984
 20
471.330963
 10
334.159088
 20
471.287811
 10
333.936035
 20
471.287109
 10
333.715607
 20
471.328033
 10
333.505676
 20
471.41037
 10
333.312439
 20
471.529266
 10
333.14386
 20
471.683044
 10
333.005219
 20
471.865784
 10
332.901428
 20
472.071442
 10
332.836914
 20
472.293274
 10
332.814178
 20
472.531006
  0
LWPOLYLINE
  5
A8
330
48
100
AcDbEntity
  8
0
  6
Continuous
 62
     0
370
    30
100
AcDbPolyline
 90
       18
 70
     0
 43
0.0
 10
332.814178
 20
477.847321
 10
332.835419
 20
478.076752
 10
332.898376
 20
478.299011
 10
333.000641
 20
478.505432
 10
333.137909
 20
478.689178
 10
333.305634
 20
478.843903
 10
333.498016
 20
478.964325
 10
333.707672
 20
479.047211
 10
333.927582
 20
479.090546
 10
334.150635
 20
479.091217
 10
334.36908
 20
479.050568
 10
334.575134
 20
478.96814
 10
334.763306
 20
478.849304
 10
334.926422
 20
478.695801
 10
335.05954
 20
478.513153
 10
335.158447
 20
478.307404
 10
335.21994
 20
478.085602
 10
335.241699
 20
477.847351
  0
LWPOLYLINE
  5
A9
330
48
100
AcDbEntity
  8
0
  6
Continuous
 62
     0
370
    30
100
AcDbPolyline
 90
       18
 70
     0
 43
0.0
 10
335.241699
 20
477.847351
 10
335.221497
 20
477.617889
 10
335.161591
 20
477.395599
 10
335.063965
 20
477.189117
 10
334.932159
 20
477.005371
 10
334.77005
 20
476.850647
 10
334.582825
 20
476.730164
 10
334.376984
 20
476.647247
 10
334.159088
 20
476.604095
 10
333.936035
 20
476.603424
 10
333.715607
 20
476.644348
 10
333.505676
 20
476.726654
 10
333.312439
 20
476.845581
 10
333.14386
 20
476.999359
 10
333.005219
 20
477.182068
 10
332.901428
 20
477.387756
 10
332.836914
 20
477.609558
 10
332.814178
 20
477.847321
  0
LWPOLYLINE
  5
AA
330
48
100
AcDbEntity
  8
0
  6
Continuous
 62
     0
370
    30
100
AcDbPolyline
 90
       18
 70
     0
 43
0.0
 10
332.814178
 20
483.163635
 10
332.835419
 20
483.393066
 10
332.898376
 20
483.615295
 10
333.000641
 20
483.821747
 10
333.137909
 20
484.005493
 10
333.305634
 20
484.160217
 10
333.498016
 20
484.28064
 10
333.707672
 20
484.363525
 10
333.927582
 20
484.40686
 10
334.150635
 20
484.407532
 10
334.36908
 20
484.366882
 10
334.575134
 20
484.284424
 10
334.763306
 20
484.165619
 10
334.926422
 20
484.012085
 10
335.05954
 20
483.829437
 10
335.158447
 20
483.623718
 10
335.21994
 20
483.401886
 10
335.241699
 20
483.163666
  0
LWPOLYLINE
  5
AB
330
48
100
AcDbEntity
  8
0
  6
Continuous
 62
     0
370
    30
100
AcDbPolyline
 90
       18
 70
     0
 43
0.0
 10
335.241699
 20
483.163666
 10
335.221497
 20
482.934204
 10
335.161591
 20
482.711914
 10
335.063965
 20
482.505432
 10
334.932159
 20
482.321686
 10
334.77005
 20
482.166962
 10
334.582825
 20
482.046448
 10
334.376984
 20
481.963562
 10
334.159088
 20
481.92041
 10
333.936035
 20
481.919739
 10
333.715607
 20
481.960632
 10
333.505676
 20
482.042969
 10
333.312439
 20
482.161896
 10
333.14386
 20
482.315674
 10
333.005219
 20
482.498383
 10
332.901428
 20
482.704041
 10
332.836914
 20
482.925873
 10
332.814178
 20
483.163635
  0
LWPOLYLINE
  5
AC
330
48
100
AcDbEntity
  8
0
  6
Continuous
 62
     0
370
    30
100
AcDbPolyline
 90
       18
 70
     0
 43
0.0
 10
332.814178
 20
488.47995
 10
332.835419
 20
488.709351
 10
332.898376
 20
488.93161
 10
333.000641
 20
489.138062
 10
333.137909
 20
489.321777
 10
333.305634
 20
489.476532
 10
333.498016
 20
489.596924
 10
333.707672
 20
489.67984
 10
333.927582
 20
489.723175
 10
334.150635
 20
489.723816
 10
334.36908
 20
489.683197
 10
334.575134
 20
489.600739
 10
334.763306
 20
489.481903
 10
334.926422
 20
489.3284
 10
335.05954
 20
489.145752
 10
335.158447
 20
488.940002
 10
335.21994
 20
488.718201
 10
335.241699
 20
488.47995
  0
LWPOLYLINE
  5
AD
330
48
100
AcDbEntity
  8
0
  6
Continuous
 62
     0
370
    30
100
AcDbPolyline
 90
       18
 70
     0
 43
0.0
 10
335.241699
 20
488.47995
 10
335.221497
 20
488.250519
 10
335.161591
 20
488.028229
 10
335.063965
 20
487.821716
 10
334.932159
 20
487.63797
 10
334.77005
 20
487.483276
 10
334.582825
 20
487.362762
 10
334.376984
 20
487.279877
 10
334.159088
 20
487.236725
 10
333.936035
 20
487.236053
 10
333.715607
 20
487.276947
 10
333.505676
 20
487.359283
 10
333.312439
 20
487.47821
 10
333.14386
 20
487.631989
 10
333.005219
 20
487.814697
 10
332.901428
 20
488.020355
 10
332.836914
 20
488.242188
 10
332.814178
 20
488.47995
  0
LWPOLYLINE
  5
AE
330
48
100
AcDbEntity
  8
0
  6
Continuous
 62
     0
370
    30
100
AcDbPolyline
 90
       18
 70
     0
 43
0.0
 10
332.814178
 20
493.796234
 10
332.835419
 20
494.025665
 10
332.898376
 20
494.247925
 10
333.000641
 20
494.454346
 10
333.137909
 20
494.638092
 10
333.305634
 20
494.792816
 10
333.498016
 20
494.913239
 10
333.707672
 20
494.996155
 10
333.927582
 20
495.03949
 10
334.150635
 20
495.040131
 10
334.36908
 20
494.999481
 10
334.575134
 20
494.917053
 10
334.763306
 20
494.798218
 10
334.926422
 20
494.644714
 10
335.05954
 20
494.462067
 10
335.158447
 20
494.256317
 10
335.21994
 20
494.034515
 10
335.241699
 20
493.796265
  0
LWPOLYLINE
  5
AF
330
48
100
AcDbEntity
  8
0
  6
Continuous
 62
     0
370
    30
100
AcDbPolyline
 90
       18
 70
     0
 43
0.0
 10
335.241699
 20
493.796265
 10
335.221497
 20
493.566833
 10
335.161591
 20
493.344543
 10
335.063965
 20
493.138031
 10
334.932159
 20
492.954285
 10
334.77005
 20
492.799561
 10
334.582825
 20
492.679077
 10
334.376984
 20
492.596161
 10
334.159088
 20
492.55304
 10
333.936035
 20
492.552338
 10
333.715607
 20
492.593262
 10
333.505676
 20
492.675598
 10
333.312439
 20
492.794495
 10
333.14386
 20
492.948273
 10
333.005219
 20
493.130981
 10
332.901428
 20
493.33667
 10
332.836914
 20
493.558502
 10
332.814178
 20
493.796234
  0
LWPOLYLINE
  5
B0
330
48
100
AcDbEntity
  8
0
  6
Continuous
 62
     0
370
    30
100
AcDbPolyline
 90
       18
 70
     0
 43
0.0
 10
332.814178
 20
499.112549
 10
332.835419
 20
499.34198
 10
332.898376
 20
499.56424
 10
333.000641
 20
499.77066
 10
333.137909
 20
499.954407
 10
333.305634
 20
500.109131
 10
333.498016
 20
500.229553
 10
333.707672
 20
500.312439
 10
333.927582
 20
500.355774
 10
334.150635
 20
500.356445
 10
334.36908
 20
500.315796
 10
334.575134
 20
500.233368
 10
334.763306
 20
500.114532
 10
334.926422
 20
499.960999
 10
335.05954
 20
499.778381
 10
335.158447
 20
499.572632
 10
335.21994
 20
499.35083
 10
335.241699
 20
499.112579
  0
LWPOLYLINE
  5
B1
330
48
100
AcDbEntity
  8
0
  6
Continuous
 62
     0
370
    30
100
AcDbPolyline
 90
       18
 70
     0
 43
0.0
 10
335.241699
 20
499.112579
 10
335.221497
 20
498.883118
 10
335.161591
 20
498.660828
 10
335.063965
 20
498.454346
 10
334.932159
 20
498.270599
 10
334.77005
 20
498.115875
 10
334.582825
 20
497.995392
 10
334.376984
 20
497.912476
 10
334.159088
 20
497.869324
 10
333.936035
 20
497.868652
 10
333.715607
 20
497.909576
 10
333.505676
 20
497.991882
 10
333.312439
 20
498.110809
 10
333.14386
 20
498.264587
 10
333.005219
 20
498.447296
 10
332.901428
 20
498.652954
 10
332.836914
 20
498.874786
 10
332.814178
 20
499.112549
  0
LWPOLYLINE
  5
B2
330
48
100
AcDbEntity
  8
0
  6
Continuous
 62
     0
370
    30
100
AcDbPolyline
 90
       18
 70
     0
 43
0.0
 10
332.814178
 20
504.428864
 10
332.835419
 20
504.658295
 10
332.898376
 20
504.880524
 10
333.000641
 20
505.086975
 10
333.137909
 20
505.270721
 10
333.305634
 20
505.425446
 10
333.498016
 20
505.545868
 10
333.707672
 20
505.628754
 10
333.927582
 20
505.672089
 10
334.150635
 20
505.67276
 10
334.36908
 20
505.632111
 10
334.575134
 20
505.549652
 10
334.763306
 20
505.430847
 10
334.926422
 20
505.277313
 10
335.05954
 20
505.094666
 10
335.158447
 20
504.888947
 10
335.21994
 20
504.667114
 10
335.241699
 20
504.428894
  0
LWPOLYLINE
  5
B3
330
48
100
AcDbEntity
  8
0
  6
Continuous
 62
     0
370
    30
100
AcDbPolyline
 90
       18
 70
     0
 43
0.0
 10
335.241699
 20
504.428894
 10
335.221497
 20
504.199432
 10
335.161591
 20
503.977142
 10
335.063965
 20
503.77066
 10
334.932159
 20
503.586914
 10
334.77005
 20
503.43219
 10
334.582825
 20
503.311676
 10
334.376984
 20
503.22879
 10
334.159088
 20
503.185638
 10
333.936035
 20
503.184967
 10
333.715607
 20
503.225861
 10
333.505676
 20
503.308197
 10
333.312439
 20
503.427124
 10
333.14386
 20
503.580902
 10
333.005219
 20
503.763611
 10
332.901428
 20
503.969269
 10
332.836914
 20
504.191101
 10
332.814178
 20
504.428864
  0
LWPOLYLINE
  5
B4
330
48
100
AcDbEntity
  8
0
  6
Continuous
 62
     0
370
    30
100
AcDbPolyline
 90
       18
 70
     0
 43
0.0
 10
332.814178
 20
509.745178
 10
332.835419
 20
509.974579
 10
332.898376
 20
510.196838
 10
333.000641
 20
510.40329
 10
333.137909
 20
510.587006
 10
333.305634
 20
510.74176
 10
333.498016
 20
510.862152
 10
333.707672
 20
510.945068
 10
333.927582
 20
510.988403
 10
334.150635
 20
510.989044
 10
334.36908
 20
510.948425
 10
334.575134
 20
510.865967
 10
334.763306
 20
510.747131
 10
334.926422
 20
510.593628
 10
335.05954
 20
510.41098
 10
335.158447
 20
510.205231
 10
335.21994
 20
509.983429
 10
335.241699
 20
509.745178
  0
LWPOLYLINE
  5
B5
330
48
100
AcDbEntity
  8
0
  6
Continuous
 62
     0
370
    30
100
AcDbPolyline
 90
       18
 70
     0
 43
0.0
 10
335.241699
 20
509.745178
 10
335.221497
 20
509.515747
 10
335.161591
 20
509.293457
 10
335.063965
 20
509.086945
 10
334.932159
 20
508.903198
 10
334.77005
 20
508.748505
 10
334.582825
 20
508.627991
 10
334.376984
 20
508.545105
 10
334.159088
 20
508.501953
 10
333.936035
 20
508.501282
 10
333.715607
 20
508.542175
 10
333.505676
 20
508.624512
 10
333.312439
 20
508.743439
 10
333.14386
 20
508.897217
 10
333.005219
 20
509.079926
 10
332.901428
 20
509.285583
 10
332.836914
 20
509.507416
 10
332.814178
 20
509.745178
  0
ARC
  5
B6
330
48
100
AcDbEntity
  8
0
  6
Continuous
 62
     0
370
    30
100
AcDbCircle
 10
330.950677
 20
459.399844
 30
0.0
 40
1.248500143913981
100
AcDbArc
 50
94.629518
 51
180.065941
  0
ARC
  5
B7
330
48
100
AcDbEntity
  8
0
  6
Continuous
 62
     0
370
    30
100
AcDbCircle
 10
330.95068
 20
459.396972
 30
0.0
 40
1.248502720331295
100
AcDbArc
 50
179.934152
 51
265.341972
  0
ARC
  5
B8
330
48
100
AcDbEntity
  8
0
  6
Continuous
 62
     0
370
    30
100
AcDbCircle
 10
330.950677
 20
464.699844
 30
0.0
 40
1.248500143913912
100
AcDbArc
 50
94.629518
 51
180.065941
  0
ARC
  5
B9
330
48
100
AcDbEntity
  8
0
  6
Continuous
 62
     0
370
    30
100
AcDbCircle
 10
330.95068
 20
464.696972
 30
0.0
 40
1.248502720327184
100
AcDbArc
 50
179.934152
 51
265.341972
  0
ARC
  5
BA
330
48
100
AcDbEntity
  8
0
  6
Continuous
 62
     0
370
    30
100
AcDbCircle
 10
330.950677
 20
469.999844
 30
0.0
 40
1.248500143913405
100
AcDbArc
 50
94.629518
 51
180.065941
  0
ARC
  5
BB
330
48
100
AcDbEntity
  8
0
  6
Continuous
 62
     0
370
    30
100
AcDbCircle
 10
330.95068
 20
469.996972
 30
0.0
 40
1.248502720331448
100
AcDbArc
 50
179.934152
 51
265.341972
  0
ARC
  5
BC
330
48
100
AcDbEntity
  8
0
  6
Continuous
 62
     0
370
    30
100
AcDbCircle
 10
330.950677
 20
475.299844
 30
0.0
 40
1.248500143918901
100
AcDbArc
 50
94.629518
 51
180.065941
  0
ARC
  5
BD
330
48
100
AcDbEntity
  8
0
  6
Continuous
 62
     0
370
    30
100
AcDbCircle
 10
330.95068
 20
475.296972
 30
0.0
 40
1.248502720329692
100
AcDbArc
 50
179.934152
 51
265.341972
  0
ARC
  5
BE
330
48
100
AcDbEntity
  8
0
  6
Continuous
 62
     0
370
    30
100
AcDbCircle
 10
330.950677
 20
480.599844
 30
0.0
 40
1.24850014391735
100
AcDbArc
 50
94.629518
 51
180.065941
  0
ARC
  5
BF
330
48
100
AcDbEntity
  8
0
  6
Continuous
 62
     0
370
    30
100
AcDbCircle
 10
330.95068
 20
480.596972
 30
0.0
 40
1.248502720331674
100
AcDbArc
 50
179.934152
 51
265.341972
  0
ARC
  5
C0
330
48
100
AcDbEntity
  8
0
  6
Continuous
 62
     0
370
    30
100
AcDbCircle
 10
330.950677
 20
485.899844
 30
0.0
 40
1.248500143920662
100
AcDbArc
 50
94.629518
 51
180.065941
  0
ARC
  5
C1
330
48
100
AcDbEntity
  8
0
  6
Continuous
 62
     0
370
    30
100
AcDbCircle
 10
330.95068
 20
485.896972
 30
0.0
 40
1.248502720327984
100
AcDbArc
 50
179.934152
 51
265.341972
  0
ARC
  5
C2
330
48
100
AcDbEntity
  8
0
  6
Continuous
 62
     0
370
    30
100
AcDbCircle
 10
330.950677
 20
491.199844
 30
0.0
 40
1.24850014391539
100
AcDbArc
 50
94.629518
 51
180.065941
  0
ARC
  5
C3
330
48
100
AcDbEntity
  8
0
  6
Continuous
 62
     0
370
    30
100
AcDbCircle
 10
330.95068
 20
491.196972
 30
0.0
 40
1.248502720329409
100
AcDbArc
 50
179.934152
 51
265.341972
  0
ARC
  5
C4
330
48
100
AcDbEntity
  8
0
  6
Continuous
 62
     0
370
    30
100
AcDbCircle
 10
330.950677
 20
496.499844
 30
0.0
 40
1.248500143915158
100
AcDbArc
 50
94.629518
 51
180.065941
  0
ARC
  5
C5
330
48
100
AcDbEntity
  8
0
  6
Continuous
 62
     0
370
    30
100
AcDbCircle
 10
330.95068
 20
496.496972
 30
0.0
 40
1.248502720329029
100
AcDbArc
 50
179.934152
 51
265.341972
  0
ARC
  5
C6
330
48
100
AcDbEntity
  8
0
  6
Continuous
 62
     0
370
    30
100
AcDbCircle
 10
330.950677
 20
501.799844
 30
0.0
 40
1.248500143916187
100
AcDbArc
 50
94.629518
 51
180.065941
  0
ARC
  5
C7
330
48
100
AcDbEntity
  8
0
  6
Continuous
 62
     0
370
    30
100
AcDbCircle
 10
330.95068
 20
501.796972
 30
0.0
 40
1.248502720332311
100
AcDbArc
 50
179.934152
 51
265.341972
  0
ARC
  5
C8
330
48
100
AcDbEntity
  8
0
  6
Continuous
 62
     0
370
    30
100
AcDbCircle
 10
330.950677
 20
507.099844
 30
0.0
 40
1.248500143912757
100
AcDbArc
 50
94.629518
 51
180.065941
  0
ARC
  5
C9
330
48
100
AcDbEntity
  8
0
  6
Continuous
 62
     0
370
    30
100
AcDbCircle
 10
330.95068
 20
507.096972
 30
0.0
 40
1.248502720324958
100
AcDbArc
 50
179.934152
 51
265.341972
  0
ARC
  5
CA
330
48
100
AcDbEntity
  8
0
  6
Continuous
 62
     0
370
    30
100
AcDbCircle
 10
330.950677
 20
512.399844
 30
0.0
 40
1.248500143917873
100
AcDbArc
 50
94.629518
 51
180.065941
  0
ARC
  5
CB
330
48
100
AcDbEntity
  8
0
  6
Continuous
 62
     0
370
    30
100
AcDbCircle
 10
330.95068
 20
512.396972
 30
0.0
 40
1.248502720327203
100
AcDbArc
 50
179.934152
 51
265.341972
  0
LWPOLYLINE
  5
CC
330
48
100
AcDbEntity
  8
0
  6
Continuous
 62
     0
370
    30
100
AcDbPolyline
 90
        5
 70
     0
 43
0.0
 10
325.229095
 20
460.612427
 10
324.919373
 20
460.453766
 10
324.673035
 20
460.185516
 10
324.511627
 20
459.83374
 10
324.449066
 20
459.398407
  0
LWPOLYLINE
  5
CD
330
48
100
AcDbEntity
  8
0
  6
Continuous
 62
     0
370
    30
100
AcDbPolyline
 90
        5
 70
     0
 43
0.0
 10
324.449066
 20
459.398407
 10
324.501221
 20
458.999969
 10
324.653656
 20
458.641815
 10
324.89267
 20
458.364319
 10
325.229156
 20
458.184387
  0
LWPOLYLINE
  5
CE
330
48
100
AcDbEntity
  8
0
  6
Continuous
 62
     0
370
    30
100
AcDbPolyline
 90
        5
 70
     0
 43
0.0
 10
325.229095
 20
465.912415
 10
324.919373
 20
465.753754
 10
324.673035
 20
465.485504
 10
324.511627
 20
465.133728
 10
324.449066
 20
464.698395
  0
LWPOLYLINE
  5
CF
330
48
100
AcDbEntity
  8
0
  6
Continuous
 62
     0
370
    30
100
AcDbPolyline
 90
        5
 70
     0
 43
0.0
 10
324.449066
 20
464.698395
 10
324.501221
 20
464.299957
 10
324.653656
 20
463.941833
 10
324.89267
 20
463.664307
 10
325.229156
 20
463.484375
  0
LWPOLYLINE
  5
D0
330
48
100
AcDbEntity
  8
0
  6
Continuous
 62
     0
370
    30
100
AcDbPolyline
 90
        5
 70
     0
 43
0.0
 10
325.229095
 20
471.212402
 10
324.919373
 20
471.053772
 10
324.673035
 20
470.785522
 10
324.511627
 20
470.433746
 10
324.449066
 20
469.998413
  0
LWPOLYLINE
  5
D1
330
48
100
AcDbEntity
  8
0
  6
Continuous
 62
     0
370
    30
100
AcDbPolyline
 90
        5
 70
     0
 43
0.0
 10
324.449066
 20
469.998413
 10
324.501221
 20
469.599976
 10
324.653656
 20
469.241821
 10
324.89267
 20
468.964325
 10
325.229156
 20
468.784363
  0
LWPOLYLINE
  5
D2
330
48
100
AcDbEntity
  8
0
  6
Continuous
 62
     0
370
    30
100
AcDbPolyline
 90
        5
 70
     0
 43
0.0
 10
325.229095
 20
476.512421
 10
324.919373
 20
476.35376
 10
324.673035
 20
476.08551
 10
324.511627
 20
475.733734
 10
324.449066
 20
475.298401
  0
LWPOLYLINE
  5
D3
330
48
100
AcDbEntity
  8
0
  6
Continuous
 62
     0
370
    30
100
AcDbPolyline
 90
        5
 70
     0
 43
0.0
 10
324.449066
 20
475.298401
 10
324.501221
 20
474.899963
 10
324.653656
 20
474.54184
 10
324.89267
 20
474.264313
 10
325.229156
 20
474.084381
  0
LWPOLYLINE
  5
D4
330
48
100
AcDbEntity
  8
0
  6
Continuous
 62
     0
370
    30
100
AcDbPolyline
 90
        5
 70
     0
 43
0.0
 10
325.229095
 20
481.812408
 10
324.919373
 20
481.653748
 10
324.673035
 20
481.385529
 10
324.511627
 20
481.033722
 10
324.449066
 20
480.598419
  0
LWPOLYLINE
  5
D5
330
48
100
AcDbEntity
  8
0
  6
Continuous
 62
     0
370
    30
100
AcDbPolyline
 90
        5
 70
     0
 43
0.0
 10
324.449066
 20
480.598419
 10
324.501221
 20
480.199951
 10
324.653656
 20
479.841827
 10
324.89267
 20
479.564331
 10
325.229156
 20
479.384369
  0
LWPOLYLINE
  5
D6
330
48
100
AcDbEntity
  8
0
  6
Continuous
 62
     0
370
    30
100
AcDbPolyline
 90
        5
 70
     0
 43
0.0
 10
325.229095
 20
487.112427
 10
324.919373
 20
486.953766
 10
324.673035
 20
486.685516
 10
324.511627
 20
486.33374
 10
324.449066
 20
485.898407
  0
LWPOLYLINE
  5
D7
330
48
100
AcDbEntity
  8
0
  6
Continuous
 62
     0
370
    30
100
AcDbPolyline
 90
        5
 70
     0
 43
0.0
 10
324.449066
 20
485.898407
 10
324.501221
 20
485.499969
 10
324.653656
 20
485.141815
 10
324.89267
 20
484.864319
 10
325.229156
 20
484.684387
  0
LWPOLYLINE
  5
D8
330
48
100
AcDbEntity
  8
0
  6
Continuous
 62
     0
370
    30
100
AcDbPolyline
 90
        5
 70
     0
 43
0.0
 10
325.229095
 20
492.412415
 10
324.919373
 20
492.253754
 10
324.673035
 20
491.985504
 10
324.511627
 20
491.633728
 10
324.449066
 20
491.198395
  0
LWPOLYLINE
  5
D9
330
48
100
AcDbEntity
  8
0
  6
Continuous
 62
     0
370
    30
100
AcDbPolyline
 90
        5
 70
     0
 43
0.0
 10
324.449066
 20
491.198395
 10
324.501221
 20
490.799957
 10
324.653656
 20
490.441833
 10
324.89267
 20
490.164307
 10
325.229156
 20
489.984375
  0
LWPOLYLINE
  5
DA
330
48
100
AcDbEntity
  8
0
  6
Continuous
 62
     0
370
    30
100
AcDbPolyline
 90
        5
 70
     0
 43
0.0
 10
325.229095
 20
497.712402
 10
324.919373
 20
497.553772
 10
324.673035
 20
497.285522
 10
324.511627
 20
496.933746
 10
324.449066
 20
496.498413
  0
LWPOLYLINE
  5
DB
330
48
100
AcDbEntity
  8
0
  6
Continuous
 62
     0
370
    30
100
AcDbPolyline
 90
        5
 70
     0
 43
0.0
 10
324.449066
 20
496.498413
 10
324.501221
 20
496.099976
 10
324.653656
 20
495.741821
 10
324.89267
 20
495.464325
 10
325.229156
 20
495.284363
  0
LWPOLYLINE
  5
DC
330
48
100
AcDbEntity
  8
0
  6
Continuous
 62
     0
370
    30
100
AcDbPolyline
 90
        5
 70
     0
 43
0.0
 10
325.229095
 20
503.012421
 10
324.919373
 20
502.85376
 10
324.673035
 20
502.58551
 10
324.511627
 20
502.233734
 10
324.449066
 20
501.798401
  0
LWPOLYLINE
  5
DD
330
48
100
AcDbEntity
  8
0
  6
Continuous
 62
     0
370
    30
100
AcDbPolyline
 90
        5
 70
     0
 43
0.0
 10
324.449066
 20
501.798401
 10
324.501221
 20
501.399963
 10
324.653656
 20
501.04184
 10
324.89267
 20
500.764313
 10
325.229156
 20
500.584381
  0
LWPOLYLINE
  5
DE
330
48
100
AcDbEntity
  8
0
  6
Continuous
 62
     0
370
    30
100
AcDbPolyline
 90
        5
 70
     0
 43
0.0
 10
325.229095
 20
508.312408
 10
324.919373
 20
508.153748
 10
324.673035
 20
507.885529
 10
324.511627
 20
507.533722
 10
324.449066
 20
507.098419
  0
LWPOLYLINE
  5
DF
330
48
100
AcDbEntity
  8
0
  6
Continuous
 62
     0
370
    30
100
AcDbPolyline
 90
        5
 70
     0
 43
0.0
 10
324.449066
 20
507.098419
 10
324.501221
 20
506.699951
 10
324.653656
 20
506.341827
 10
324.89267
 20
506.064331
 10
325.229156
 20
505.884369
  0
LWPOLYLINE
  5
E0
330
48
100
AcDbEntity
  8
0
  6
Continuous
 62
     0
370
    30
100
AcDbPolyline
 90
        5
 70
     0
 43
0.0
 10
325.229095
 20
513.612427
 10
324.919373
 20
513.453735
 10
324.673035
 20
513.185547
 10
324.511627
 20
512.83374
 10
324.449066
 20
512.398438
  0
LWPOLYLINE
  5
E1
330
48
100
AcDbEntity
  8
0
  6
Continuous
 62
     0
370
    30
100
AcDbPolyline
 90
        5
 70
     0
 43
0.0
 10
324.449066
 20
512.398438
 10
324.501221
 20
511.999969
 10
324.653656
 20
511.641815
 10
324.89267
 20
511.364319
 10
325.229156
 20
511.184387
  0
LWPOLYLINE
  5
E2
330
48
100
AcDbEntity
  8
0
  6
Continuous
 62
     0
370
    30
100
AcDbPolyline
 90
        5
 70
     0
 43
0.0
 10
337.540161
 20
459.398376
 10
337.483551
 20
459.807129
 10
337.318451
 20
460.172058
 10
337.060791
 20
460.450317
 10
336.712189
 20
460.619446
  0
LWPOLYLINE
  5
E3
330
48
100
AcDbEntity
  8
0
  6
Continuous
 62
     0
370
    30
100
AcDbPolyline
 90
        5
 70
     0
 43
0.0
 10
336.712067
 20
458.177338
 10
337.041595
 20
458.332336
 10
337.304535
 20
458.604004
 10
337.476105
 20
458.964447
 10
337.540161
 20
459.398376
  0
LWPOLYLINE
  5
E4
330
48
100
AcDbEntity
  8
0
  6
Continuous
 62
     0
370
    30
100
AcDbPolyline
 90
        5
 70
     0
 43
0.0
 10
337.540161
 20
464.698395
 10
337.483551
 20
465.107117
 10
337.318451
 20
465.472046
 10
337.060791
 20
465.750305
 10
336.712189
 20
465.919434
  0
LWPOLYLINE
  5
E5
330
48
100
AcDbEntity
  8
0
  6
Continuous
 62
     0
370
    30
100
AcDbPolyline
 90
        5
 70
     0
 43
0.0
 10
336.712067
 20
463.477325
 10
337.041595
 20
463.632324
 10
337.304535
 20
463.903992
 10
337.476105
 20
464.264465
 10
337.540161
 20
464.698395
  0
LWPOLYLINE
  5
E6
330
48
100
AcDbEntity
  8
0
  6
Continuous
 62
     0
370
    30
100
AcDbPolyline
 90
        5
 70
     0
 43
0.0
 10
337.540161
 20
469.998383
 10
337.483551
 20
470.407104
 10
337.318451
 20
470.772034
 10
337.060791
 20
471.050323
 10
336.712189
 20
471.219452
  0
LWPOLYLINE
  5
E7
330
48
100
AcDbEntity
  8
0
  6
Continuous
 62
     0
370
    30
100
AcDbPolyline
 90
        5
 70
     0
 43
0.0
 10
336.712067
 20
468.777344
 10
337.041595
 20
468.932343
 10
337.304535
 20
469.20401
 10
337.476105
 20
469.564453
 10
337.540161
 20
469.998383
  0
LWPOLYLINE
  5
E8
330
48
100
AcDbEntity
  8
0
  6
Continuous
 62
     0
370
    30
100
AcDbPolyline
 90
        5
 70
     0
 43
0.0
 10
337.540161
 20
475.29837
 10
337.483551
 20
475.707123
 10
337.318451
 20
476.072052
 10
337.060791
 20
476.350311
 10
336.712189
 20
476.51944
  0
LWPOLYLINE
  5
E9
330
48
100
AcDbEntity
  8
0
  6
Continuous
 62
     0
370
    30
100
AcDbPolyline
 90
        5
 70
     0
 43
0.0
 10
336.712067
 20
474.077332
 10
337.041595
 20
474.23233
 10
337.304535
 20
474.503998
 10
337.476105
 20
474.864441
 10
337.540161
 20
475.29837
  0
LWPOLYLINE
  5
EA
330
48
100
AcDbEntity
  8
0
  6
Continuous
 62
     0
370
    30
100
AcDbPolyline
 90
        5
 70
     0
 43
0.0
 10
337.540161
 20
480.598389
 10
337.483551
 20
481.007111
 10
337.318451
 20
481.37204
 10
337.060791
 20
481.650299
 10
336.712189
 20
481.819458
  0
LWPOLYLINE
  5
EB
330
48
100
AcDbEntity
  8
0
  6
Continuous
 62
     0
370
    30
100
AcDbPolyline
 90
        5
 70
     0
 43
0.0
 10
336.712067
 20
479.377319
 10
337.041595
 20
479.532318
 10
337.304535
 20
479.804016
 10
337.476105
 20
480.164459
 10
337.540161
 20
480.598389
  0
LWPOLYLINE
  5
EC
330
48
100
AcDbEntity
  8
0
  6
Continuous
 62
     0
370
    30
100
AcDbPolyline
 90
        5
 70
     0
 43
0.0
 10
337.540161
 20
485.898376
 10
337.483551
 20
486.307129
 10
337.318451
 20
486.672058
 10
337.060791
 20
486.950317
 10
336.712189
 20
487.119446
  0
LWPOLYLINE
  5
ED
330
48
100
AcDbEntity
  8
0
  6
Continuous
 62
     0
370
    30
100
AcDbPolyline
 90
        5
 70
     0
 43
0.0
 10
336.712067
 20
484.677338
 10
337.041595
 20
484.832336
 10
337.304535
 20
485.104004
 10
337.476105
 20
485.464447
 10
337.540161
 20
485.898376
  0
LWPOLYLINE
  5
EE
330
48
100
AcDbEntity
  8
0
  6
Continuous
 62
     0
370
    30
100
AcDbPolyline
 90
        5
 70
     0
 43
0.0
 10
337.540161
 20
491.198395
 10
337.483551
 20
491.607117
 10
337.318451
 20
491.972046
 10
337.060791
 20
492.250305
 10
336.712189
 20
492.419434
  0
LWPOLYLINE
  5
EF
330
48
100
AcDbEntity
  8
0
  6
Continuous
 62
     0
370
    30
100
AcDbPolyline
 90
        5
 70
     0
 43
0.0
 10
336.712067
 20
489.977325
 10
337.041595
 20
490.132324
 10
337.304535
 20
490.403992
 10
337.476105
 20
490.764465
 10
337.540161
 20
491.198395
  0
LWPOLYLINE
  5
F0
330
48
100
AcDbEntity
  8
0
  6
Continuous
 62
     0
370
    30
100
AcDbPolyline
 90
        5
 70
     0
 43
0.0
 10
337.540161
 20
496.498383
 10
337.483551
 20
496.907104
 10
337.318451
 20
497.272034
 10
337.060791
 20
497.550323
 10
336.712189
 20
497.719452
  0
LWPOLYLINE
  5
F1
330
48
100
AcDbEntity
  8
0
  6
Continuous
 62
     0
370
    30
100
AcDbPolyline
 90
        5
 70
     0
 43
0.0
 10
336.712067
 20
495.277344
 10
337.041595
 20
495.432343
 10
337.304535
 20
495.70401
 10
337.476105
 20
496.064453
 10
337.540161
 20
496.498383
  0
LWPOLYLINE
  5
F2
330
48
100
AcDbEntity
  8
0
  6
Continuous
 62
     0
370
    30
100
AcDbPolyline
 90
        5
 70
     0
 43
0.0
 10
337.540161
 20
501.79837
 10
337.483551
 20
502.207123
 10
337.318451
 20
502.572052
 10
337.060791
 20
502.850311
 10
336.712189
 20
503.01944
  0
LWPOLYLINE
  5
F3
330
48
100
AcDbEntity
  8
0
  6
Continuous
 62
     0
370
    30
100
AcDbPolyline
 90
        5
 70
     0
 43
0.0
 10
336.712067
 20
500.577332
 10
337.041595
 20
500.73233
 10
337.304535
 20
501.003998
 10
337.476105
 20
501.364441
 10
337.540161
 20
501.79837
  0
LWPOLYLINE
  5
F4
330
48
100
AcDbEntity
  8
0
  6
Continuous
 62
     0
370
    30
100
AcDbPolyline
 90
        5
 70
     0
 43
0.0
 10
337.540161
 20
507.098389
 10
337.483551
 20
507.507111
 10
337.318451
 20
507.87204
 10
337.060791
 20
508.150299
 10
336.712189
 20
508.319458
  0
LWPOLYLINE
  5
F5
330
48
100
AcDbEntity
  8
0
  6
Continuous
 62
     0
370
    30
100
AcDbPolyline
 90
        5
 70
     0
 43
0.0
 10
336.712067
 20
505.877319
 10
337.041595
 20
506.032318
 10
337.304535
 20
506.304016
 10
337.476105
 20
506.664459
 10
337.540161
 20
507.098389
  0
LWPOLYLINE
  5
F6
330
48
100
AcDbEntity
  8
0
  6
Continuous
 62
     0
370
    30
100
AcDbPolyline
 90
        5
 70
     0
 43
0.0
 10
337.540161
 20
512.398376
 10
337.483551
 20
512.807129
 10
337.318451
 20
513.172058
 10
337.060791
 20
513.450317
 10
336.712189
 20
513.619446
  0
LWPOLYLINE
  5
F7
330
48
100
AcDbEntity
  8
0
  6
Continuous
 62
     0
370
    30
100
AcDbPolyline
 90
        5
 70
     0
 43
0.0
 10
336.712067
 20
511.177338
 10
337.041595
 20
511.332336
 10
337.304535
 20
511.604004
 10
337.476105
 20
511.964447
 10
337.540161
 20
512.398376
  0
LWPOLYLINE
  5
F8
330
48
100
AcDbEntity
  8
0
  6
Continuous
 62
     0
370
    30
100
AcDbPolyline
 90
        6
 70
     0
 43
0.0
 10
327.970428
 20
463.139618
 10
327.654938
 20
463.052948
 10
327.376099
 20
462.880066
 10
327.1539
 20
462.633911
 10
327.003082
 20
462.331421
 10
326.931
 20
461.898407
  0
LWPOLYLINE
  5
F9
330
48
100
AcDbEntity
  8
0
  6
Continuous
 62
     0
370
    30
100
AcDbPolyline
 90
        6
 70
     0
 43
0.0
 10
326.931
 20
461.898407
 10
326.974487
 20
461.560211
 10
327.102417
 20
461.2453
 10
327.305328
 20
460.981018
 10
327.569641
 20
460.785492
 10
327.970367
 20
460.657196
  0
LWPOLYLINE
  5
FA
330
48
100
AcDbEntity
  8
0
  6
Continuous
 62
     0
370
    30
100
AcDbPolyline
 90
        6
 70
     0
 43
0.0
 10
327.970428
 20
468.455933
 10
327.654938
 20
468.369263
 10
327.376099
 20
468.196381
 10
327.1539
 20
467.950226
 10
327.003082
 20
467.647705
 10
326.931
 20
467.214722
  0
LWPOLYLINE
  5
FB
330
48
100
AcDbEntity
  8
0
  6
Continuous
 62
     0
370
    30
100
AcDbPolyline
 90
        6
 70
     0
 43
0.0
 10
326.931
 20
467.214722
 10
326.974487
 20
466.876526
 10
327.102417
 20
466.561615
 10
327.305328
 20
466.297333
 10
327.569641
 20
466.101807
 10
327.970367
 20
465.973511
  0
LWPOLYLINE
  5
FC
330
48
100
AcDbEntity
  8
0
  6
Continuous
 62
     0
370
    30
100
AcDbPolyline
 90
        6
 70
     0
 43
0.0
 10
327.970428
 20
473.772247
 10
327.654938
 20
473.685547
 10
327.376099
 20
473.512695
 10
327.1539
 20
473.266541
 10
327.003082
 20
472.96402
 10
326.931
 20
472.531006
  0
LWPOLYLINE
  5
FD
330
48
100
AcDbEntity
  8
0
  6
Continuous
 62
     0
370
    30
100
AcDbPolyline
 90
        6
 70
     0
 43
0.0
 10
326.931
 20
472.531006
 10
326.974487
 20
472.19281
 10
327.102417
 20
471.87793
 10
327.305328
 20
471.613647
 10
327.569641
 20
471.418121
 10
327.970367
 20
471.289795
  0
LWPOLYLINE
  5
FE
330
48
100
AcDbEntity
  8
0
  6
Continuous
 62
     0
370
    30
100
AcDbPolyline
 90
        6
 70
     0
 43
0.0
 10
327.970428
 20
479.088562
 10
327.654938
 20
479.001862
 10
327.376099
 20
478.82901
 10
327.1539
 20
478.582855
 10
327.003082
 20
478.280334
 10
326.931
 20
477.847321
  0
LWPOLYLINE
  5
FF
330
48
100
AcDbEntity
  8
0
  6
Continuous
 62
     0
370
    30
100
AcDbPolyline
 90
        6
 70
     0
 43
0.0
 10
326.931
 20
477.847321
 10
326.974487
 20
477.509125
 10
327.102417
 20
477.194214
 10
327.305328
 20
476.929932
 10
327.569641
 20
476.734406
 10
327.970367
 20
476.60611
  0
LWPOLYLINE
  5
100
330
48
100
AcDbEntity
  8
0
  6
Continuous
 62
     0
370
    30
100
AcDbPolyline
 90
        6
 70
     0
 43
0.0
 10
327.970428
 20
484.404846
 10
327.654938
 20
484.318176
 10
327.376099
 20
484.145294
 10
327.1539
 20
483.899139
 10
327.003082
 20
483.596649
 10
326.931
 20
483.163635
  0
LWPOLYLINE
  5
101
330
48
100
AcDbEntity
  8
0
  6
Continuous
 62
     0
370
    30
100
AcDbPolyline
 90
        6
 70
     0
 43
0.0
 10
326.931
 20
483.163635
 10
326.974487
 20
482.825439
 10
327.102417
 20
482.510529
 10
327.305328
 20
482.246246
 10
327.569641
 20
482.05072
 10
327.970367
 20
481.922424
  0
LWPOLYLINE
  5
102
330
48
100
AcDbEntity
  8
0
  6
Continuous
 62
     0
370
    30
100
AcDbPolyline
 90
        6
 70
     0
 43
0.0
 10
327.970428
 20
489.721161
 10
327.654938
 20
489.634491
 10
327.376099
 20
489.461609
 10
327.1539
 20
489.215454
 10
327.003082
 20
488.912933
 10
326.931
 20
488.47995
  0
LWPOLYLINE
  5
103
330
48
100
AcDbEntity
  8
0
  6
Continuous
 62
     0
370
    30
100
AcDbPolyline
 90
        6
 70
     0
 43
0.0
 10
326.931
 20
488.47995
 10
326.974487
 20
488.141754
 10
327.102417
 20
487.826843
 10
327.305328
 20
487.562561
 10
327.569641
 20
487.367035
 10
327.970367
 20
487.238739
  0
LWPOLYLINE
  5
104
330
48
100
AcDbEntity
  8
0
  6
Continuous
 62
     0
370
    30
100
AcDbPolyline
 90
        6
 70
     0
 43
0.0
 10
327.970428
 20
495.037476
 10
327.654938
 20
494.950775
 10
327.376099
 20
494.777924
 10
327.1539
 20
494.531769
 10
327.003082
 20
494.229248
 10
326.931
 20
493.796234
  0
LWPOLYLINE
  5
105
330
48
100
AcDbEntity
  8
0
  6
Continuous
 62
     0
370
    30
100
AcDbPolyline
 90
        6
 70
     0
 43
0.0
 10
326.931
 20
493.796234
 10
326.974487
 20
493.458038
 10
327.102417
 20
493.143158
 10
327.305328
 20
492.878845
 10
327.569641
 20
492.68335
 10
327.970367
 20
492.555023
  0
LWPOLYLINE
  5
106
330
48
100
AcDbEntity
  8
0
  6
Continuous
 62
     0
370
    30
100
AcDbPolyline
 90
        6
 70
     0
 43
0.0
 10
327.970428
 20
500.35379
 10
327.654938
 20
500.26709
 10
327.376099
 20
500.094238
 10
327.1539
 20
499.848083
 10
327.003082
 20
499.545563
 10
326.931
 20
499.112549
  0
LWPOLYLINE
  5
107
330
48
100
AcDbEntity
  8
0
  6
Continuous
 62
     0
370
    30
100
AcDbPolyline
 90
        6
 70
     0
 43
0.0
 10
326.931
 20
499.112549
 10
326.974487
 20
498.774353
 10
327.102417
 20
498.459442
 10
327.305328
 20
498.19516
 10
327.569641
 20
497.999634
 10
327.970367
 20
497.871338
  0
LWPOLYLINE
  5
108
330
48
100
AcDbEntity
  8
0
  6
Continuous
 62
     0
370
    30
100
AcDbPolyline
 90
        6
 70
     0
 43
0.0
 10
327.970428
 20
505.670074
 10
327.654938
 20
505.583405
 10
327.376099
 20
505.410522
 10
327.1539
 20
505.164368
 10
327.003082
 20
504.861877
 10
326.931
 20
504.428864
  0
LWPOLYLINE
  5
109
330
48
100
AcDbEntity
  8
0
  6
Continuous
 62
     0
370
    30
100
AcDbPolyline
 90
        6
 70
     0
 43
0.0
 10
326.931
 20
504.428864
 10
326.974487
 20
504.090668
 10
327.102417
 20
503.775757
 10
327.305328
 20
503.511475
 10
327.569641
 20
503.315948
 10
327.970367
 20
503.187653
  0
LWPOLYLINE
  5
10A
330
48
100
AcDbEntity
  8
0
  6
Continuous
 62
     0
370
    30
100
AcDbPolyline
 90
        6
 70
     0
 43
0.0
 10
327.970428
 20
510.986389
 10
327.654938
 20
510.899689
 10
327.376099
 20
510.726837
 10
327.1539
 20
510.480682
 10
327.003082
 20
510.178162
 10
326.931
 20
509.745178
  0
LWPOLYLINE
  5
10B
330
48
100
AcDbEntity
  8
0
  6
Continuous
 62
     0
370
    30
100
AcDbPolyline
 90
        6
 70
     0
 43
0.0
 10
326.931
 20
509.745178
 10
326.974487
 20
509.406952
 10
327.102417
 20
509.092072
 10
327.305328
 20
508.827789
 10
327.569641
 20
508.632263
 10
327.970367
 20
508.503937
  0
LWPOLYLINE
  5
10C
330
48
100
AcDbEntity
  8
0
  6
Continuous
 62
     0
370
    30
100
AcDbPolyline
 90
        6
 70
     0
 43
0.0
 10
335.001282
 20
461.898438
 10
334.955841
 20
462.241241
 10
334.822357
 20
462.559662
 10
334.611115
 20
462.82547
 10
334.336792
 20
463.019897
 10
333.928894
 20
463.141754
  0
LWPOLYLINE
  5
10D
330
48
100
AcDbEntity
  8
0
  6
Continuous
 62
     0
370
    30
100
AcDbPolyline
 90
        6
 70
     0
 43
0.0
 10
333.928833
 20
460.65506
 10
334.253906
 20
460.738373
 10
334.542145
 20
460.910767
 10
334.772125
 20
461.158936
 10
334.928009
 20
461.465302
 10
335.001282
 20
461.898438
  0
LWPOLYLINE
  5
10E
330
48
100
AcDbEntity
  8
0
  6
Continuous
 62
     0
370
    30
100
AcDbPolyline
 90
        6
 70
     0
 43
0.0
 10
335.001282
 20
467.214752
 10
334.955841
 20
467.557556
 10
334.822357
 20
467.875977
 10
334.611115
 20
468.141785
 10
334.336792
 20
468.336212
 10
333.928894
 20
468.458038
  0
LWPOLYLINE
  5
10F
330
48
100
AcDbEntity
  8
0
  6
Continuous
 62
     0
370
    30
100
AcDbPolyline
 90
        6
 70
     0
 43
0.0
 10
333.928833
 20
465.971375
 10
334.253906
 20
466.054688
 10
334.542145
 20
466.227081
 10
334.772125
 20
466.47525
 10
334.928009
 20
466.781586
 10
335.001282
 20
467.214752
  0
LWPOLYLINE
  5
110
330
48
100
AcDbEntity
  8
0
  6
Continuous
 62
     0
370
    30
100
AcDbPolyline
 90
        6
 70
     0
 43
0.0
 10
335.001282
 20
472.531036
 10
334.955841
 20
472.873871
 10
334.822357
 20
473.192291
 10
334.611115
 20
473.458099
 10
334.336792
 20
473.652496
 10
333.928894
 20
473.774353
  0
LWPOLYLINE
  5
111
330
48
100
AcDbEntity
  8
0
  6
Continuous
 62
     0
370
    30
100
AcDbPolyline
 90
        6
 70
     0
 43
0.0
 10
333.928833
 20
471.287689
 10
334.253906
 20
471.371002
 10
334.542145
 20
471.543396
 10
334.772125
 20
471.791534
 10
334.928009
 20
472.0979
 10
335.001282
 20
472.531036
  0
LWPOLYLINE
  5
112
330
48
100
AcDbEntity
  8
0
  6
Continuous
 62
     0
370
    30
100
AcDbPolyline
 90
        6
 70
     0
 43
0.0
 10
335.001282
 20
477.847351
 10
334.955841
 20
478.190186
 10
334.822357
 20
478.508575
 10
334.611115
 20
478.774384
 10
334.336792
 20
478.968811
 10
333.928894
 20
479.090668
  0
LWPOLYLINE
  5
113
330
48
100
AcDbEntity
  8
0
  6
Continuous
 62
     0
370
    30
100
AcDbPolyline
 90
        6
 70
     0
 43
0.0
 10
333.928833
 20
476.603973
 10
334.253906
 20
476.687317
 10
334.542145
 20
476.859711
 10
334.772125
 20
477.107849
 10
334.928009
 20
477.414215
 10
335.001282
 20
477.847351
  0
LWPOLYLINE
  5
114
330
48
100
AcDbEntity
  8
0
  6
Continuous
 62
     0
370
    30
100
AcDbPolyline
 90
        6
 70
     0
 43
0.0
 10
335.001282
 20
483.163666
 10
334.955841
 20
483.50647
 10
334.822357
 20
483.82489
 10
334.611115
 20
484.090698
 10
334.336792
 20
484.285126
 10
333.928894
 20
484.406982
  0
LWPOLYLINE
  5
115
330
48
100
AcDbEntity
  8
0
  6
Continuous
 62
     0
370
    30
100
AcDbPolyline
 90
        6
 70
     0
 43
0.0
 10
333.928833
 20
481.920288
 10
334.253906
 20
482.003601
 10
334.542145
 20
482.175995
 10
334.772125
 20
482.424164
 10
334.928009
 20
482.73053
 10
335.001282
 20
483.163666
  0
LWPOLYLINE
  5
116
330
48
100
AcDbEntity
  8
0
  6
Continuous
 62
     0
370
    30
100
AcDbPolyline
 90
        6
 70
     0
 43
0.0
 10
335.001282
 20
488.47995
 10
334.955841
 20
488.822784
 10
334.822357
 20
489.141205
 10
334.611115
 20
489.407013
 10
334.336792
 20
489.60144
 10
333.928894
 20
489.723267
  0
LWPOLYLINE
  5
117
330
48
100
AcDbEntity
  8
0
  6
Continuous
 62
     0
370
    30
100
AcDbPolyline
 90
        6
 70
     0
 43
0.0
 10
333.928833
 20
487.236603
 10
334.253906
 20
487.319916
 10
334.542145
 20
487.49231
 10
334.772125
 20
487.740448
 10
334.928009
 20
488.046814
 10
335.001282
 20
488.47995
  0
LWPOLYLINE
  5
118
330
48
100
AcDbEntity
  8
0
  6
Continuous
 62
     0
370
    30
100
AcDbPolyline
 90
        6
 70
     0
 43
0.0
 10
335.001282
 20
493.796265
 10
334.955841
 20
494.139099
 10
334.822357
 20
494.45752
 10
334.611115
 20
494.723328
 10
334.336792
 20
494.917725
 10
333.928894
 20
495.039581
  0
LWPOLYLINE
  5
119
330
48
100
AcDbEntity
  8
0
  6
Continuous
 62
     0
370
    30
100
AcDbPolyline
 90
        6
 70
     0
 43
0.0
 10
333.928833
 20
492.552917
 10
334.253906
 20
492.63623
 10
334.542145
 20
492.808624
 10
334.772125
 20
493.056763
 10
334.928009
 20
493.363129
 10
335.001282
 20
493.796265
  0
LWPOLYLINE
  5
11A
330
48
100
AcDbEntity
  8
0
  6
Continuous
 62
     0
370
    30
100
AcDbPolyline
 90
        6
 70
     0
 43
0.0
 10
335.001282
 20
499.112579
 10
334.955841
 20
499.455383
 10
334.822357
 20
499.773804
 10
334.611115
 20
500.039612
 10
334.336792
 20
500.234039
 10
333.928894
 20
500.355896
  0
LWPOLYLINE
  5
11B
330
48
100
AcDbEntity
  8
0
  6
Continuous
 62
     0
370
    30
100
AcDbPolyline
 90
        6
 70
     0
 43
0.0
 10
333.928833
 20
497.869202
 10
334.253906
 20
497.952545
 10
334.542145
 20
498.124939
 10
334.772125
 20
498.373077
 10
334.928009
 20
498.679443
 10
335.001282
 20
499.112579
  0
LWPOLYLINE
  5
11C
330
48
100
AcDbEntity
  8
0
  6
Continuous
 62
     0
370
    30
100
AcDbPolyline
 90
        6
 70
     0
 43
0.0
 10
335.001282
 20
504.428894
 10
334.955841
 20
504.771698
 10
334.822357
 20
505.090118
 10
334.611115
 20
505.355927
 10
334.336792
 20
505.550354
 10
333.928894
 20
505.67218
  0
LWPOLYLINE
  5
11D
330
48
100
AcDbEntity
  8
0
  6
Continuous
 62
     0
370
    30
100
AcDbPolyline
 90
        6
 70
     0
 43
0.0
 10
333.928833
 20
503.185516
 10
334.253906
 20
503.268829
 10
334.542145
 20
503.441223
 10
334.772125
 20
503.689392
 10
334.928009
 20
503.995758
 10
335.001282
 20
504.428894
  0
LWPOLYLINE
  5
11E
330
48
100
AcDbEntity
  8
0
  6
Continuous
 62
     0
370
    30
100
AcDbPolyline
 90
        6
 70
     0
 43
0.0
 10
335.001282
 20
509.745178
 10
334.955841
 20
510.088013
 10
334.822357
 20
510.406433
 10
334.611115
 20
510.672241
 10
334.336792
 20
510.866669
 10
333.928894
 20
510.988495
  0
LWPOLYLINE
  5
11F
330
48
100
AcDbEntity
  8
0
  6
Continuous
 62
     0
370
    30
100
AcDbPolyline
 90
        6
 70
     0
 43
0.0
 10
333.928833
 20
508.501831
 10
334.253906
 20
508.585144
 10
334.542145
 20
508.757538
 10
334.772125
 20
509.005676
 10
334.928009
 20
509.312042
 10
335.001282
 20
509.745178
  0
LINE
  5
120
330
48
100
AcDbEntity
  8
0
  6
Continuous
 62
     0
370
     0
100
AcDbLine
 10
343.172781
 20
525.898407
 30
0.0
 11
343.172781
 21
527.598407
 31
0.0
  0
LINE
  5
121
330
48
100
AcDbEntity
  8
0
  6
Continuous
 62
     0
370
    30
100
AcDbLine
 10
343.172781
 20
527.598407
 30
0.0
 11
319.175288
 21
527.598407
 31
0.0
  0
LINE
  5
122
330
48
100
AcDbEntity
  8
0
  6
Continuous
 62
     0
370
    30
100
AcDbLine
 10
343.175288
 20
527.598407
 30
0.0
 11
343.172781
 21
527.598407
 31
0.0
  0
LINE
  5
123
330
48
100
AcDbEntity
  8
0
  6
Continuous
 62
     0
370
     0
100
AcDbLine
 10
341.673095
 20
347.898407
 30
0.0
 11
341.673095
 21
339.898407
 31
0.0
  0
LWPOLYLINE
  5
124
330
48
100
AcDbEntity
  8
0
  6
Continuous
 62
     0
370
    30
100
AcDbPolyline
 90
       27
 70
     0
 43
0.0
 10
320.67749
 20
339.898407
 10
320.718475
 20
339.898407
 10
320.898071
 20
339.898407
 10
321.228271
 20
339.898407
 10
321.715485
 20
339.898407
 10
322.359344
 20
339.898407
 10
323.151825
 20
339.898407
 10
324.07724
 20
339.898407
 10
325.113281
 20
339.898407
 10
326.232697
 20
339.898407
 10
327.40567
 20
339.898407
 10
328.602173
 20
339.898407
 10
329.79422
 20
339.898407
 10
330.957489
 20
339.898407
 10
332.123138
 20
339.898407
 10
333.323425
 20
339.898407
 10
334.534454
 20
339.898407
 10
335.728546
 20
339.898407
 10
336.87561
 20
339.898407
 10
337.945465
 20
339.898407
 10
338.910187
 20
339.898407
 10
339.74649
 20
339.898407
 10
340.437531
 20
339.898407
 10
340.973999
 20
339.898407
 10
341.354279
 20
339.898407
 10
341.583618
 20
339.898407
 10
341.673096
 20
339.898407
  0
LINE
  5
125
330
48
100
AcDbEntity
  8
0
  6
Continuous
 62
     0
370
    30
100
AcDbLine
 10
320.675288
 20
347.898407
 30
0.0
 11
320.675288
 21
339.898407
 31
0.0
  0
LINE
  5
126
330
48
100
AcDbEntity
  8
0
  6
Continuous
 62
     0
370
    30
100
AcDbLine
 10
341.675288
 20
347.898407
 30
0.0
 11
341.675288
 21
339.898407
 31
0.0
  0
LINE
  5
127
330
48
100
AcDbEntity
  8
0
  6
Continuous
 62
     0
370
    30
100
AcDbLine
 10
343.175288
 20
527.598407
 30
0.0
 11
343.175288
 21
525.898407
 31
0.0
  0
LINE
  5
128
330
48
100
AcDbEntity
  8
0
  6
Continuous
 62
     0
370
    30
100
AcDbLine
 10
319.175288
 20
527.598407
 30
0.0
 11
319.175288
 21
525.898407
 31
0.0
  0
LINE
  5
129
330
48
100
AcDbEntity
  8
0
  6
Continuous
 62
     0
370
    30
100
AcDbLine
 10
319.175288
 20
347.898407
 30
0.0
 11
319.175288
 21
525.898407
 31
0.0
  0
LINE
  5
12A
330
48
100
AcDbEntity
  8
0
  6
Continuous
 62
     0
370
    30
100
AcDbLine
 10
343.175288
 20
347.898407
 30
0.0
 11
343.175288
 21
525.898407
 31
0.0
  0
ENDBLK
  5
12C
330
48
100
AcDbEntity
  8
0
100
AcDbBlockEnd
  0
BLOCK
  5
131
330
12E
100
AcDbEntity
  8
0
100
AcDbBlockBegin
  2
b
 70
     0
 10
292.425201
 20
118.046913
 30
0.0
  3
b
  1

  0
ARC
  5
12F
330
12E
100
AcDbEntity
  8
0
  6
Continuous
 62
     0
370
    30
100
AcDbCircle
 10
331.175288
 20
131.399087
 30
0.0
 40
12.0
100
AcDbArc
 50
178.828857
 51
358.828857
  0
ARC
  5
130
330
12E
100
AcDbEntity
  8
0
  6
Continuous
 62
     0
370
    30
100
AcDbCircle
 10
331.175288
 20
131.399087
 30
0.0
 40
12.0
100
AcDbArc
 50
358.828857
 51
178.828857
  0
ENDBLK
  5
132
330
12E
100
AcDbEntity
  8
0
100
AcDbBlockEnd
  0
BLOCK
  5
1C0
330
134
100
AcDbEntity
  8
0
100
AcDbBlockBegin
  2
c
 70
     0
 10
292.425201
 20
118.046913
 30
0.0
  3
c
  1

  0
LINE
  5
135
330
134
100
AcDbEntity
  8
0
  6
Continuous
 62
     0
370
     0
100
AcDbLine
 10
508.579449
 20
525.898392
 30
0.0
 11
496.824715
 21
525.898392
 31
0.0
  0
LINE
  5
136
330
134
100
AcDbEntity
  8
0
  6
Continuous
 62
     0
370
     0
100
AcDbLine
 10
520.824715
 20
525.898392
 30
0.0
 11
508.579449
 21
525.898392
 31
0.0
  0
LINE
  5
137
330
134
100
AcDbEntity
  8
0
  6
Continuous
 62
     0
370
    30
100
AcDbLine
 10
508.579449
 20
347.898392
 30
0.0
 11
520.824715
 21
347.898392
 31
0.0
  0
LINE
  5
138
330
134
100
AcDbEntity
  8
0
  6
Continuous
 62
     0
370
     0
100
AcDbLine
 10
496.824715
 20
350.098392
 30
0.0
 11
496.961686
 21
350.098392
 31
0.0
  0
LINE
  5
139
330
134
100
AcDbEntity
  8
0
  6
Continuous
 62
     0
370
     0
100
AcDbLine
 10
496.961686
 20
350.098392
 30
0.0
 11
496.961686
 21
347.898392
 31
0.0
  0
LINE
  5
13A
330
134
100
AcDbEntity
  8
0
  6
Continuous
 62
     0
370
    30
100
AcDbLine
 10
496.961686
 20
347.898392
 30
0.0
 11
508.579449
 21
347.898392
 31
0.0
  0
LWPOLYLINE
  5
13B
330
134
100
AcDbEntity
  8
0
  6
Continuous
 62
     0
370
    30
100
AcDbPolyline
 90
       18
 70
     0
 43
0.0
 10
520.731384
 20
459.398376
 10
520.734009
 20
459.627502
 10
520.741638
 20
459.849457
 10
520.753357
 20
460.055603
 10
520.767639
 20
460.239105
 10
520.782959
 20
460.394012
 10
520.797668
 20
460.514709
 10
520.81012
 20
460.597412
 10
520.819092
 20
460.641418
 10
520.823914
 20
460.642487
 10
520.824402
 20
460.602814
 10
520.820923
 20
460.520691
 10
520.814331
 20
460.402679
 10
520.805969
 20
460.249939
 10
520.797302
 20
460.067993
 10
520.789734
 20
459.862976
 10
520.784485
 20
459.641754
 10
520.782471
 20
459.398376
  0
LWPOLYLINE
  5
13C
330
134
100
AcDbEntity
  8
0
  6
Continuous
 62
     0
370
    30
100
AcDbPolyline
 90
       18
 70
     0
 43
0.0
 10
520.782471
 20
459.398376
 10
520.784241
 20
459.169312
 10
520.789307
 20
458.947357
 10
520.796753
 20
458.741089
 10
520.80542
 20
458.557587
 10
520.813843
 20
458.402863
 10
520.820557
 20
458.282166
 10
520.82428
 20
458.19931
 10
520.824097
 20
458.155426
 10
520.819519
 20
458.154266
 10
520.810791
 20
458.193909
 10
520.798584
 20
458.276062
 10
520.783936
 20
458.39386
 10
520.768616
 20
458.546509
 10
520.754211
 20
458.728394
 10
520.74231
 20
458.933319
 10
520.734375
 20
459.154449
 10
520.731384
 20
459.398376
  0
LWPOLYLINE
  5
13D
330
134
100
AcDbEntity
  8
0
  6
Continuous
 62
     0
370
    30
100
AcDbPolyline
 90
       18
 70
     0
 43
0.0
 10
520.731384
 20
464.698395
 10
520.734009
 20
464.92749
 10
520.741638
 20
465.149445
 10
520.753357
 20
465.355591
 10
520.767639
 20
465.539093
 10
520.782959
 20
465.694
 10
520.797668
 20
465.814728
 10
520.81012
 20
465.8974
 10
520.819092
 20
465.941437
 10
520.823914
 20
465.942474
 10
520.824402
 20
465.902802
 10
520.820923
 20
465.820679
 10
520.814331
 20
465.702667
 10
520.805969
 20
465.549957
 10
520.797302
 20
465.368011
 10
520.789734
 20
465.162964
 10
520.784485
 20
464.941772
 10
520.782471
 20
464.698364
  0
LWPOLYLINE
  5
13E
330
134
100
AcDbEntity
  8
0
  6
Continuous
 62
     0
370
    30
100
AcDbPolyline
 90
       18
 70
     0
 43
0.0
 10
520.782471
 20
464.698364
 10
520.784241
 20
464.469299
 10
520.789307
 20
464.247345
 10
520.796753
 20
464.041107
 10
520.80542
 20
463.857574
 10
520.813843
 20
463.702881
 10
520.820557
 20
463.582153
 10
520.82428
 20
463.499329
 10
520.824097
 20
463.455414
 10
520.819519
 20
463.454254
 10
520.810791
 20
463.493896
 10
520.798584
 20
463.57605
 10
520.783936
 20
463.693878
 10
520.768616
 20
463.846527
 10
520.754211
 20
464.028412
 10
520.74231
 20
464.233307
 10
520.734375
 20
464.454437
 10
520.731384
 20
464.698395
  0
LWPOLYLINE
  5
13F
330
134
100
AcDbEntity
  8
0
  6
Continuous
 62
     0
370
    30
100
AcDbPolyline
 90
       18
 70
     0
 43
0.0
 10
520.731384
 20
469.998383
 10
520.734009
 20
470.227509
 10
520.741638
 20
470.449463
 10
520.753357
 20
470.655579
 10
520.767639
 20
470.839111
 10
520.782959
 20
470.993988
 10
520.797668
 20
471.114716
 10
520.81012
 20
471.197418
 10
520.819092
 20
471.241425
 10
520.823914
 20
471.242493
 10
520.824402
 20
471.20282
 10
520.820923
 20
471.120697
 10
520.814331
 20
471.002655
 10
520.805969
 20
470.849945
 10
520.797302
 20
470.667999
 10
520.789734
 20
470.462982
 10
520.784485
 20
470.24176
 10
520.782471
 20
469.998383
  0
LWPOLYLINE
  5
140
330
134
100
AcDbEntity
  8
0
  6
Continuous
 62
     0
370
    30
100
AcDbPolyline
 90
       18
 70
     0
 43
0.0
 10
520.782471
 20
469.998383
 10
520.784241
 20
469.769318
 10
520.789307
 20
469.547363
 10
520.796753
 20
469.341095
 10
520.80542
 20
469.157593
 10
520.813843
 20
469.002869
 10
520.820557
 20
468.882172
 10
520.82428
 20
468.799316
 10
520.824097
 20
468.755402
 10
520.819519
 20
468.754242
 10
520.810791
 20
468.793915
 10
520.798584
 20
468.876038
 10
520.783936
 20
468.993866
 10
520.768616
 20
469.146515
 10
520.754211
 20
469.3284
 10
520.74231
 20
469.533325
 10
520.734375
 20
469.754456
 10
520.731384
 20
469.998383
  0
LWPOLYLINE
  5
141
330
134
100
AcDbEntity
  8
0
  6
Continuous
 62
     0
370
    30
100
AcDbPolyline
 90
       18
 70
     0
 43
0.0
 10
520.731384
 20
475.298401
 10
520.734009
 20
475.527496
 10
520.741638
 20
475.749451
 10
520.753357
 20
475.955597
 10
520.767639
 20
476.139099
 10
520.782959
 20
476.294006
 10
520.797668
 20
476.414703
 10
520.81012
 20
476.497406
 10
520.819092
 20
476.541412
 10
520.823914
 20
476.54248
 10
520.824402
 20
476.502808
 10
520.820923
 20
476.420685
 10
520.814331
 20
476.302673
 10
520.805969
 20
476.149933
 10
520.797302
 20
475.967987
 10
520.789734
 20
475.76297
 10
520.784485
 20
475.541748
 10
520.782471
 20
475.29837
  0
LWPOLYLINE
  5
142
330
134
100
AcDbEntity
  8
0
  6
Continuous
 62
     0
370
    30
100
AcDbPolyline
 90
       18
 70
     0
 43
0.0
 10
520.782471
 20
475.29837
 10
520.784241
 20
475.069305
 10
520.789307
 20
474.847351
 10
520.796753
 20
474.641113
 10
520.80542
 20
474.457581
 10
520.813843
 20
474.302887
 10
520.820557
 20
474.182159
 10
520.82428
 20
474.099304
 10
520.824097
 20
474.05542
 10
520.819519
 20
474.05426
 10
520.810791
 20
474.093903
 10
520.798584
 20
474.176056
 10
520.783936
 20
474.293854
 10
520.768616
 20
474.446533
 10
520.754211
 20
474.628418
 10
520.74231
 20
474.833313
 10
520.734375
 20
475.054443
 10
520.731384
 20
475.298401
  0
LWPOLYLINE
  5
143
330
134
100
AcDbEntity
  8
0
  6
Continuous
 62
     0
370
    30
100
AcDbPolyline
 90
       18
 70
     0
 43
0.0
 10
520.731384
 20
480.598389
 10
520.734009
 20
480.827515
 10
520.741638
 20
481.049469
 10
520.753357
 20
481.255585
 10
520.767639
 20
481.439117
 10
520.782959
 20
481.593994
 10
520.797668
 20
481.714722
 10
520.81012
 20
481.797394
 10
520.819092
 20
481.841431
 10
520.823914
 20
481.842499
 10
520.824402
 20
481.802826
 10
520.820923
 20
481.720673
 10
520.814331
 20
481.602661
 10
520.805969
 20
481.449951
 10
520.797302
 20
481.268005
 10
520.789734
 20
481.062988
 10
520.784485
 20
480.841766
 10
520.782471
 20
480.598358
  0
LWPOLYLINE
  5
144
330
134
100
AcDbEntity
  8
0
  6
Continuous
 62
     0
370
    30
100
AcDbPolyline
 90
       18
 70
     0
 43
0.0
 10
520.782471
 20
480.598358
 10
520.784241
 20
480.369324
 10
520.789307
 20
480.147369
 10
520.796753
 20
479.941101
 10
520.80542
 20
479.757568
 10
520.813843
 20
479.602875
 10
520.820557
 20
479.482178
 10
520.82428
 20
479.399323
 10
520.824097
 20
479.355408
 10
520.819519
 20
479.354248
 10
520.810791
 20
479.39389
 10
520.798584
 20
479.476044
 10
520.783936
 20
479.593872
 10
520.768616
 20
479.746521
 10
520.754211
 20
479.928406
 10
520.74231
 20
480.133301
 10
520.734375
 20
480.354462
 10
520.731384
 20
480.598389
  0
LWPOLYLINE
  5
145
330
134
100
AcDbEntity
  8
0
  6
Continuous
 62
     0
370
    30
100
AcDbPolyline
 90
       18
 70
     0
 43
0.0
 10
520.731384
 20
485.898407
 10
520.734009
 20
486.127502
 10
520.741638
 20
486.349457
 10
520.753357
 20
486.555603
 10
520.767639
 20
486.739105
 10
520.782959
 20
486.894012
 10
520.797668
 20
487.014709
 10
520.81012
 20
487.097412
 10
520.819092
 20
487.141418
 10
520.823914
 20
487.142487
 10
520.824402
 20
487.102814
 10
520.820923
 20
487.020691
 10
520.814331
 20
486.902679
 10
520.805969
 20
486.749939
 10
520.797302
 20
486.567993
 10
520.789734
 20
486.362976
 10
520.784485
 20
486.141754
 10
520.782471
 20
485.898376
  0
LWPOLYLINE
  5
146
330
134
100
AcDbEntity
  8
0
  6
Continuous
 62
     0
370
    30
100
AcDbPolyline
 90
       18
 70
     0
 43
0.0
 10
520.782471
 20
485.898376
 10
520.784241
 20
485.669312
 10
520.789307
 20
485.447357
 10
520.796753
 20
485.241089
 10
520.80542
 20
485.057587
 10
520.813843
 20
484.902863
 10
520.820557
 20
484.782166
 10
520.82428
 20
484.69931
 10
520.824097
 20
484.655426
 10
520.819519
 20
484.654266
 10
520.810791
 20
484.693909
 10
520.798584
 20
484.776062
 10
520.783936
 20
484.89386
 10
520.768616
 20
485.046509
 10
520.754211
 20
485.228394
 10
520.74231
 20
485.433319
 10
520.734375
 20
485.654449
 10
520.731384
 20
485.898407
  0
LWPOLYLINE
  5
147
330
134
100
AcDbEntity
  8
0
  6
Continuous
 62
     0
370
    30
100
AcDbPolyline
 90
       18
 70
     0
 43
0.0
 10
520.731384
 20
491.198395
 10
520.734009
 20
491.42749
 10
520.741638
 20
491.649445
 10
520.753357
 20
491.855591
 10
520.767639
 20
492.039093
 10
520.782959
 20
492.194
 10
520.797668
 20
492.314728
 10
520.81012
 20
492.3974
 10
520.819092
 20
492.441437
 10
520.823914
 20
492.442474
 10
520.824402
 20
492.402802
 10
520.820923
 20
492.320679
 10
520.814331
 20
492.202667
 10
520.805969
 20
492.049957
 10
520.797302
 20
491.868011
 10
520.789734
 20
491.662964
 10
520.784485
 20
491.441772
 10
520.782471
 20
491.198364
  0
LWPOLYLINE
  5
148
330
134
100
AcDbEntity
  8
0
  6
Continuous
 62
     0
370
    30
100
AcDbPolyline
 90
       18
 70
     0
 43
0.0
 10
520.782471
 20
491.198364
 10
520.784241
 20
490.969299
 10
520.789307
 20
490.747345
 10
520.796753
 20
490.541107
 10
520.80542
 20
490.357574
 10
520.813843
 20
490.202881
 10
520.820557
 20
490.082153
 10
520.82428
 20
489.999329
 10
520.824097
 20
489.955414
 10
520.819519
 20
489.954254
 10
520.810791
 20
489.993896
 10
520.798584
 20
490.07605
 10
520.783936
 20
490.193878
 10
520.768616
 20
490.346527
 10
520.754211
 20
490.528412
 10
520.74231
 20
490.733307
 10
520.734375
 20
490.954437
 10
520.731384
 20
491.198395
  0
LWPOLYLINE
  5
149
330
134
100
AcDbEntity
  8
0
  6
Continuous
 62
     0
370
    30
100
AcDbPolyline
 90
       18
 70
     0
 43
0.0
 10
520.731384
 20
496.498383
 10
520.734009
 20
496.727509
 10
520.741638
 20
496.949463
 10
520.753357
 20
497.155579
 10
520.767639
 20
497.339111
 10
520.782959
 20
497.493988
 10
520.797668
 20
497.614716
 10
520.81012
 20
497.697418
 10
520.819092
 20
497.741425
 10
520.823914
 20
497.742493
 10
520.824402
 20
497.70282
 10
520.820923
 20
497.620697
 10
520.814331
 20
497.502655
 10
520.805969
 20
497.349945
 10
520.797302
 20
497.167999
 10
520.789734
 20
496.962982
 10
520.784485
 20
496.74176
 10
520.782471
 20
496.498383
  0
LWPOLYLINE
  5
14A
330
134
100
AcDbEntity
  8
0
  6
Continuous
 62
     0
370
    30
100
AcDbPolyline
 90
       18
 70
     0
 43
0.0
 10
520.782471
 20
496.498383
 10
520.784241
 20
496.269318
 10
520.789307
 20
496.047363
 10
520.796753
 20
495.841095
 10
520.80542
 20
495.657593
 10
520.813843
 20
495.502869
 10
520.820557
 20
495.382172
 10
520.82428
 20
495.299316
 10
520.824097
 20
495.255402
 10
520.819519
 20
495.254242
 10
520.810791
 20
495.293915
 10
520.798584
 20
495.376038
 10
520.783936
 20
495.493866
 10
520.768616
 20
495.646515
 10
520.754211
 20
495.8284
 10
520.74231
 20
496.033325
 10
520.734375
 20
496.254456
 10
520.731384
 20
496.498383
  0
LWPOLYLINE
  5
14B
330
134
100
AcDbEntity
  8
0
  6
Continuous
 62
     0
370
    30
100
AcDbPolyline
 90
       18
 70
     0
 43
0.0
 10
520.731384
 20
501.798401
 10
520.734009
 20
502.027496
 10
520.741638
 20
502.249451
 10
520.753357
 20
502.455597
 10
520.767639
 20
502.639099
 10
520.782959
 20
502.794006
 10
520.797668
 20
502.914703
 10
520.81012
 20
502.997406
 10
520.819092
 20
503.041412
 10
520.823914
 20
503.04248
 10
520.824402
 20
503.002808
 10
520.820923
 20
502.920685
 10
520.814331
 20
502.802673
 10
520.805969
 20
502.649933
 10
520.797302
 20
502.467987
 10
520.789734
 20
502.26297
 10
520.784485
 20
502.041748
 10
520.782471
 20
501.79837
  0
LWPOLYLINE
  5
14C
330
134
100
AcDbEntity
  8
0
  6
Continuous
 62
     0
370
    30
100
AcDbPolyline
 90
       18
 70
     0
 43
0.0
 10
520.782471
 20
501.79837
 10
520.784241
 20
501.569305
 10
520.789307
 20
501.347351
 10
520.796753
 20
501.141113
 10
520.80542
 20
500.957581
 10
520.813843
 20
500.802887
 10
520.820557
 20
500.682159
 10
520.82428
 20
500.599304
 10
520.824097
 20
500.55542
 10
520.819519
 20
500.55426
 10
520.810791
 20
500.593903
 10
520.798584
 20
500.676056
 10
520.783936
 20
500.793854
 10
520.768616
 20
500.946533
 10
520.754211
 20
501.128418
 10
520.74231
 20
501.333313
 10
520.734375
 20
501.554443
 10
520.731384
 20
501.798401
  0
LWPOLYLINE
  5
14D
330
134
100
AcDbEntity
  8
0
  6
Continuous
 62
     0
370
    30
100
AcDbPolyline
 90
       18
 70
     0
 43
0.0
 10
520.731384
 20
507.098389
 10
520.734009
 20
507.327515
 10
520.741638
 20
507.549469
 10
520.753357
 20
507.755585
 10
520.767639
 20
507.939117
 10
520.782959
 20
508.093994
 10
520.797668
 20
508.214722
 10
520.81012
 20
508.297394
 10
520.819092
 20
508.341431
 10
520.823914
 20
508.342499
 10
520.824402
 20
508.302826
 10
520.820923
 20
508.220673
 10
520.814331
 20
508.102661
 10
520.805969
 20
507.949951
 10
520.797302
 20
507.768005
 10
520.789734
 20
507.562988
 10
520.784485
 20
507.341766
 10
520.782471
 20
507.098358
  0
LWPOLYLINE
  5
14E
330
134
100
AcDbEntity
  8
0
  6
Continuous
 62
     0
370
    30
100
AcDbPolyline
 90
       18
 70
     0
 43
0.0
 10
520.782471
 20
507.098358
 10
520.784241
 20
506.869324
 10
520.789307
 20
506.647369
 10
520.796753
 20
506.441101
 10
520.80542
 20
506.257568
 10
520.813843
 20
506.102875
 10
520.820557
 20
505.982178
 10
520.82428
 20
505.899323
 10
520.824097
 20
505.855408
 10
520.819519
 20
505.854248
 10
520.810791
 20
505.89389
 10
520.798584
 20
505.976044
 10
520.783936
 20
506.093872
 10
520.768616
 20
506.246521
 10
520.754211
 20
506.428406
 10
520.74231
 20
506.633301
 10
520.734375
 20
506.854462
 10
520.731384
 20
507.098389
  0
LWPOLYLINE
  5
14F
330
134
100
AcDbEntity
  8
0
  6
Continuous
 62
     0
370
    30
100
AcDbPolyline
 90
       18
 70
     0
 43
0.0
 10
520.731384
 20
512.398376
 10
520.734009
 20
512.627502
 10
520.741638
 20
512.849426
 10
520.753357
 20
513.055603
 10
520.767639
 20
513.239136
 10
520.782959
 20
513.393982
 10
520.797668
 20
513.514709
 10
520.81012
 20
513.597412
 10
520.819092
 20
513.641418
 10
520.823914
 20
513.642456
 10
520.824402
 20
513.602783
 10
520.820923
 20
513.520691
 10
520.814331
 20
513.402649
 10
520.805969
 20
513.249939
 10
520.797302
 20
513.067993
 10
520.789734
 20
512.862976
 10
520.784485
 20
512.641785
 10
520.782471
 20
512.398376
  0
LWPOLYLINE
  5
150
330
134
100
AcDbEntity
  8
0
  6
Continuous
 62
     0
370
    30
100
AcDbPolyline
 90
       18
 70
     0
 43
0.0
 10
520.782471
 20
512.398376
 10
520.784241
 20
512.169312
 10
520.789307
 20
511.947357
 10
520.796753
 20
511.741089
 10
520.80542
 20
511.557587
 10
520.813843
 20
511.402863
 10
520.820557
 20
511.282166
 10
520.82428
 20
511.19931
 10
520.824097
 20
511.155426
 10
520.819519
 20
511.154266
 10
520.810791
 20
511.193909
 10
520.798584
 20
511.276062
 10
520.783936
 20
511.39386
 10
520.768616
 20
511.546509
 10
520.754211
 20
511.728394
 10
520.74231
 20
511.933319
 10
520.734375
 20
512.15448
 10
520.731384
 20
512.398376
  0
LWPOLYLINE
  5
151
330
134
100
AcDbEntity
  8
0
  6
Continuous
 62
     0
370
    30
100
AcDbPolyline
 90
       18
 70
     0
 43
0.0
 10
518.389343
 20
459.398376
 10
518.402222
 20
459.627625
 10
518.440369
 20
459.849701
 10
518.501892
 20
460.055939
 10
518.583374
 20
460.239502
 10
518.681213
 20
460.394409
 10
518.791382
 20
460.515045
 10
518.908936
 20
460.597748
 10
519.029175
 20
460.64151
 10
519.148071
 20
460.642395
 10
519.261475
 20
460.602325
 10
519.365479
 20
460.52005
 10
519.45813
 20
460.401672
 10
519.536499
 20
460.248627
 10
519.599121
 20
460.066376
 10
519.64502
 20
459.861053
 10
519.673218
 20
459.639587
 10
519.68335
 20
459.398376
  0
LWPOLYLINE
  5
152
330
134
100
AcDbEntity
  8
0
  6
Continuous
 62
     0
370
    30
100
AcDbPolyline
 90
       18
 70
     0
 43
0.0
 10
519.68335
 20
459.398376
 10
519.674194
 20
459.169189
 10
519.646912
 20
458.947083
 10
519.60199
 20
458.740753
 10
519.540222
 20
458.557159
 10
519.462646
 20
458.402466
 10
519.37085
 20
458.28183
 10
519.267151
 20
458.198975
 10
519.154358
 20
458.155334
 10
519.035706
 20
458.154327
 10
518.915222
 20
458.194397
 10
518.797729
 20
458.276703
 10
518.68689
 20
458.394867
 10
518.588196
 20
458.547852
 10
518.505737
 20
458.730042
 10
518.443176
 20
458.935272
 10
518.403748
 20
459.156647
 10
518.389343
 20
459.398376
  0
LWPOLYLINE
  5
153
330
134
100
AcDbEntity
  8
0
  6
Continuous
 62
     0
370
    30
100
AcDbPolyline
 90
       18
 70
     0
 43
0.0
 10
518.389343
 20
464.698395
 10
518.402222
 20
464.927643
 10
518.440369
 20
465.149719
 10
518.501892
 20
465.355927
 10
518.583374
 20
465.53952
 10
518.681213
 20
465.694427
 10
518.791382
 20
465.815063
 10
518.908936
 20
465.897766
 10
519.029175
 20
465.941528
 10
519.148071
 20
465.942383
 10
519.261475
 20
465.902313
 10
519.365479
 20
465.820038
 10
519.45813
 20
465.701691
 10
519.536499
 20
465.548645
 10
519.599121
 20
465.366364
 10
519.64502
 20
465.161041
 10
519.673218
 20
464.939575
 10
519.68335
 20
464.698364
  0
LWPOLYLINE
  5
154
330
134
100
AcDbEntity
  8
0
  6
Continuous
 62
     0
370
    30
100
AcDbPolyline
 90
       18
 70
     0
 43
0.0
 10
519.68335
 20
464.698364
 10
519.674194
 20
464.469177
 10
519.646912
 20
464.247101
 10
519.60199
 20
464.040741
 10
519.540222
 20
463.857178
 10
519.462646
 20
463.702454
 10
519.37085
 20
463.581818
 10
519.267151
 20
463.498962
 10
519.154358
 20
463.455322
 10
519.035706
 20
463.454346
 10
518.915222
 20
463.494415
 10
518.797729
 20
463.576691
 10
518.68689
 20
463.694855
 10
518.588196
 20
463.847839
 10
518.505737
 20
464.03006
 10
518.443176
 20
464.23526
 10
518.403748
 20
464.456635
 10
518.389343
 20
464.698395
  0
LWPOLYLINE
  5
155
330
134
100
AcDbEntity
  8
0
  6
Continuous
 62
     0
370
    30
100
AcDbPolyline
 90
       18
 70
     0
 43
0.0
 10
518.389343
 20
469.998383
 10
518.402222
 20
470.227631
 10
518.440369
 20
470.449707
 10
518.501892
 20
470.655945
 10
518.583374
 20
470.839508
 10
518.681213
 20
470.994415
 10
518.791382
 20
471.115051
 10
518.908936
 20
471.197754
 10
519.029175
 20
471.241516
 10
519.148071
 20
471.242401
 10
519.261475
 20
471.202301
 10
519.365479
 20
471.120056
 10
519.45813
 20
471.001678
 10
519.536499
 20
470.848633
 10
519.599121
 20
470.666351
 10
519.64502
 20
470.46106
 10
519.673218
 20
470.239594
 10
519.68335
 20
469.998383
  0
LWPOLYLINE
  5
156
330
134
100
AcDbEntity
  8
0
  6
Continuous
 62
     0
370
    30
100
AcDbPolyline
 90
       18
 70
     0
 43
0.0
 10
519.68335
 20
469.998383
 10
519.674194
 20
469.769165
 10
519.646912
 20
469.547089
 10
519.60199
 20
469.340759
 10
519.540222
 20
469.157166
 10
519.462646
 20
469.002441
 10
519.37085
 20
468.881836
 10
519.267151
 20
468.798981
 10
519.154358
 20
468.75531
 10
519.035706
 20
468.754333
 10
518.915222
 20
468.794403
 10
518.797729
 20
468.876678
 10
518.68689
 20
468.994873
 10
518.588196
 20
469.147827
 10
518.505737
 20
469.330048
 10
518.443176
 20
469.535248
 10
518.403748
 20
469.756653
 10
518.389343
 20
469.998383
  0
LWPOLYLINE
  5
157
330
134
100
AcDbEntity
  8
0
  6
Continuous
 62
     0
370
    30
100
AcDbPolyline
 90
       18
 70
     0
 43
0.0
 10
518.389343
 20
475.298401
 10
518.402222
 20
475.527649
 10
518.440369
 20
475.749725
 10
518.501892
 20
475.955933
 10
518.583374
 20
476.139526
 10
518.681213
 20
476.294403
 10
518.791382
 20
476.415039
 10
518.908936
 20
476.497742
 10
519.029175
 20
476.541504
 10
519.148071
 20
476.542389
 10
519.261475
 20
476.502319
 10
519.365479
 20
476.420044
 10
519.45813
 20
476.301697
 10
519.536499
 20
476.148621
 10
519.599121
 20
475.96637
 10
519.64502
 20
475.761047
 10
519.673218
 20
475.539581
 10
519.68335
 20
475.29837
  0
LWPOLYLINE
  5
158
330
134
100
AcDbEntity
  8
0
  6
Continuous
 62
     0
370
    30
100
AcDbPolyline
 90
       18
 70
     0
 43
0.0
 10
519.68335
 20
475.29837
 10
519.674194
 20
475.069183
 10
519.646912
 20
474.847107
 10
519.60199
 20
474.640747
 10
519.540222
 20
474.457184
 10
519.462646
 20
474.30246
 10
519.37085
 20
474.181824
 10
519.267151
 20
474.098969
 10
519.154358
 20
474.055328
 10
519.035706
 20
474.054352
 10
518.915222
 20
474.094421
 10
518.797729
 20
474.176697
 10
518.68689
 20
474.294861
 10
518.588196
 20
474.447845
 10
518.505737
 20
474.630035
 10
518.443176
 20
474.835266
 10
518.403748
 20
475.056641
 10
518.389343
 20
475.298401
  0
LWPOLYLINE
  5
159
330
134
100
AcDbEntity
  8
0
  6
Continuous
 62
     0
370
    30
100
AcDbPolyline
 90
       18
 70
     0
 43
0.0
 10
518.389343
 20
480.598389
 10
518.402222
 20
480.827637
 10
518.440369
 20
481.049713
 10
518.501892
 20
481.255951
 10
518.583374
 20
481.439514
 10
518.681213
 20
481.594421
 10
518.791382
 20
481.715057
 10
518.908936
 20
481.79776
 10
519.029175
 20
481.841522
 10
519.148071
 20
481.842407
 10
519.261475
 20
481.802307
 10
519.365479
 20
481.720032
 10
519.45813
 20
481.601685
 10
519.536499
 20
481.448639
 10
519.599121
 20
481.266357
 10
519.64502
 20
481.061035
 10
519.673218
 20
480.839569
 10
519.68335
 20
480.598358
  0
LWPOLYLINE
  5
15A
330
134
100
AcDbEntity
  8
0
  6
Continuous
 62
     0
370
    30
100
AcDbPolyline
 90
       18
 70
     0
 43
0.0
 10
519.68335
 20
480.598358
 10
519.674194
 20
480.369171
 10
519.646912
 20
480.147095
 10
519.60199
 20
479.940735
 10
519.540222
 20
479.757172
 10
519.462646
 20
479.602448
 10
519.37085
 20
479.481812
 10
519.267151
 20
479.398956
 10
519.154358
 20
479.355316
 10
519.035706
 20
479.35434
 10
518.915222
 20
479.394409
 10
518.797729
 20
479.476685
 10
518.68689
 20
479.594849
 10
518.588196
 20
479.747833
 10
518.505737
 20
479.930054
 10
518.443176
 20
480.135254
 10
518.403748
 20
480.356628
 10
518.389343
 20
480.598389
  0
LWPOLYLINE
  5
15B
330
134
100
AcDbEntity
  8
0
  6
Continuous
 62
     0
370
    30
100
AcDbPolyline
 90
       18
 70
     0
 43
0.0
 10
518.389343
 20
485.898407
 10
518.402222
 20
486.127625
 10
518.440369
 20
486.349701
 10
518.501892
 20
486.555939
 10
518.583374
 20
486.739502
 10
518.681213
 20
486.894409
 10
518.791382
 20
487.015045
 10
518.908936
 20
487.097748
 10
519.029175
 20
487.14151
 10
519.148071
 20
487.142395
 10
519.261475
 20
487.102325
 10
519.365479
 20
487.02005
 10
519.45813
 20
486.901672
 10
519.536499
 20
486.748627
 10
519.599121
 20
486.566376
 10
519.64502
 20
486.361053
 10
519.673218
 20
486.139587
 10
519.68335
 20
485.898376
  0
LWPOLYLINE
  5
15C
330
134
100
AcDbEntity
  8
0
  6
Continuous
 62
     0
370
    30
100
AcDbPolyline
 90
       18
 70
     0
 43
0.0
 10
519.68335
 20
485.898376
 10
519.674194
 20
485.669189
 10
519.646912
 20
485.447083
 10
519.60199
 20
485.240753
 10
519.540222
 20
485.057159
 10
519.462646
 20
484.902466
 10
519.37085
 20
484.78183
 10
519.267151
 20
484.698975
 10
519.154358
 20
484.655334
 10
519.035706
 20
484.654327
 10
518.915222
 20
484.694397
 10
518.797729
 20
484.776703
 10
518.68689
 20
484.894867
 10
518.588196
 20
485.047852
 10
518.505737
 20
485.230042
 10
518.443176
 20
485.435272
 10
518.403748
 20
485.656647
 10
518.389343
 20
485.898376
  0
LWPOLYLINE
  5
15D
330
134
100
AcDbEntity
  8
0
  6
Continuous
 62
     0
370
    30
100
AcDbPolyline
 90
       18
 70
     0
 43
0.0
 10
518.389343
 20
491.198395
 10
518.402222
 20
491.427643
 10
518.440369
 20
491.649719
 10
518.501892
 20
491.855927
 10
518.583374
 20
492.03952
 10
518.681213
 20
492.194427
 10
518.791382
 20
492.315063
 10
518.908936
 20
492.397766
 10
519.029175
 20
492.441528
 10
519.148071
 20
492.442383
 10
519.261475
 20
492.402313
 10
519.365479
 20
492.320038
 10
519.45813
 20
492.201691
 10
519.536499
 20
492.048645
 10
519.599121
 20
491.866364
 10
519.64502
 20
491.661041
 10
519.673218
 20
491.439575
 10
519.68335
 20
491.198364
  0
LWPOLYLINE
  5
15E
330
134
100
AcDbEntity
  8
0
  6
Continuous
 62
     0
370
    30
100
AcDbPolyline
 90
       18
 70
     0
 43
0.0
 10
519.68335
 20
491.198364
 10
519.674194
 20
490.969177
 10
519.646912
 20
490.747101
 10
519.60199
 20
490.540741
 10
519.540222
 20
490.357178
 10
519.462646
 20
490.202454
 10
519.37085
 20
490.081818
 10
519.267151
 20
489.998962
 10
519.154358
 20
489.955322
 10
519.035706
 20
489.954346
 10
518.915222
 20
489.994415
 10
518.797729
 20
490.076691
 10
518.68689
 20
490.194855
 10
518.588196
 20
490.347839
 10
518.505737
 20
490.53006
 10
518.443176
 20
490.73526
 10
518.403748
 20
490.956635
 10
518.389343
 20
491.198395
  0
LWPOLYLINE
  5
15F
330
134
100
AcDbEntity
  8
0
  6
Continuous
 62
     0
370
    30
100
AcDbPolyline
 90
       18
 70
     0
 43
0.0
 10
518.389343
 20
496.498383
 10
518.402222
 20
496.727631
 10
518.440369
 20
496.949707
 10
518.501892
 20
497.155945
 10
518.583374
 20
497.339508
 10
518.681213
 20
497.494415
 10
518.791382
 20
497.615051
 10
518.908936
 20
497.697754
 10
519.029175
 20
497.741516
 10
519.148071
 20
497.742401
 10
519.261475
 20
497.702301
 10
519.365479
 20
497.620056
 10
519.45813
 20
497.501678
 10
519.536499
 20
497.348633
 10
519.599121
 20
497.166351
 10
519.64502
 20
496.96106
 10
519.673218
 20
496.739594
 10
519.68335
 20
496.498383
  0
LWPOLYLINE
  5
160
330
134
100
AcDbEntity
  8
0
  6
Continuous
 62
     0
370
    30
100
AcDbPolyline
 90
       18
 70
     0
 43
0.0
 10
519.68335
 20
496.498383
 10
519.674194
 20
496.269165
 10
519.646912
 20
496.047089
 10
519.60199
 20
495.840759
 10
519.540222
 20
495.657166
 10
519.462646
 20
495.502441
 10
519.37085
 20
495.381836
 10
519.267151
 20
495.298981
 10
519.154358
 20
495.25531
 10
519.035706
 20
495.254333
 10
518.915222
 20
495.294403
 10
518.797729
 20
495.376678
 10
518.68689
 20
495.494873
 10
518.588196
 20
495.647827
 10
518.505737
 20
495.830048
 10
518.443176
 20
496.035248
 10
518.403748
 20
496.256653
 10
518.389343
 20
496.498383
  0
LWPOLYLINE
  5
161
330
134
100
AcDbEntity
  8
0
  6
Continuous
 62
     0
370
    30
100
AcDbPolyline
 90
       18
 70
     0
 43
0.0
 10
518.389343
 20
501.798401
 10
518.402222
 20
502.027649
 10
518.440369
 20
502.249725
 10
518.501892
 20
502.455933
 10
518.583374
 20
502.639526
 10
518.681213
 20
502.794403
 10
518.791382
 20
502.915039
 10
518.908936
 20
502.997742
 10
519.029175
 20
503.041504
 10
519.148071
 20
503.042389
 10
519.261475
 20
503.002319
 10
519.365479
 20
502.920044
 10
519.45813
 20
502.801697
 10
519.536499
 20
502.648621
 10
519.599121
 20
502.46637
 10
519.64502
 20
502.261047
 10
519.673218
 20
502.039581
 10
519.68335
 20
501.79837
  0
LWPOLYLINE
  5
162
330
134
100
AcDbEntity
  8
0
  6
Continuous
 62
     0
370
    30
100
AcDbPolyline
 90
       18
 70
     0
 43
0.0
 10
519.68335
 20
501.79837
 10
519.674194
 20
501.569183
 10
519.646912
 20
501.347107
 10
519.60199
 20
501.140747
 10
519.540222
 20
500.957184
 10
519.462646
 20
500.80246
 10
519.37085
 20
500.681824
 10
519.267151
 20
500.598969
 10
519.154358
 20
500.555328
 10
519.035706
 20
500.554352
 10
518.915222
 20
500.594421
 10
518.797729
 20
500.676697
 10
518.68689
 20
500.794861
 10
518.588196
 20
500.947845
 10
518.505737
 20
501.130035
 10
518.443176
 20
501.335266
 10
518.403748
 20
501.556641
 10
518.389343
 20
501.798401
  0
LWPOLYLINE
  5
163
330
134
100
AcDbEntity
  8
0
  6
Continuous
 62
     0
370
    30
100
AcDbPolyline
 90
       18
 70
     0
 43
0.0
 10
518.389343
 20
507.098389
 10
518.402222
 20
507.327637
 10
518.440369
 20
507.549713
 10
518.501892
 20
507.755951
 10
518.583374
 20
507.939514
 10
518.681213
 20
508.094421
 10
518.791382
 20
508.215057
 10
518.908936
 20
508.29776
 10
519.029175
 20
508.341522
 10
519.148071
 20
508.342407
 10
519.261475
 20
508.302307
 10
519.365479
 20
508.220032
 10
519.45813
 20
508.101685
 10
519.536499
 20
507.948639
 10
519.599121
 20
507.766357
 10
519.64502
 20
507.561035
 10
519.673218
 20
507.339569
 10
519.68335
 20
507.098358
  0
LWPOLYLINE
  5
164
330
134
100
AcDbEntity
  8
0
  6
Continuous
 62
     0
370
    30
100
AcDbPolyline
 90
       18
 70
     0
 43
0.0
 10
519.68335
 20
507.098358
 10
519.674194
 20
506.869171
 10
519.646912
 20
506.647095
 10
519.60199
 20
506.440735
 10
519.540222
 20
506.257172
 10
519.462646
 20
506.102448
 10
519.37085
 20
505.981812
 10
519.267151
 20
505.898956
 10
519.154358
 20
505.855316
 10
519.035706
 20
505.85434
 10
518.915222
 20
505.894409
 10
518.797729
 20
505.976685
 10
518.68689
 20
506.094849
 10
518.588196
 20
506.247833
 10
518.505737
 20
506.430054
 10
518.443176
 20
506.635254
 10
518.403748
 20
506.856628
 10
518.389343
 20
507.098389
  0
LWPOLYLINE
  5
165
330
134
100
AcDbEntity
  8
0
  6
Continuous
 62
     0
370
    30
100
AcDbPolyline
 90
       18
 70
     0
 43
0.0
 10
518.389343
 20
512.398376
 10
518.402222
 20
512.627625
 10
518.440369
 20
512.849731
 10
518.501892
 20
513.055969
 10
518.583374
 20
513.239502
 10
518.681213
 20
513.394409
 10
518.791382
 20
513.515076
 10
518.908936
 20
513.597778
 10
519.029175
 20
513.641541
 10
519.148071
 20
513.642395
 10
519.261475
 20
513.602295
 10
519.365479
 20
513.52002
 10
519.45813
 20
513.401672
 10
519.536499
 20
513.248657
 10
519.599121
 20
513.066345
 10
519.64502
 20
512.861023
 10
519.673218
 20
512.639587
 10
519.68335
 20
512.398376
  0
LWPOLYLINE
  5
166
330
134
100
AcDbEntity
  8
0
  6
Continuous
 62
     0
370
    30
100
AcDbPolyline
 90
       18
 70
     0
 43
0.0
 10
519.68335
 20
512.398376
 10
519.674194
 20
512.169189
 10
519.646912
 20
511.947083
 10
519.60199
 20
511.740753
 10
519.540222
 20
511.557159
 10
519.462646
 20
511.402466
 10
519.37085
 20
511.28183
 10
519.267151
 20
511.198975
 10
519.154358
 20
511.155334
 10
519.035706
 20
511.154327
 10
518.915222
 20
511.194397
 10
518.797729
 20
511.276703
 10
518.68689
 20
511.394867
 10
518.588196
 20
511.547852
 10
518.505737
 20
511.730042
 10
518.443176
 20
511.935272
 10
518.403748
 20
512.156616
 10
518.389343
 20
512.398376
  0
LWPOLYLINE
  5
167
330
134
100
AcDbEntity
  8
0
  6
Continuous
 62
     0
370
    30
100
AcDbPolyline
 90
        3
 70
     0
 43
0.0
 10
518.76062
 20
459.984375
 10
518.7453
 20
459.930237
 10
518.677551
 20
459.398376
  0
LWPOLYLINE
  5
168
330
134
100
AcDbEntity
  8
0
  6
Continuous
 62
     0
370
    30
100
AcDbPolyline
 90
        3
 70
     0
 43
0.0
 10
518.677551
 20
459.398376
 10
518.678406
 20
459.337646
 10
518.76062
 20
458.812378
  0
LWPOLYLINE
  5
169
330
134
100
AcDbEntity
  8
0
  6
Continuous
 62
     0
370
    30
100
AcDbPolyline
 90
        3
 70
     0
 43
0.0
 10
518.76062
 20
465.284363
 10
518.7453
 20
465.230225
 10
518.677551
 20
464.698364
  0
LWPOLYLINE
  5
16A
330
134
100
AcDbEntity
  8
0
  6
Continuous
 62
     0
370
    30
100
AcDbPolyline
 90
        3
 70
     0
 43
0.0
 10
518.677551
 20
464.698364
 10
518.678406
 20
464.637665
 10
518.76062
 20
464.112366
  0
LWPOLYLINE
  5
16B
330
134
100
AcDbEntity
  8
0
  6
Continuous
 62
     0
370
    30
100
AcDbPolyline
 90
        3
 70
     0
 43
0.0
 10
518.76062
 20
470.584381
 10
518.7453
 20
470.530243
 10
518.677551
 20
469.998383
  0
LWPOLYLINE
  5
16C
330
134
100
AcDbEntity
  8
0
  6
Continuous
 62
     0
370
    30
100
AcDbPolyline
 90
        3
 70
     0
 43
0.0
 10
518.677551
 20
469.998383
 10
518.678406
 20
469.937653
 10
518.76062
 20
469.412354
  0
LWPOLYLINE
  5
16D
330
134
100
AcDbEntity
  8
0
  6
Continuous
 62
     0
370
    30
100
AcDbPolyline
 90
        3
 70
     0
 43
0.0
 10
518.76062
 20
475.884369
 10
518.7453
 20
475.830231
 10
518.677551
 20
475.29837
  0
LWPOLYLINE
  5
16E
330
134
100
AcDbEntity
  8
0
  6
Continuous
 62
     0
370
    30
100
AcDbPolyline
 90
        3
 70
     0
 43
0.0
 10
518.677551
 20
475.29837
 10
518.678406
 20
475.237671
 10
518.76062
 20
474.712372
  0
LWPOLYLINE
  5
16F
330
134
100
AcDbEntity
  8
0
  6
Continuous
 62
     0
370
    30
100
AcDbPolyline
 90
        3
 70
     0
 43
0.0
 10
518.76062
 20
481.184357
 10
518.7453
 20
481.130219
 10
518.677551
 20
480.598358
  0
LWPOLYLINE
  5
170
330
134
100
AcDbEntity
  8
0
  6
Continuous
 62
     0
370
    30
100
AcDbPolyline
 90
        3
 70
     0
 43
0.0
 10
518.677551
 20
480.598358
 10
518.678406
 20
480.537659
 10
518.76062
 20
480.01236
  0
LWPOLYLINE
  5
171
330
134
100
AcDbEntity
  8
0
  6
Continuous
 62
     0
370
    30
100
AcDbPolyline
 90
        3
 70
     0
 43
0.0
 10
518.76062
 20
486.484375
 10
518.7453
 20
486.430237
 10
518.677551
 20
485.898376
  0
LWPOLYLINE
  5
172
330
134
100
AcDbEntity
  8
0
  6
Continuous
 62
     0
370
    30
100
AcDbPolyline
 90
        3
 70
     0
 43
0.0
 10
518.677551
 20
485.898376
 10
518.678406
 20
485.837646
 10
518.76062
 20
485.312378
  0
LWPOLYLINE
  5
173
330
134
100
AcDbEntity
  8
0
  6
Continuous
 62
     0
370
    30
100
AcDbPolyline
 90
        3
 70
     0
 43
0.0
 10
518.76062
 20
491.784363
 10
518.7453
 20
491.730225
 10
518.677551
 20
491.198364
  0
LWPOLYLINE
  5
174
330
134
100
AcDbEntity
  8
0
  6
Continuous
 62
     0
370
    30
100
AcDbPolyline
 90
        3
 70
     0
 43
0.0
 10
518.677551
 20
491.198364
 10
518.678406
 20
491.137665
 10
518.76062
 20
490.612366
  0
LWPOLYLINE
  5
175
330
134
100
AcDbEntity
  8
0
  6
Continuous
 62
     0
370
    30
100
AcDbPolyline
 90
        3
 70
     0
 43
0.0
 10
518.76062
 20
497.084381
 10
518.7453
 20
497.030243
 10
518.677551
 20
496.498383
  0
LWPOLYLINE
  5
176
330
134
100
AcDbEntity
  8
0
  6
Continuous
 62
     0
370
    30
100
AcDbPolyline
 90
        3
 70
     0
 43
0.0
 10
518.677551
 20
496.498383
 10
518.678406
 20
496.437653
 10
518.76062
 20
495.912354
  0
LWPOLYLINE
  5
177
330
134
100
AcDbEntity
  8
0
  6
Continuous
 62
     0
370
    30
100
AcDbPolyline
 90
        3
 70
     0
 43
0.0
 10
518.76062
 20
502.384369
 10
518.7453
 20
502.330231
 10
518.677551
 20
501.79837
  0
LWPOLYLINE
  5
178
330
134
100
AcDbEntity
  8
0
  6
Continuous
 62
     0
370
    30
100
AcDbPolyline
 90
        3
 70
     0
 43
0.0
 10
518.677551
 20
501.79837
 10
518.678406
 20
501.737671
 10
518.76062
 20
501.212372
  0
LWPOLYLINE
  5
179
330
134
100
AcDbEntity
  8
0
  6
Continuous
 62
     0
370
    30
100
AcDbPolyline
 90
        3
 70
     0
 43
0.0
 10
518.76062
 20
507.684357
 10
518.7453
 20
507.630219
 10
518.677551
 20
507.098358
  0
LWPOLYLINE
  5
17A
330
134
100
AcDbEntity
  8
0
  6
Continuous
 62
     0
370
    30
100
AcDbPolyline
 90
        3
 70
     0
 43
0.0
 10
518.677551
 20
507.098358
 10
518.678406
 20
507.037659
 10
518.76062
 20
506.51236
  0
LWPOLYLINE
  5
17B
330
134
100
AcDbEntity
  8
0
  6
Continuous
 62
     0
370
    30
100
AcDbPolyline
 90
        3
 70
     0
 43
0.0
 10
518.76062
 20
512.984375
 10
518.7453
 20
512.930237
 10
518.677551
 20
512.398376
  0
LWPOLYLINE
  5
17C
330
134
100
AcDbEntity
  8
0
  6
Continuous
 62
     0
370
    30
100
AcDbPolyline
 90
        3
 70
     0
 43
0.0
 10
518.677551
 20
512.398376
 10
518.678406
 20
512.337646
 10
518.76062
 20
511.812378
  0
LWPOLYLINE
  5
17D
330
134
100
AcDbEntity
  8
0
  6
Continuous
 62
     0
370
    30
100
AcDbPolyline
 90
       18
 70
     0
 43
0.0
 10
519.939087
 20
461.898376
 10
519.947144
 20
462.127502
 10
519.970764
 20
462.349487
 10
520.008606
 20
462.555725
 10
520.058105
 20
462.739319
 10
520.116699
 20
462.894043
 10
520.181274
 20
463.014618
 10
520.248535
 20
463.097504
 10
520.31543
 20
463.141418
 10
520.379456
 20
463.142487
 10
520.438354
 20
463.102753
 10
520.490417
 20
463.020599
 10
520.534973
 20
462.902588
 10
520.571228
 20
462.749786
 10
520.599243
 20
462.567871
 10
520.61908
 20
462.362793
 10
520.631042
 20
462.14151
 10
520.635376
 20
461.898407
  0
LWPOLYLINE
  5
17E
330
134
100
AcDbEntity
  8
0
  6
Continuous
 62
     0
370
    30
100
AcDbPolyline
 90
       18
 70
     0
 43
0.0
 10
520.635376
 20
461.898407
 10
520.631531
 20
461.669281
 10
520.620056
 20
461.447235
 10
520.600647
 20
461.240967
 10
520.573181
 20
461.057343
 10
520.537415
 20
460.902649
 10
520.493408
 20
460.781982
 10
520.44165
 20
460.699097
 10
520.383179
 20
460.655365
 10
520.319397
 20
460.654297
 10
520.252502
 20
460.694275
 10
520.185364
 20
460.776337
 10
520.120422
 20
460.89444
 10
520.061462
 20
461.047516
 10
520.011292
 20
461.229523
 10
519.972656
 20
461.434509
 10
519.948059
 20
461.655792
 10
519.939087
 20
461.898376
  0
LWPOLYLINE
  5
17F
330
134
100
AcDbEntity
  8
0
  6
Continuous
 62
     0
370
    30
100
AcDbPolyline
 90
       18
 70
     0
 43
0.0
 10
519.939087
 20
467.214691
 10
519.947144
 20
467.443817
 10
519.970764
 20
467.665802
 10
520.008606
 20
467.872009
 10
520.058105
 20
468.055634
 10
520.116699
 20
468.210358
 10
520.181274
 20
468.330933
 10
520.248535
 20
468.413818
 10
520.31543
 20
468.457733
 10
520.379456
 20
468.458771
 10
520.438354
 20
468.419067
 10
520.490417
 20
468.336914
 10
520.534973
 20
468.218872
 10
520.571228
 20
468.066101
 10
520.599243
 20
467.884186
 10
520.61908
 20
467.679077
 10
520.631042
 20
467.457825
 10
520.635376
 20
467.214722
  0
LWPOLYLINE
  5
180
330
134
100
AcDbEntity
  8
0
  6
Continuous
 62
     0
370
    30
100
AcDbPolyline
 90
       18
 70
     0
 43
0.0
 10
520.635376
 20
467.214722
 10
520.631531
 20
466.985565
 10
520.620056
 20
466.76355
 10
520.600647
 20
466.557281
 10
520.573181
 20
466.373657
 10
520.537415
 20
466.218933
 10
520.493408
 20
466.098267
 10
520.44165
 20
466.015411
 10
520.383179
 20
465.97168
 10
520.319397
 20
465.970612
 10
520.252502
 20
466.01059
 10
520.185364
 20
466.092621
 10
520.120422
 20
466.210754
 10
520.061462
 20
466.3638
 10
520.011292
 20
466.545807
 10
519.972656
 20
466.750824
 10
519.948059
 20
466.972107
 10
519.939087
 20
467.214691
  0
LWPOLYLINE
  5
181
330
134
100
AcDbEntity
  8
0
  6
Continuous
 62
     0
370
    30
100
AcDbPolyline
 90
       18
 70
     0
 43
0.0
 10
519.939087
 20
472.531006
 10
519.947144
 20
472.760132
 10
519.970764
 20
472.982117
 10
520.008606
 20
473.188324
 10
520.058105
 20
473.371948
 10
520.116699
 20
473.526642
 10
520.181274
 20
473.647247
 10
520.248535
 20
473.730133
 10
520.31543
 20
473.774048
 10
520.379456
 20
473.775085
 10
520.438354
 20
473.735382
 10
520.490417
 20
473.653229
 10
520.534973
 20
473.535187
 10
520.571228
 20
473.382416
 10
520.599243
 20
473.20047
 10
520.61908
 20
472.995392
 10
520.631042
 20
472.774139
 10
520.635376
 20
472.531036
  0
LWPOLYLINE
  5
182
330
134
100
AcDbEntity
  8
0
  6
Continuous
 62
     0
370
    30
100
AcDbPolyline
 90
       18
 70
     0
 43
0.0
 10
520.635376
 20
472.531036
 10
520.631531
 20
472.30188
 10
520.620056
 20
472.079865
 10
520.600647
 20
471.873566
 10
520.573181
 20
471.689941
 10
520.537415
 20
471.535248
 10
520.493408
 20
471.414581
 10
520.44165
 20
471.331696
 10
520.383179
 20
471.287994
 10
520.319397
 20
471.286896
 10
520.252502
 20
471.326904
 10
520.185364
 20
471.408936
 10
520.120422
 20
471.527069
 10
520.061462
 20
471.680115
 10
520.011292
 20
471.862122
 10
519.972656
 20
472.067139
 10
519.948059
 20
472.288422
 10
519.939087
 20
472.531006
  0
LWPOLYLINE
  5
183
330
134
100
AcDbEntity
  8
0
  6
Continuous
 62
     0
370
    30
100
AcDbPolyline
 90
       18
 70
     0
 43
0.0
 10
519.939087
 20
477.847321
 10
519.947144
 20
478.076416
 10
519.970764
 20
478.298401
 10
520.008606
 20
478.504639
 10
520.058105
 20
478.688263
 10
520.116699
 20
478.842957
 10
520.181274
 20
478.963562
 10
520.248535
 20
479.046417
 10
520.31543
 20
479.090332
 10
520.379456
 20
479.0914
 10
520.438354
 20
479.051697
 10
520.490417
 20
478.969543
 10
520.534973
 20
478.851501
 10
520.571228
 20
478.6987
 10
520.599243
 20
478.516785
 10
520.61908
 20
478.311707
 10
520.631042
 20
478.090454
 10
520.635376
 20
477.847321
  0
LWPOLYLINE
  5
184
330
134
100
AcDbEntity
  8
0
  6
Continuous
 62
     0
370
    30
100
AcDbPolyline
 90
       18
 70
     0
 43
0.0
 10
520.635376
 20
477.847321
 10
520.631531
 20
477.618195
 10
520.620056
 20
477.396179
 10
520.600647
 20
477.18988
 10
520.573181
 20
477.006256
 10
520.537415
 20
476.851562
 10
520.493408
 20
476.730896
 10
520.44165
 20
476.64801
 10
520.383179
 20
476.604279
 10
520.319397
 20
476.60321
 10
520.252502
 20
476.643219
 10
520.185364
 20
476.72525
 10
520.120422
 20
476.843384
 10
520.061462
 20
476.996429
 10
520.011292
 20
477.178436
 10
519.972656
 20
477.383453
 10
519.948059
 20
477.604706
 10
519.939087
 20
477.847321
  0
LWPOLYLINE
  5
185
330
134
100
AcDbEntity
  8
0
  6
Continuous
 62
     0
370
    30
100
AcDbPolyline
 90
       18
 70
     0
 43
0.0
 10
519.939087
 20
483.163605
 10
519.947144
 20
483.392731
 10
519.970764
 20
483.614716
 10
520.008606
 20
483.820953
 10
520.058105
 20
484.004547
 10
520.116699
 20
484.159271
 10
520.181274
 20
484.279846
 10
520.248535
 20
484.362732
 10
520.31543
 20
484.406647
 10
520.379456
 20
484.407715
 10
520.438354
 20
484.367981
 10
520.490417
 20
484.285828
 10
520.534973
 20
484.167816
 10
520.571228
 20
484.015015
 10
520.599243
 20
483.833099
 10
520.61908
 20
483.628021
 10
520.631042
 20
483.406738
 10
520.635376
 20
483.163635
  0
LWPOLYLINE
  5
186
330
134
100
AcDbEntity
  8
0
  6
Continuous
 62
     0
370
    30
100
AcDbPolyline
 90
       18
 70
     0
 43
0.0
 10
520.635376
 20
483.163635
 10
520.631531
 20
482.934509
 10
520.620056
 20
482.712463
 10
520.600647
 20
482.506195
 10
520.573181
 20
482.322571
 10
520.537415
 20
482.167877
 10
520.493408
 20
482.047211
 10
520.44165
 20
481.964325
 10
520.383179
 20
481.920593
 10
520.319397
 20
481.919525
 10
520.252502
 20
481.959503
 10
520.185364
 20
482.041565
 10
520.120422
 20
482.159668
 10
520.061462
 20
482.312744
 10
520.011292
 20
482.494751
 10
519.972656
 20
482.699738
 10
519.948059
 20
482.921021
 10
519.939087
 20
483.163605
  0
LWPOLYLINE
  5
187
330
134
100
AcDbEntity
  8
0
  6
Continuous
 62
     0
370
    30
100
AcDbPolyline
 90
       18
 70
     0
 43
0.0
 10
519.939087
 20
488.479919
 10
519.947144
 20
488.709045
 10
519.970764
 20
488.93103
 10
520.008606
 20
489.137238
 10
520.058105
 20
489.320862
 10
520.116699
 20
489.475586
 10
520.181274
 20
489.596161
 10
520.248535
 20
489.679047
 10
520.31543
 20
489.722961
 10
520.379456
 20
489.723999
 10
520.438354
 20
489.684296
 10
520.490417
 20
489.602142
 10
520.534973
 20
489.4841
 10
520.571228
 20
489.331329
 10
520.599243
 20
489.149414
 10
520.61908
 20
488.944305
 10
520.631042
 20
488.723053
 10
520.635376
 20
488.47995
  0
LWPOLYLINE
  5
188
330
134
100
AcDbEntity
  8
0
  6
Continuous
 62
     0
370
    30
100
AcDbPolyline
 90
       18
 70
     0
 43
0.0
 10
520.635376
 20
488.47995
 10
520.631531
 20
488.250793
 10
520.620056
 20
488.028778
 10
520.600647
 20
487.82251
 10
520.573181
 20
487.638885
 10
520.537415
 20
487.484161
 10
520.493408
 20
487.363495
 10
520.44165
 20
487.28064
 10
520.383179
 20
487.236908
 10
520.319397
 20
487.23584
 10
520.252502
 20
487.275818
 10
520.185364
 20
487.357849
 10
520.120422
 20
487.475983
 10
520.061462
 20
487.629028
 10
520.011292
 20
487.811035
 10
519.972656
 20
488.016052
 10
519.948059
 20
488.237335
 10
519.939087
 20
488.479919
  0
LWPOLYLINE
  5
189
330
134
100
AcDbEntity
  8
0
  6
Continuous
 62
     0
370
    30
100
AcDbPolyline
 90
       18
 70
     0
 43
0.0
 10
519.939087
 20
493.796234
 10
519.947144
 20
494.02536
 10
519.970764
 20
494.247314
 10
520.008606
 20
494.453552
 10
520.058105
 20
494.637177
 10
520.116699
 20
494.79187
 10
520.181274
 20
494.912476
 10
520.248535
 20
494.995361
 10
520.31543
 20
495.039276
 10
520.379456
 20
495.040314
 10
520.438354
 20
495.00061
 10
520.490417
 20
494.918457
 10
520.534973
 20
494.800415
 10
520.571228
 20
494.647614
 10
520.599243
 20
494.465698
 10
520.61908
 20
494.26062
 10
520.631042
 20
494.039368
 10
520.635376
 20
493.796265
  0
LWPOLYLINE
  5
18A
330
134
100
AcDbEntity
  8
0
  6
Continuous
 62
     0
370
    30
100
AcDbPolyline
 90
       18
 70
     0
 43
0.0
 10
520.635376
 20
493.796265
 10
520.631531
 20
493.567108
 10
520.620056
 20
493.345093
 10
520.600647
 20
493.138794
 10
520.573181
 20
492.95517
 10
520.537415
 20
492.800476
 10
520.493408
 20
492.67981
 10
520.44165
 20
492.596924
 10
520.383179
 20
492.553223
 10
520.319397
 20
492.552124
 10
520.252502
 20
492.592133
 10
520.185364
 20
492.674164
 10
520.120422
 20
492.792297
 10
520.061462
 20
492.945343
 10
520.011292
 20
493.12735
 10
519.972656
 20
493.332367
 10
519.948059
 20
493.55365
 10
519.939087
 20
493.796234
  0
LWPOLYLINE
  5
18B
330
134
100
AcDbEntity
  8
0
  6
Continuous
 62
     0
370
    30
100
AcDbPolyline
 90
       18
 70
     0
 43
0.0
 10
519.939087
 20
499.112549
 10
519.947144
 20
499.341644
 10
519.970764
 20
499.563629
 10
520.008606
 20
499.769867
 10
520.058105
 20
499.953461
 10
520.116699
 20
500.108185
 10
520.181274
 20
500.22879
 10
520.248535
 20
500.311646
 10
520.31543
 20
500.35556
 10
520.379456
 20
500.356628
 10
520.438354
 20
500.316925
 10
520.490417
 20
500.234772
 10
520.534973
 20
500.11673
 10
520.571228
 20
499.963928
 10
520.599243
 20
499.782013
 10
520.61908
 20
499.576935
 10
520.631042
 20
499.355682
 10
520.635376
 20
499.112549
  0
LWPOLYLINE
  5
18C
330
134
100
AcDbEntity
  8
0
  6
Continuous
 62
     0
370
    30
100
AcDbPolyline
 90
       18
 70
     0
 43
0.0
 10
520.635376
 20
499.112549
 10
520.631531
 20
498.883423
 10
520.620056
 20
498.661407
 10
520.600647
 20
498.455109
 10
520.573181
 20
498.271484
 10
520.537415
 20
498.116791
 10
520.493408
 20
497.996124
 10
520.44165
 20
497.913239
 10
520.383179
 20
497.869507
 10
520.319397
 20
497.868439
 10
520.252502
 20
497.908417
 10
520.185364
 20
497.990479
 10
520.120422
 20
498.108612
 10
520.061462
 20
498.261658
 10
520.011292
 20
498.443665
 10
519.972656
 20
498.648682
 10
519.948059
 20
498.869934
 10
519.939087
 20
499.112549
  0
LWPOLYLINE
  5
18D
330
134
100
AcDbEntity
  8
0
  6
Continuous
 62
     0
370
    30
100
AcDbPolyline
 90
       18
 70
     0
 43
0.0
 10
519.939087
 20
504.428833
 10
519.947144
 20
504.657959
 10
519.970764
 20
504.879944
 10
520.008606
 20
505.086151
 10
520.058105
 20
505.269775
 10
520.116699
 20
505.4245
 10
520.181274
 20
505.545074
 10
520.248535
 20
505.62796
 10
520.31543
 20
505.671875
 10
520.379456
 20
505.672943
 10
520.438354
 20
505.633209
 10
520.490417
 20
505.551056
 10
520.534973
 20
505.433044
 10
520.571228
 20
505.280243
 10
520.599243
 20
505.098328
 10
520.61908
 20
504.893219
 10
520.631042
 20
504.671967
 10
520.635376
 20
504.428864
  0
LWPOLYLINE
  5
18E
330
134
100
AcDbEntity
  8
0
  6
Continuous
 62
     0
370
    30
100
AcDbPolyline
 90
       18
 70
     0
 43
0.0
 10
520.635376
 20
504.428864
 10
520.631531
 20
504.199738
 10
520.620056
 20
503.977692
 10
520.600647
 20
503.771423
 10
520.573181
 20
503.587799
 10
520.537415
 20
503.433105
 10
520.493408
 20
503.312439
 10
520.44165
 20
503.229553
 10
520.383179
 20
503.185822
 10
520.319397
 20
503.184753
 10
520.252502
 20
503.224731
 10
520.185364
 20
503.306793
 10
520.120422
 20
503.424896
 10
520.061462
 20
503.577972
 10
520.011292
 20
503.759949
 10
519.972656
 20
503.964966
 10
519.948059
 20
504.186249
 10
519.939087
 20
504.428833
  0
LWPOLYLINE
  5
18F
330
134
100
AcDbEntity
  8
0
  6
Continuous
 62
     0
370
    30
100
AcDbPolyline
 90
       18
 70
     0
 43
0.0
 10
519.939087
 20
509.745148
 10
519.947144
 20
509.974274
 10
519.970764
 20
510.196259
 10
520.008606
 20
510.402466
 10
520.058105
 20
510.58609
 10
520.116699
 20
510.740814
 10
520.181274
 20
510.861389
 10
520.248535
 20
510.944275
 10
520.31543
 20
510.98819
 10
520.379456
 20
510.989227
 10
520.438354
 20
510.949524
 10
520.490417
 20
510.867371
 10
520.534973
 20
510.749329
 10
520.571228
 20
510.596558
 10
520.599243
 20
510.414642
 10
520.61908
 20
510.209534
 10
520.631042
 20
509.988281
 10
520.635376
 20
509.745178
  0
LWPOLYLINE
  5
190
330
134
100
AcDbEntity
  8
0
  6
Continuous
 62
     0
370
    30
100
AcDbPolyline
 90
       18
 70
     0
 43
0.0
 10
520.635376
 20
509.745178
 10
520.631531
 20
509.516022
 10
520.620056
 20
509.294006
 10
520.600647
 20
509.087708
 10
520.573181
 20
508.904114
 10
520.537415
 20
508.74939
 10
520.493408
 20
508.628723
 10
520.44165
 20
508.545837
 10
520.383179
 20
508.502136
 10
520.319397
 20
508.501068
 10
520.252502
 20
508.541046
 10
520.185364
 20
508.623077
 10
520.120422
 20
508.741211
 10
520.061462
 20
508.894257
 10
520.011292
 20
509.076263
 10
519.972656
 20
509.281281
 10
519.948059
 20
509.502563
 10
519.939087
 20
509.745148
  0
LWPOLYLINE
  5
191
330
134
100
AcDbEntity
  8
0
  6
Continuous
 62
     0
370
    30
100
AcDbPolyline
 90
        4
 70
     0
 43
0.0
 10
518.822632
 20
459.398376
 10
518.809509
 20
459.675812
 10
518.769897
 20
459.94162
 10
518.638916
 20
460.333984
  0
LWPOLYLINE
  5
192
330
134
100
AcDbEntity
  8
0
  6
Continuous
 62
     0
370
    30
100
AcDbPolyline
 90
        4
 70
     0
 43
0.0
 10
518.638855
 20
458.462646
 10
518.722412
 20
458.670502
 10
518.781616
 20
458.915833
 10
518.822632
 20
459.398376
  0
LWPOLYLINE
  5
193
330
134
100
AcDbEntity
  8
0
  6
Continuous
 62
     0
370
    30
100
AcDbPolyline
 90
        4
 70
     0
 43
0.0
 10
518.822632
 20
464.698364
 10
518.809509
 20
464.97583
 10
518.769897
 20
465.241608
 10
518.638916
 20
465.633972
  0
LWPOLYLINE
  5
194
330
134
100
AcDbEntity
  8
0
  6
Continuous
 62
     0
370
    30
100
AcDbPolyline
 90
        4
 70
     0
 43
0.0
 10
518.638855
 20
463.762665
 10
518.722412
 20
463.97052
 10
518.781616
 20
464.21582
 10
518.822632
 20
464.698364
  0
LWPOLYLINE
  5
195
330
134
100
AcDbEntity
  8
0
  6
Continuous
 62
     0
370
    30
100
AcDbPolyline
 90
        4
 70
     0
 43
0.0
 10
518.822632
 20
469.998383
 10
518.809509
 20
470.275818
 10
518.769897
 20
470.541626
 10
518.638916
 20
470.93396
  0
LWPOLYLINE
  5
196
330
134
100
AcDbEntity
  8
0
  6
Continuous
 62
     0
370
    30
100
AcDbPolyline
 90
        4
 70
     0
 43
0.0
 10
518.638855
 20
469.062653
 10
518.722412
 20
469.270508
 10
518.781616
 20
469.515839
 10
518.822632
 20
469.998383
  0
LWPOLYLINE
  5
197
330
134
100
AcDbEntity
  8
0
  6
Continuous
 62
     0
370
    30
100
AcDbPolyline
 90
        4
 70
     0
 43
0.0
 10
518.822632
 20
475.29837
 10
518.809509
 20
475.575836
 10
518.769897
 20
475.841614
 10
518.638916
 20
476.233978
  0
LWPOLYLINE
  5
198
330
134
100
AcDbEntity
  8
0
  6
Continuous
 62
     0
370
    30
100
AcDbPolyline
 90
        4
 70
     0
 43
0.0
 10
518.638855
 20
474.362671
 10
518.722412
 20
474.570526
 10
518.781616
 20
474.815826
 10
518.822632
 20
475.29837
  0
LWPOLYLINE
  5
199
330
134
100
AcDbEntity
  8
0
  6
Continuous
 62
     0
370
    30
100
AcDbPolyline
 90
        4
 70
     0
 43
0.0
 10
518.822632
 20
480.598358
 10
518.809509
 20
480.875824
 10
518.769897
 20
481.141602
 10
518.638916
 20
481.533966
  0
LWPOLYLINE
  5
19A
330
134
100
AcDbEntity
  8
0
  6
Continuous
 62
     0
370
    30
100
AcDbPolyline
 90
        4
 70
     0
 43
0.0
 10
518.638855
 20
479.662659
 10
518.722412
 20
479.870514
 10
518.781616
 20
480.115845
 10
518.822632
 20
480.598358
  0
LWPOLYLINE
  5
19B
330
134
100
AcDbEntity
  8
0
  6
Continuous
 62
     0
370
    30
100
AcDbPolyline
 90
        4
 70
     0
 43
0.0
 10
518.822632
 20
485.898376
 10
518.809509
 20
486.175812
 10
518.769897
 20
486.44162
 10
518.638916
 20
486.833984
  0
LWPOLYLINE
  5
19C
330
134
100
AcDbEntity
  8
0
  6
Continuous
 62
     0
370
    30
100
AcDbPolyline
 90
        4
 70
     0
 43
0.0
 10
518.638855
 20
484.962646
 10
518.722412
 20
485.170502
 10
518.781616
 20
485.415833
 10
518.822632
 20
485.898376
  0
LWPOLYLINE
  5
19D
330
134
100
AcDbEntity
  8
0
  6
Continuous
 62
     0
370
    30
100
AcDbPolyline
 90
        4
 70
     0
 43
0.0
 10
518.822632
 20
491.198364
 10
518.809509
 20
491.47583
 10
518.769897
 20
491.741608
 10
518.638916
 20
492.133972
  0
LWPOLYLINE
  5
19E
330
134
100
AcDbEntity
  8
0
  6
Continuous
 62
     0
370
    30
100
AcDbPolyline
 90
        4
 70
     0
 43
0.0
 10
518.638855
 20
490.262665
 10
518.722412
 20
490.47052
 10
518.781616
 20
490.71582
 10
518.822632
 20
491.198364
  0
LWPOLYLINE
  5
19F
330
134
100
AcDbEntity
  8
0
  6
Continuous
 62
     0
370
    30
100
AcDbPolyline
 90
        4
 70
     0
 43
0.0
 10
518.822632
 20
496.498383
 10
518.809509
 20
496.775818
 10
518.769897
 20
497.041626
 10
518.638916
 20
497.43396
  0
LWPOLYLINE
  5
1A0
330
134
100
AcDbEntity
  8
0
  6
Continuous
 62
     0
370
    30
100
AcDbPolyline
 90
        4
 70
     0
 43
0.0
 10
518.638855
 20
495.562653
 10
518.722412
 20
495.770508
 10
518.781616
 20
496.015839
 10
518.822632
 20
496.498383
  0
LWPOLYLINE
  5
1A1
330
134
100
AcDbEntity
  8
0
  6
Continuous
 62
     0
370
    30
100
AcDbPolyline
 90
        4
 70
     0
 43
0.0
 10
518.822632
 20
501.79837
 10
518.809509
 20
502.075836
 10
518.769897
 20
502.341614
 10
518.638916
 20
502.733978
  0
LWPOLYLINE
  5
1A2
330
134
100
AcDbEntity
  8
0
  6
Continuous
 62
     0
370
    30
100
AcDbPolyline
 90
        4
 70
     0
 43
0.0
 10
518.638855
 20
500.862671
 10
518.722412
 20
501.070526
 10
518.781616
 20
501.315826
 10
518.822632
 20
501.79837
  0
LWPOLYLINE
  5
1A3
330
134
100
AcDbEntity
  8
0
  6
Continuous
 62
     0
370
    30
100
AcDbPolyline
 90
        4
 70
     0
 43
0.0
 10
518.822632
 20
507.098358
 10
518.809509
 20
507.375824
 10
518.769897
 20
507.641602
 10
518.638916
 20
508.033966
  0
LWPOLYLINE
  5
1A4
330
134
100
AcDbEntity
  8
0
  6
Continuous
 62
     0
370
    30
100
AcDbPolyline
 90
        4
 70
     0
 43
0.0
 10
518.638855
 20
506.162659
 10
518.722412
 20
506.370514
 10
518.781616
 20
506.615845
 10
518.822632
 20
507.098358
  0
LWPOLYLINE
  5
1A5
330
134
100
AcDbEntity
  8
0
  6
Continuous
 62
     0
370
    30
100
AcDbPolyline
 90
        4
 70
     0
 43
0.0
 10
518.822632
 20
512.398376
 10
518.809509
 20
512.675842
 10
518.769897
 20
512.941589
 10
518.638916
 20
513.333984
  0
LWPOLYLINE
  5
1A6
330
134
100
AcDbEntity
  8
0
  6
Continuous
 62
     0
370
    30
100
AcDbPolyline
 90
        4
 70
     0
 43
0.0
 10
518.638855
 20
511.462646
 10
518.722412
 20
511.670502
 10
518.781616
 20
511.915833
 10
518.822632
 20
512.398376
  0
LINE
  5
1A7
330
134
100
AcDbEntity
  8
0
  6
Continuous
 62
     0
370
    30
100
AcDbLine
 10
520.824715
 20
527.598392
 30
0.0
 11
508.579449
 21
527.598392
 31
0.0
  0
LINE
  5
1A8
330
134
100
AcDbEntity
  8
0
  6
Continuous
 62
     0
370
     0
100
AcDbLine
 10
508.579449
 20
527.598392
 30
0.0
 11
508.579449
 21
525.898392
 31
0.0
  0
LINE
  5
1A9
330
134
100
AcDbEntity
  8
0
  6
Continuous
 62
     0
370
    30
100
AcDbLine
 10
508.579449
 20
527.598392
 30
0.0
 11
496.824715
 21
527.598392
 31
0.0
  0
LINE
  5
1AA
330
134
100
AcDbEntity
  8
0
  6
Continuous
 62
     0
370
    30
100
AcDbLine
 10
496.824715
 20
347.898392
 30
0.0
 11
496.961686
 21
347.898392
 31
0.0
  0
LINE
  5
1AB
330
134
100
AcDbEntity
  8
0
  6
Continuous
 62
     0
370
    30
100
AcDbLine
 10
498.324715
 20
339.898392
 30
0.0
 11
508.610107
 21
339.898392
 31
0.0
  0
LINE
  5
1AC
330
134
100
AcDbEntity
  8
0
  6
Continuous
 62
     0
370
     0
100
AcDbLine
 10
508.610107
 20
339.898392
 30
0.0
 11
508.610107
 21
347.898392
 31
0.0
  0
LINE
  5
1AD
330
134
100
AcDbEntity
  8
0
  6
Continuous
 62
     0
370
    30
100
AcDbLine
 10
508.610107
 20
339.898392
 30
0.0
 11
519.324715
 21
339.898392
 31
0.0
  0
LINE
  5
1AE
330
134
100
AcDbEntity
  8
0
  6
Continuous
 62
     0
370
    30
100
AcDbLine
 10
519.324715
 20
347.898392
 30
0.0
 11
519.324715
 21
339.898392
 31
0.0
  0
LINE
  5
1AF
330
134
100
AcDbEntity
  8
0
  6
Continuous
 62
     0
370
    30
100
AcDbLine
 10
498.324715
 20
347.898392
 30
0.0
 11
498.324715
 21
339.898392
 31
0.0
  0
LINE
  5
1B0
330
134
100
AcDbEntity
  8
0
  6
Continuous
 62
     0
370
    30
100
AcDbLine
 10
496.824715
 20
347.898392
 30
0.0
 11
496.824715
 21
350.098392
 31
0.0
  0
LINE
  5
1B1
330
134
100
AcDbEntity
  8
0
  6
Continuous
 62
     0
370
    30
100
AcDbLine
 10
496.824715
 20
527.598392
 30
0.0
 11
496.824715
 21
525.898392
 31
0.0
  0
LINE
  5
1B2
330
134
100
AcDbEntity
  8
0
  6
Continuous
 62
     0
370
    30
100
AcDbLine
 10
520.824715
 20
527.598392
 30
0.0
 11
520.824715
 21
525.898392
 31
0.0
  0
LINE
  5
1B3
330
134
100
AcDbEntity
  8
0
  6
Continuous
 62
     0
370
    30
100
AcDbLine
 10
520.824715
 20
347.898392
 30
0.0
 11
520.824715
 21
458.156095
 31
0.0
  0
LINE
  5
1B4
330
134
100
AcDbEntity
  8
0
  6
Continuous
 62
     0
370
    30
100
AcDbLine
 10
520.824715
 20
460.640676
 30
0.0
 11
520.824715
 21
463.456095
 31
0.0
  0
LINE
  5
1B5
330
134
100
AcDbEntity
  8
0
  6
Continuous
 62
     0
370
    30
100
AcDbLine
 10
520.824715
 20
465.940676
 30
0.0
 11
520.824715
 21
468.756095
 31
0.0
  0
LINE
  5
1B6
330
134
100
AcDbEntity
  8
0
  6
Continuous
 62
     0
370
    30
100
AcDbLine
 10
520.824715
 20
471.240676
 30
0.0
 11
520.824715
 21
474.056095
 31
0.0
  0
LINE
  5
1B7
330
134
100
AcDbEntity
  8
0
  6
Continuous
 62
     0
370
    30
100
AcDbLine
 10
520.824715
 20
476.540676
 30
0.0
 11
520.824715
 21
479.356095
 31
0.0
  0
LINE
  5
1B8
330
134
100
AcDbEntity
  8
0
  6
Continuous
 62
     0
370
    30
100
AcDbLine
 10
520.824715
 20
481.840676
 30
0.0
 11
520.824715
 21
484.656095
 31
0.0
  0
LINE
  5
1B9
330
134
100
AcDbEntity
  8
0
  6
Continuous
 62
     0
370
    30
100
AcDbLine
 10
520.824715
 20
487.140676
 30
0.0
 11
520.824715
 21
489.956095
 31
0.0
  0
LINE
  5
1BA
330
134
100
AcDbEntity
  8
0
  6
Continuous
 62
     0
370
    30
100
AcDbLine
 10
520.824715
 20
492.440676
 30
0.0
 11
520.824715
 21
495.256095
 31
0.0
  0
LINE
  5
1BB
330
134
100
AcDbEntity
  8
0
  6
Continuous
 62
     0
370
    30
100
AcDbLine
 10
520.824715
 20
497.740676
 30
0.0
 11
520.824715
 21
500.556095
 31
0.0
  0
LINE
  5
1BC
330
134
100
AcDbEntity
  8
0
  6
Continuous
 62
     0
370
    30
100
AcDbLine
 10
520.824715
 20
503.040676
 30
0.0
 11
520.824715
 21
505.856095
 31
0.0
  0
LINE
  5
1BD
330
134
100
AcDbEntity
  8
0
  6
Continuous
 62
     0
370
    30
100
AcDbLine
 10
520.824715
 20
508.340676
 30
0.0
 11
520.824715
 21
511.156095
 31
0.0
  0
LINE
  5
1BE
330
134
100
AcDbEntity
  8
0
  6
Continuous
 62
     0
370
    30
100
AcDbLine
 10
520.824715
 20
513.640676
 30
0.0
 11
520.824715
 21
525.898392
 31
0.0
  0
LINE
  5
1BF
330
134
100
AcDbEntity
  8
0
  6
Continuous
 62
     0
370
    30
100
AcDbLine
 10
496.824715
 20
350.098392
 30
0.0
 11
496.824715
 21
525.898392
 31
0.0
  0
ENDBLK
  5
1C1
330
134
100
AcDbEntity
  8
0
100
AcDbBlockEnd
  0
BLOCK
  5
2A2
330
1C3
100
AcDbEntity
  8
0
100
AcDbBlockBegin
  2
d
 70
     0
 10
292.425201
 20
118.046913
 30
0.0
  3
d
  1

  0
ELLIPSE
  5
1C4
330
1C3
100
AcDbEntity
  8
0
  6
Continuous
 62
     0
370
     0
100
AcDbEllipse
 10
505.13971
 20
291.254577
 30
0.0
 11
11.8928247818114
 21
-1.600224580842545
 31
0.0
210
0.0
220
0.0
230
-1.0
 40
0.530287
 41
2.820990785666745
 42
3.141592653009732
  0
ELLIPSE
  5
1C5
330
1C3
100
AcDbEntity
  8
0
  6
Continuous
 62
     0
370
     0
100
AcDbEllipse
 10
505.13971
 20
291.254577
 30
0.0
 11
11.8928247818114
 21
-1.600224580842545
 31
0.0
210
0.0
220
0.0
230
-1.0
 40
0.530287
 41
6.283185306599531
 42
9.10417609284633
  0
ELLIPSE
  5
1C6
330
1C3
100
AcDbEntity
  8
0
  6
Continuous
 62
     0
370
    30
100
AcDbEllipse
 10
485.015336
 20
141.690788
 30
0.0
 11
-11.8928247818114
 21
1.600224580842545
 31
0.0
210
0.0
220
0.0
230
1.0
 40
0.530287
 41
0.3206018679230498
 42
3.141592654169848
  0
ELLIPSE
  5
1C7
330
1C3
100
AcDbEntity
  8
0
  6
Continuous
 62
     0
370
    30
100
AcDbEllipse
 10
485.015336
 20
141.690788
 30
0.0
 11
-11.8928247818114
 21
1.600224580842545
 31
0.0
210
0.0
220
0.0
230
1.0
 40
0.530287
 41
0.0000000005800542
 42
0.3206018679230498
  0
LWPOLYLINE
  5
1C8
330
1C3
100
AcDbEntity
  8
0
  6
Continuous
 62
     0
370
    30
100
AcDbPolyline
 90
       17
 70
     0
 43
0.0
 10
499.344299
 20
228.875137
 10
499.395477
 20
229.079346
 10
499.492432
 20
229.275528
 10
499.630798
 20
229.455673
 10
499.80426
 20
229.613693
 10
500.006073
 20
229.744705
 10
500.228119
 20
229.845459
 10
500.462219
 20
229.912292
 10
500.69986
 20
229.93718
 10
500.932068
 20
229.932663
 10
501.147217
 20
229.886139
 10
501.338776
 20
229.803421
 10
501.501068
 20
229.68869
 10
501.62738
 20
229.543976
 10
501.713318
 20
229.373734
 10
501.755554
 20
229.183792
 10
501.751404
 20
228.972778
  0
LWPOLYLINE
  5
1C9
330
1C3
100
AcDbEntity
  8
0
  6
Continuous
 62
     0
370
    30
100
AcDbPolyline
 90
       17
 70
     0
 43
0.0
 10
501.751404
 20
228.972778
 10
501.701294
 20
228.765762
 10
501.607788
 20
228.561737
 10
501.474792
 20
228.369949
 10
501.307251
 20
228.198441
 10
501.111206
 20
228.054138
 10
500.894165
 20
227.941971
 10
500.663361
 20
227.86763
 10
500.426849
 20
227.840118
 10
500.193359
 20
227.84729
 10
499.974915
 20
227.901779
 10
499.778198
 20
227.995926
 10
499.609955
 20
228.124329
 10
499.477753
 20
228.282852
 10
499.386749
 20
228.464905
 10
499.341248
 20
228.662918
 10
499.344299
 20
228.875137
  0
LWPOLYLINE
  5
1CA
330
1C3
100
AcDbEntity
  8
0
  6
Continuous
 62
     0
370
    30
100
AcDbPolyline
 90
       17
 70
     0
 43
0.0
 10
499.943512
 20
233.328445
 10
499.99469
 20
233.532654
 10
500.091644
 20
233.728836
 10
500.22998
 20
233.908966
 10
500.403473
 20
234.066986
 10
500.605255
 20
234.197998
 10
500.827332
 20
234.298752
 10
501.061432
 20
234.365601
 10
501.299072
 20
234.390488
 10
501.53125
 20
234.385971
 10
501.746429
 20
234.339447
 10
501.937988
 20
234.256729
 10
502.100281
 20
234.141998
 10
502.226593
 20
233.997269
 10
502.312531
 20
233.827042
 10
502.354767
 20
233.6371
 10
502.350616
 20
233.426071
  0
LWPOLYLINE
  5
1CB
330
1C3
100
AcDbEntity
  8
0
  6
Continuous
 62
     0
370
    30
100
AcDbPolyline
 90
       17
 70
     0
 43
0.0
 10
502.350616
 20
233.426071
 10
502.300507
 20
233.21907
 10
502.207001
 20
233.015045
 10
502.074005
 20
232.823242
 10
501.906433
 20
232.651749
 10
501.710419
 20
232.507446
 10
501.493378
 20
232.395279
 10
501.262573
 20
232.320938
 10
501.026062
 20
232.293411
 10
500.792572
 20
232.300583
 10
500.574127
 20
232.355087
 10
500.377411
 20
232.449234
 10
500.209167
 20
232.577621
 10
500.076965
 20
232.73616
 10
499.985962
 20
232.918198
 10
499.94046
 20
233.116211
 10
499.943512
 20
233.328445
  0
LWPOLYLINE
  5
1CC
330
1C3
100
AcDbEntity
  8
0
  6
Continuous
 62
     0
370
    30
100
AcDbPolyline
 90
       17
 70
     0
 43
0.0
 10
500.542725
 20
237.781738
 10
500.593903
 20
237.985947
 10
500.690857
 20
238.182144
 10
500.829193
 20
238.362274
 10
501.002686
 20
238.520294
 10
501.204468
 20
238.651306
 10
501.426544
 20
238.75206
 10
501.660645
 20
238.818893
 10
501.898285
 20
238.843781
 10
502.130463
 20
238.839279
 10
502.345642
 20
238.792755
 10
502.537201
 20
238.710022
 10
502.699493
 20
238.595306
 10
502.825775
 20
238.450577
 10
502.911743
 20
238.280334
 10
502.953979
 20
238.090408
 10
502.949829
 20
237.879379
  0
LWPOLYLINE
  5
1CD
330
1C3
100
AcDbEntity
  8
0
  6
Continuous
 62
     0
370
    30
100
AcDbPolyline
 90
       17
 70
     0
 43
0.0
 10
502.949829
 20
237.879379
 10
502.899719
 20
237.672379
 10
502.806213
 20
237.468338
 10
502.673218
 20
237.27655
 10
502.505646
 20
237.105042
 10
502.309631
 20
236.960754
 10
502.09259
 20
236.848572
 10
501.861786
 20
236.774231
 10
501.625275
 20
236.746719
 10
501.391785
 20
236.753891
 10
501.17334
 20
236.80838
 10
500.976624
 20
236.902527
 10
500.80838
 20
237.03093
 10
500.676178
 20
237.189468
 10
500.585175
 20
237.371506
 10
500.539673
 20
237.569519
 10
500.542725
 20
237.781738
  0
LWPOLYLINE
  5
1CE
330
1C3
100
AcDbEntity
  8
0
  6
Continuous
 62
     0
370
    30
100
AcDbPolyline
 90
       17
 70
     0
 43
0.0
 10
501.141937
 20
242.235046
 10
501.193115
 20
242.439255
 10
501.29007
 20
242.635437
 10
501.428406
 20
242.815582
 10
501.601868
 20
242.973602
 10
501.80368
 20
243.104614
 10
502.025757
 20
243.205368
 10
502.259857
 20
243.272202
 10
502.497498
 20
243.297089
 10
502.729675
 20
243.292572
 10
502.944824
 20
243.246048
 10
503.136414
 20
243.16333
 10
503.298706
 20
243.048615
 10
503.424988
 20
242.903885
 10
503.510956
 20
242.733643
 10
503.553192
 20
242.543701
 10
503.549042
 20
242.332687
  0
LWPOLYLINE
  5
1CF
330
1C3
100
AcDbEntity
  8
0
  6
Continuous
 62
     0
370
    30
100
AcDbPolyline
 90
       17
 70
     0
 43
0.0
 10
503.549042
 20
242.332687
 10
503.498932
 20
242.125687
 10
503.405396
 20
241.921646
 10
503.27243
 20
241.729858
 10
503.104858
 20
241.55835
 10
502.908844
 20
241.414047
 10
502.691803
 20
241.30188
 10
502.460999
 20
241.227539
 10
502.224487
 20
241.200027
 10
501.990997
 20
241.207199
 10
501.772552
 20
241.261688
 10
501.575836
 20
241.355835
 10
501.407593
 20
241.484238
 10
501.275391
 20
241.642761
 10
501.184387
 20
241.824814
 10
501.138885
 20
242.022827
 10
501.141937
 20
242.235046
  0
LWPOLYLINE
  5
1D0
330
1C3
100
AcDbEntity
  8
0
  6
Continuous
 62
     0
370
    30
100
AcDbPolyline
 90
       17
 70
     0
 43
0.0
 10
501.741119
 20
246.688354
 10
501.792328
 20
246.892563
 10
501.889282
 20
247.088745
 10
502.027618
 20
247.268875
 10
502.20108
 20
247.42691
 10
502.402893
 20
247.557922
 10
502.624969
 20
247.658661
 10
502.859039
 20
247.72551
 10
503.09671
 20
247.750397
 10
503.328888
 20
247.74588
 10
503.544037
 20
247.699356
 10
503.735626
 20
247.616638
 10
503.897888
 20
247.501907
 10
504.0242
 20
247.357193
 10
504.110168
 20
247.186951
 10
504.152405
 20
246.997009
 10
504.148254
 20
246.785995
  0
LWPOLYLINE
  5
1D1
330
1C3
100
AcDbEntity
  8
0
  6
Continuous
 62
     0
370
    30
100
AcDbPolyline
 90
       17
 70
     0
 43
0.0
 10
504.148254
 20
246.785995
 10
504.098145
 20
246.578979
 10
504.004608
 20
246.374954
 10
503.871643
 20
246.183151
 10
503.704071
 20
246.011658
 10
503.508057
 20
245.867355
 10
503.290985
 20
245.755188
 10
503.060211
 20
245.680847
 10
502.8237
 20
245.653336
 10
502.59021
 20
245.660492
 10
502.371765
 20
245.714996
 10
502.175049
 20
245.809143
 10
502.006775
 20
245.937531
 10
501.874603
 20
246.096069
 10
501.7836
 20
246.278107
 10
501.738098
 20
246.476135
 10
501.741119
 20
246.688354
  0
LWPOLYLINE
  5
1D2
330
1C3
100
AcDbEntity
  8
0
  6
Continuous
 62
     0
370
    30
100
AcDbPolyline
 90
       17
 70
     0
 43
0.0
 10
502.340332
 20
251.141663
 10
502.391541
 20
251.345871
 10
502.488464
 20
251.542053
 10
502.626831
 20
251.722183
 10
502.800293
 20
251.880203
 10
503.002106
 20
252.011215
 10
503.224182
 20
252.111969
 10
503.458252
 20
252.178818
 10
503.695923
 20
252.203705
 10
503.928101
 20
252.199188
 10
504.14325
 20
252.152664
 10
504.334808
 20
252.069946
 10
504.497101
 20
251.955215
 10
504.623413
 20
251.810486
 10
504.709351
 20
251.640259
 10
504.751617
 20
251.450317
 10
504.747467
 20
251.239288
  0
LWPOLYLINE
  5
1D3
330
1C3
100
AcDbEntity
  8
0
  6
Continuous
 62
     0
370
    30
100
AcDbPolyline
 90
       17
 70
     0
 43
0.0
 10
504.747467
 20
251.239288
 10
504.697327
 20
251.032288
 10
504.603821
 20
250.828262
 10
504.470825
 20
250.636459
 10
504.303284
 20
250.464966
 10
504.107269
 20
250.320663
 10
503.890198
 20
250.208496
 10
503.659424
 20
250.13414
 10
503.422913
 20
250.106628
 10
503.189423
 20
250.1138
 10
502.970978
 20
250.168289
 10
502.774261
 20
250.262436
 10
502.605988
 20
250.390839
 10
502.473785
 20
250.549377
 10
502.382812
 20
250.731415
 10
502.337311
 20
250.929428
 10
502.340332
 20
251.141663
  0
LWPOLYLINE
  5
1D4
330
1C3
100
AcDbEntity
  8
0
  6
Continuous
 62
     0
370
    30
100
AcDbPolyline
 90
       17
 70
     0
 43
0.0
 10
502.939545
 20
255.594955
 10
502.990753
 20
255.799164
 10
503.087677
 20
255.995361
 10
503.226044
 20
256.175476
 10
503.399506
 20
256.333496
 10
503.601318
 20
256.464539
 10
503.823364
 20
256.565277
 10
504.057465
 20
256.632111
 10
504.295105
 20
256.657013
 10
504.527313
 20
256.652496
 10
504.742462
 20
256.605957
 10
504.934021
 20
256.523254
 10
505.096313
 20
256.408508
 10
505.222626
 20
256.263794
 10
505.308563
 20
256.093567
 10
505.35083
 20
255.90361
 10
505.34668
 20
255.692596
  0
LWPOLYLINE
  5
1D5
330
1C3
100
AcDbEntity
  8
0
  6
Continuous
 62
     0
370
    30
100
AcDbPolyline
 90
       17
 70
     0
 43
0.0
 10
505.34668
 20
255.692596
 10
505.296539
 20
255.485596
 10
505.203033
 20
255.281555
 10
505.070038
 20
255.089767
 10
504.902496
 20
254.918259
 10
504.706482
 20
254.773956
 10
504.48941
 20
254.661789
 10
504.258636
 20
254.587448
 10
504.022125
 20
254.559937
 10
503.788635
 20
254.567108
 10
503.57016
 20
254.621597
 10
503.373474
 20
254.715744
 10
503.2052
 20
254.844147
 10
503.072998
 20
255.00267
 10
502.982025
 20
255.184723
 10
502.936523
 20
255.382736
 10
502.939545
 20
255.594955
  0
LWPOLYLINE
  5
1D6
330
1C3
100
AcDbEntity
  8
0
  6
Continuous
 62
     0
370
    30
100
AcDbPolyline
 90
       17
 70
     0
 43
0.0
 10
503.538757
 20
260.048248
 10
503.589935
 20
260.252472
 10
503.68689
 20
260.448669
 10
503.825256
 20
260.628784
 10
503.998718
 20
260.786804
 10
504.200531
 20
260.917816
 10
504.422577
 20
261.018585
 10
504.656677
 20
261.085419
 10
504.894318
 20
261.110321
 10
505.126526
 20
261.105804
 10
505.341675
 20
261.059265
 10
505.533234
 20
260.976532
 10
505.695526
 20
260.861816
 10
505.821838
 20
260.717102
 10
505.907776
 20
260.546875
 10
505.950012
 20
260.356934
 10
505.945892
 20
260.145905
  0
LWPOLYLINE
  5
1D7
330
1C3
100
AcDbEntity
  8
0
  6
Continuous
 62
     0
370
    30
100
AcDbPolyline
 90
       17
 70
     0
 43
0.0
 10
505.945892
 20
260.145905
 10
505.895752
 20
259.938904
 10
505.802246
 20
259.734863
 10
505.66925
 20
259.54306
 10
505.501709
 20
259.371582
 10
505.305664
 20
259.227264
 10
505.088623
 20
259.115112
 10
504.857819
 20
259.040741
 10
504.621338
 20
259.013245
 10
504.387848
 20
259.020416
 10
504.169373
 20
259.07489
 10
503.972687
 20
259.169037
 10
503.804413
 20
259.297455
 10
503.672211
 20
259.455994
 10
503.581238
 20
259.638031
 10
503.535706
 20
259.836029
 10
503.538757
 20
260.048248
  0
LWPOLYLINE
  5
1D8
330
1C3
100
AcDbEntity
  8
0
  6
Continuous
 62
     0
370
    30
100
AcDbPolyline
 90
       17
 70
     0
 43
0.0
 10
504.13797
 20
264.501556
 10
504.189148
 20
264.70578
 10
504.286102
 20
264.901947
 10
504.424469
 20
265.082092
 10
504.597931
 20
265.240112
 10
504.799744
 20
265.371124
 10
505.02179
 20
265.471893
 10
505.25589
 20
265.538727
 10
505.49353
 20
265.563599
 10
505.725739
 20
265.559082
 10
505.940887
 20
265.512573
 10
506.132446
 20
265.42984
 10
506.294739
 20
265.315125
 10
506.421051
 20
265.17041
 10
506.506989
 20
265.000153
 10
506.549225
 20
264.810211
 10
506.545074
 20
264.599213
  0
LWPOLYLINE
  5
1D9
330
1C3
100
AcDbEntity
  8
0
  6
Continuous
 62
     0
370
    30
100
AcDbPolyline
 90
       17
 70
     0
 43
0.0
 10
506.545074
 20
264.599213
 10
506.494965
 20
264.392212
 10
506.401459
 20
264.188171
 10
506.268463
 20
263.996368
 10
506.100922
 20
263.82486
 10
505.904877
 20
263.680573
 10
505.687836
 20
263.56839
 10
505.457031
 20
263.494049
 10
505.22052
 20
263.466553
 10
504.98703
 20
263.473724
 10
504.768585
 20
263.528198
 10
504.571869
 20
263.622345
 10
504.403625
 20
263.750763
 10
504.271423
 20
263.909271
 10
504.18042
 20
264.091339
 10
504.134918
 20
264.289337
 10
504.13797
 20
264.501556
  0
LWPOLYLINE
  5
1DA
330
1C3
100
AcDbEntity
  8
0
  6
Continuous
 62
     0
370
    30
100
AcDbPolyline
 90
       17
 70
     0
 43
0.0
 10
504.737183
 20
268.954865
 10
504.788361
 20
269.159088
 10
504.885315
 20
269.355255
 10
505.023651
 20
269.5354
 10
505.197144
 20
269.69342
 10
505.398926
 20
269.824432
 10
505.621002
 20
269.925201
 10
505.855103
 20
269.992035
 10
506.092743
 20
270.016907
 10
506.324921
 20
270.01239
 10
506.5401
 20
269.965881
 10
506.731659
 20
269.883148
 10
506.893951
 20
269.768433
 10
507.020264
 20
269.623718
 10
507.106201
 20
269.453461
 10
507.148438
 20
269.263519
 10
507.144287
 20
269.052521
  0
LWPOLYLINE
  5
1DB
330
1C3
100
AcDbEntity
  8
0
  6
Continuous
 62
     0
370
    30
100
AcDbPolyline
 90
       17
 70
     0
 43
0.0
 10
507.144287
 20
269.052521
 10
507.094177
 20
268.84549
 10
507.000671
 20
268.641479
 10
506.867676
 20
268.449677
 10
506.700104
 20
268.278168
 10
506.504089
 20
268.133881
 10
506.287048
 20
268.021698
 10
506.056244
 20
267.947357
 10
505.819733
 20
267.919861
 10
505.586243
 20
267.927032
 10
505.367798
 20
267.981506
 10
505.171082
 20
268.075653
 10
505.002838
 20
268.204071
 10
504.870636
 20
268.362579
 10
504.779633
 20
268.544647
 10
504.734131
 20
268.742645
 10
504.737183
 20
268.954865
  0
LWPOLYLINE
  5
1DC
330
1C3
100
AcDbEntity
  8
0
  6
Continuous
 62
     0
370
    30
100
AcDbPolyline
 90
       17
 70
     0
 43
0.0
 10
505.336395
 20
273.408173
 10
505.387573
 20
273.612396
 10
505.484528
 20
273.808563
 10
505.622864
 20
273.988708
 10
505.796356
 20
274.146729
 10
505.998138
 20
274.27774
 10
506.220215
 20
274.378479
 10
506.454315
 20
274.445343
 10
506.691956
 20
274.470215
 10
506.924133
 20
274.465698
 10
507.139313
 20
274.419189
 10
507.330872
 20
274.336456
 10
507.493164
 20
274.221741
 10
507.619476
 20
274.076996
 10
507.705414
 20
273.906769
 10
507.74765
 20
273.716827
 10
507.7435
 20
273.505798
  0
LWPOLYLINE
  5
1DD
330
1C3
100
AcDbEntity
  8
0
  6
Continuous
 62
     0
370
    30
100
AcDbPolyline
 90
       17
 70
     0
 43
0.0
 10
507.7435
 20
273.505798
 10
507.69339
 20
273.298798
 10
507.599884
 20
273.094788
 10
507.466888
 20
272.902985
 10
507.299316
 20
272.731476
 10
507.103302
 20
272.587189
 10
506.886261
 20
272.475006
 10
506.655457
 20
272.400665
 10
506.418945
 20
272.373138
 10
506.185455
 20
272.38031
 10
505.96701
 20
272.434814
 10
505.770294
 20
272.528961
 10
505.602051
 20
272.657349
 10
505.469849
 20
272.815887
 10
505.378845
 20
272.997925
 10
505.333344
 20
273.195953
 10
505.336395
 20
273.408173
  0
LWPOLYLINE
  5
1DE
330
1C3
100
AcDbEntity
  8
0
  6
Continuous
 62
     0
370
    30
100
AcDbPolyline
 90
       17
 70
     0
 43
0.0
 10
493.214508
 20
229.851273
 10
493.264343
 20
230.049255
 10
493.357391
 20
230.226334
 10
493.489807
 20
230.375244
 10
493.65625
 20
230.491241
 10
493.850861
 20
230.570938
 10
494.066528
 20
230.613007
 10
494.295868
 20
230.615662
 10
494.530914
 20
230.57312
 10
494.763
 20
230.500839
 10
494.980225
 20
230.388962
 10
495.17569
 20
230.24585
 10
495.342896
 20
230.077637
 10
495.474152
 20
229.888626
 10
495.56424
 20
229.685059
 10
495.608978
 20
229.474228
 10
495.605652
 20
229.259842
  0
LWPOLYLINE
  5
1DF
330
1C3
100
AcDbEntity
  8
0
  6
Continuous
 62
     0
370
    30
100
AcDbPolyline
 90
       17
 70
     0
 43
0.0
 10
495.605652
 20
229.259842
 10
495.554504
 20
229.059845
 10
495.457977
 20
228.876053
 10
495.320587
 20
228.716766
 10
495.14798
 20
228.588654
 10
494.947174
 20
228.496887
 10
494.72644
 20
228.444168
 10
494.493896
 20
228.433945
 10
494.257904
 20
228.473404
 10
494.027405
 20
228.547241
 10
493.813995
 20
228.665024
 10
493.623932
 20
228.817307
 10
493.462982
 20
228.996735
 10
493.337738
 20
229.197128
 10
493.25238
 20
229.410446
 10
493.210297
 20
229.627899
 10
493.214508
 20
229.851273
  0
LWPOLYLINE
  5
1E0
330
1C3
100
AcDbEntity
  8
0
  6
Continuous
 62
     0
370
    30
100
AcDbPolyline
 90
       17
 70
     0
 43
0.0
 10
493.813721
 20
234.304581
 10
493.863556
 20
234.502563
 10
493.956604
 20
234.679642
 10
494.08902
 20
234.828552
 10
494.255463
 20
234.94455
 10
494.450043
 20
235.024246
 10
494.66571
 20
235.066299
 10
494.895081
 20
235.06897
 10
495.130096
 20
235.026428
 10
495.362213
 20
234.954147
 10
495.579437
 20
234.842255
 10
495.774902
 20
234.699142
 10
495.942078
 20
234.53093
 10
496.073364
 20
234.341919
 10
496.163452
 20
234.138367
 10
496.208191
 20
233.927536
 10
496.204865
 20
233.713135
  0
LWPOLYLINE
  5
1E1
330
1C3
100
AcDbEntity
  8
0
  6
Continuous
 62
     0
370
    30
100
AcDbPolyline
 90
       17
 70
     0
 43
0.0
 10
496.204865
 20
233.713135
 10
496.153687
 20
233.513153
 10
496.05719
 20
233.329361
 10
495.9198
 20
233.170059
 10
495.747192
 20
233.041962
 10
495.546356
 20
232.95018
 10
495.325653
 20
232.897476
 10
495.093109
 20
232.887253
 10
494.857086
 20
232.926712
 10
494.626617
 20
233.000534
 10
494.413208
 20
233.118317
 10
494.223145
 20
233.270615
 10
494.062195
 20
233.450043
 10
493.936951
 20
233.650421
 10
493.851593
 20
233.863739
 10
493.809509
 20
234.081207
 10
493.813721
 20
234.304581
  0
LWPOLYLINE
  5
1E2
330
1C3
100
AcDbEntity
  8
0
  6
Continuous
 62
     0
370
    30
100
AcDbPolyline
 90
       17
 70
     0
 43
0.0
 10
494.412933
 20
238.757889
 10
494.462769
 20
238.955856
 10
494.555817
 20
239.13295
 10
494.688232
 20
239.28186
 10
494.854675
 20
239.397858
 10
495.049255
 20
239.477539
 10
495.264923
 20
239.519608
 10
495.494263
 20
239.522263
 10
495.729309
 20
239.479736
 10
495.961395
 20
239.407455
 10
496.17865
 20
239.295563
 10
496.374115
 20
239.152451
 10
496.54129
 20
238.984238
 10
496.672577
 20
238.795227
 10
496.762665
 20
238.591675
 10
496.807373
 20
238.380829
 10
496.804077
 20
238.166443
  0
LWPOLYLINE
  5
1E3
330
1C3
100
AcDbEntity
  8
0
  6
Continuous
 62
     0
370
    30
100
AcDbPolyline
 90
       17
 70
     0
 43
0.0
 10
496.804077
 20
238.166443
 10
496.752899
 20
237.966461
 10
496.656403
 20
237.782669
 10
496.519012
 20
237.623367
 10
496.346405
 20
237.495255
 10
496.145569
 20
237.403488
 10
495.924866
 20
237.350784
 10
495.692322
 20
237.340561
 10
495.456299
 20
237.38002
 10
495.22583
 20
237.453842
 10
495.012421
 20
237.571625
 10
494.822357
 20
237.723923
 10
494.661407
 20
237.903351
 10
494.536163
 20
238.103729
 10
494.450806
 20
238.317047
 10
494.408722
 20
238.534515
 10
494.412933
 20
238.757889
  0
LWPOLYLINE
  5
1E4
330
1C3
100
AcDbEntity
  8
0
  6
Continuous
 62
     0
370
    30
100
AcDbPolyline
 90
       17
 70
     0
 43
0.0
 10
495.012146
 20
243.211182
 10
495.061981
 20
243.409164
 10
495.154999
 20
243.586243
 10
495.287445
 20
243.735153
 10
495.453888
 20
243.851166
 10
495.648468
 20
243.930847
 10
495.864136
 20
243.972916
 10
496.093475
 20
243.975571
 10
496.328522
 20
243.933029
 10
496.560608
 20
243.860748
 10
496.777863
 20
243.748871
 10
496.973328
 20
243.605759
 10
497.140503
 20
243.437546
 10
497.27179
 20
243.248535
 10
497.361877
 20
243.044968
 10
497.406586
 20
242.834137
 10
497.403259
 20
242.619751
  0
LWPOLYLINE
  5
1E5
330
1C3
100
AcDbEntity
  8
0
  6
Continuous
 62
     0
370
    30
100
AcDbPolyline
 90
       17
 70
     0
 43
0.0
 10
497.403259
 20
242.619751
 10
497.352112
 20
242.419769
 10
497.255615
 20
242.235977
 10
497.118195
 20
242.076675
 10
496.945587
 20
241.948563
 10
496.744781
 20
241.856796
 10
496.524078
 20
241.804077
 10
496.291534
 20
241.793869
 10
496.055511
 20
241.833313
 10
495.825043
 20
241.90715
 10
495.611633
 20
242.024933
 10
495.421539
 20
242.177231
 10
495.26062
 20
242.356644
 10
495.135376
 20
242.557037
 10
495.050018
 20
242.770355
 10
495.007935
 20
242.987808
 10
495.012146
 20
243.211182
  0
LWPOLYLINE
  5
1E6
330
1C3
100
AcDbEntity
  8
0
  6
Continuous
 62
     0
370
    30
100
AcDbPolyline
 90
       17
 70
     0
 43
0.0
 10
495.611328
 20
247.66449
 10
495.661194
 20
247.862473
 10
495.754211
 20
248.039551
 10
495.886658
 20
248.188461
 10
496.05307
 20
248.304459
 10
496.247681
 20
248.384155
 10
496.463348
 20
248.426208
 10
496.692688
 20
248.428879
 10
496.927734
 20
248.386337
 10
497.159821
 20
248.314056
 10
497.377075
 20
248.202179
 10
497.57251
 20
248.059052
 10
497.739716
 20
247.890854
 10
497.871002
 20
247.701843
 10
497.96109
 20
247.498276
 10
498.005798
 20
247.287445
 10
498.002472
 20
247.073059
  0
LWPOLYLINE
  5
1E7
330
1C3
100
AcDbEntity
  8
0
  6
Continuous
 62
     0
370
    30
100
AcDbPolyline
 90
       17
 70
     0
 43
0.0
 10
498.002472
 20
247.073059
 10
497.951324
 20
246.873062
 10
497.854828
 20
246.68927
 10
497.717407
 20
246.529968
 10
497.5448
 20
246.401871
 10
497.343994
 20
246.310104
 10
497.123291
 20
246.257385
 10
496.890717
 20
246.247162
 10
496.654724
 20
246.286621
 10
496.424255
 20
246.360458
 10
496.210846
 20
246.478241
 10
496.020752
 20
246.630524
 10
495.859833
 20
246.809952
 10
495.734589
 20
247.010345
 10
495.649231
 20
247.223663
 10
495.607147
 20
247.441116
 10
495.611328
 20
247.66449
  0
LWPOLYLINE
  5
1E8
330
1C3
100
AcDbEntity
  8
0
  6
Continuous
 62
     0
370
    30
100
AcDbPolyline
 90
       17
 70
     0
 43
0.0
 10
496.210541
 20
252.117798
 10
496.260406
 20
252.315781
 10
496.353424
 20
252.492859
 10
496.48587
 20
252.641769
 10
496.652283
 20
252.757767
 10
496.846893
 20
252.837448
 10
497.062561
 20
252.879517
 10
497.291901
 20
252.882187
 10
497.526947
 20
252.839645
 10
497.759033
 20
252.767365
 10
497.976288
 20
252.655472
 10
498.171722
 20
252.51236
 10
498.338928
 20
252.344147
 10
498.470215
 20
252.155136
 10
498.560303
 20
251.951584
 10
498.605011
 20
251.740753
 10
498.601685
 20
251.526352
  0
LWPOLYLINE
  5
1E9
330
1C3
100
AcDbEntity
  8
0
  6
Continuous
 62
     0
370
    30
100
AcDbPolyline
 90
       17
 70
     0
 43
0.0
 10
498.601685
 20
251.526352
 10
498.550537
 20
251.32637
 10
498.45401
 20
251.142578
 10
498.31662
 20
250.983276
 10
498.144012
 20
250.855179
 10
497.943207
 20
250.763397
 10
497.722504
 20
250.710693
 10
497.489929
 20
250.70047
 10
497.253937
 20
250.739929
 10
497.023468
 20
250.813751
 10
496.810059
 20
250.931534
 10
496.619965
 20
251.083832
 10
496.459015
 20
251.26326
 10
496.333801
 20
251.463638
 10
496.248444
 20
251.676956
 10
496.20636
 20
251.894424
 10
496.210541
 20
252.117798
  0
LWPOLYLINE
  5
1EA
330
1C3
100
AcDbEntity
  8
0
  6
Continuous
 62
     0
370
    30
100
AcDbPolyline
 90
       17
 70
     0
 43
0.0
 10
496.809753
 20
256.571106
 10
496.859619
 20
256.769073
 10
496.952637
 20
256.946167
 10
497.085083
 20
257.095062
 10
497.251495
 20
257.21106
 10
497.446106
 20
257.290771
 10
497.661774
 20
257.332825
 10
497.891113
 20
257.33548
 10
498.12616
 20
257.292938
 10
498.358246
 20
257.220673
 10
498.57547
 20
257.108765
 10
498.770935
 20
256.965668
 10
498.938141
 20
256.797455
 10
499.069427
 20
256.608459
 10
499.159485
 20
256.404877
 10
499.204224
 20
256.194061
 10
499.200897
 20
255.97966
  0
LWPOLYLINE
  5
1EB
330
1C3
100
AcDbEntity
  8
0
  6
Continuous
 62
     0
370
    30
100
AcDbPolyline
 90
       17
 70
     0
 43
0.0
 10
499.200897
 20
255.97966
 10
499.14975
 20
255.779678
 10
499.053223
 20
255.595886
 10
498.915833
 20
255.436584
 10
498.743225
 20
255.308472
 10
498.542419
 20
255.216705
 10
498.321716
 20
255.163986
 10
498.089142
 20
255.153778
 10
497.853149
 20
255.193237
 10
497.622681
 20
255.267059
 10
497.409271
 20
255.384842
 10
497.219177
 20
255.53714
 10
497.058228
 20
255.716553
 10
496.932983
 20
255.916946
 10
496.847656
 20
256.130249
 10
496.805542
 20
256.347717
 10
496.809753
 20
256.571106
  0
LWPOLYLINE
  5
1EC
330
1C3
100
AcDbEntity
  8
0
  6
Continuous
 62
     0
370
    30
100
AcDbPolyline
 90
       17
 70
     0
 43
0.0
 10
497.408966
 20
261.024414
 10
497.458832
 20
261.222382
 10
497.551849
 20
261.399475
 10
497.684296
 20
261.54837
 10
497.850708
 20
261.664368
 10
498.045319
 20
261.744049
 10
498.260986
 20
261.786133
 10
498.490326
 20
261.788788
 10
498.725372
 20
261.746246
 10
498.957458
 20
261.673981
 10
499.174683
 20
261.562073
 10
499.370148
 20
261.418976
 10
499.537354
 20
261.250763
 10
499.66864
 20
261.061737
 10
499.758698
 20
260.858185
 10
499.803436
 20
260.647339
 10
499.80011
 20
260.432953
  0
LWPOLYLINE
  5
1ED
330
1C3
100
AcDbEntity
  8
0
  6
Continuous
 62
     0
370
    30
100
AcDbPolyline
 90
       17
 70
     0
 43
0.0
 10
499.80011
 20
260.432953
 10
499.748962
 20
260.232971
 10
499.652435
 20
260.049194
 10
499.515045
 20
259.889893
 10
499.342438
 20
259.76178
 10
499.141632
 20
259.670013
 10
498.920929
 20
259.61731
 10
498.688354
 20
259.607086
 10
498.452362
 20
259.646545
 10
498.221863
 20
259.720367
 10
498.008484
 20
259.838135
 10
497.81839
 20
259.990448
 10
497.65744
 20
260.169861
 10
497.532196
 20
260.370239
 10
497.446838
 20
260.583557
 10
497.404755
 20
260.801025
 10
497.408966
 20
261.024414
  0
LWPOLYLINE
  5
1EE
330
1C3
100
AcDbEntity
  8
0
  6
Continuous
 62
     0
370
    30
100
AcDbPolyline
 90
       17
 70
     0
 43
0.0
 10
498.008179
 20
265.477692
 10
498.058014
 20
265.67569
 10
498.151062
 20
265.852753
 10
498.283478
 20
266.001678
 10
498.449921
 20
266.117676
 10
498.644531
 20
266.197357
 10
498.860199
 20
266.239441
 10
499.089539
 20
266.242096
 10
499.324585
 20
266.199554
 10
499.556671
 20
266.127258
 10
499.773895
 20
266.015381
 10
499.96936
 20
265.872284
 10
500.136566
 20
265.704071
 10
500.267822
 20
265.515045
 10
500.35791
 20
265.311493
 10
500.402649
 20
265.100647
 10
500.399323
 20
264.886261
  0
LWPOLYLINE
  5
1EF
330
1C3
100
AcDbEntity
  8
0
  6
Continuous
 62
     0
370
    30
100
AcDbPolyline
 90
       17
 70
     0
 43
0.0
 10
500.399323
 20
264.886261
 10
500.348175
 20
264.686279
 10
500.251648
 20
264.502502
 10
500.114258
 20
264.343201
 10
499.94165
 20
264.215088
 10
499.740845
 20
264.123322
 10
499.520142
 20
264.070587
 10
499.287567
 20
264.060394
 10
499.051575
 20
264.099854
 10
498.821075
 20
264.173676
 10
498.607666
 20
264.291443
 10
498.417603
 20
264.443756
 10
498.256653
 20
264.623169
 10
498.131409
 20
264.823547
 10
498.046051
 20
265.036865
 10
498.003967
 20
265.254333
 10
498.008179
 20
265.477692
  0
LWPOLYLINE
  5
1F0
330
1C3
100
AcDbEntity
  8
0
  6
Continuous
 62
     0
370
    30
100
AcDbPolyline
 90
       17
 70
     0
 43
0.0
 10
498.607391
 20
269.931
 10
498.657227
 20
270.128998
 10
498.750275
 20
270.306061
 10
498.88269
 20
270.454987
 10
499.049133
 20
270.570984
 10
499.243713
 20
270.650665
 10
499.459381
 20
270.692749
 10
499.688751
 20
270.695404
 10
499.923767
 20
270.652863
 10
500.155884
 20
270.580566
 10
500.373108
 20
270.468689
 10
500.568573
 20
270.325592
 10
500.735748
 20
270.157379
 10
500.867035
 20
269.968353
 10
500.957123
 20
269.764801
 10
501.001862
 20
269.553955
 10
500.998535
 20
269.339569
  0
LWPOLYLINE
  5
1F1
330
1C3
100
AcDbEntity
  8
0
  6
Continuous
 62
     0
370
    30
100
AcDbPolyline
 90
       17
 70
     0
 43
0.0
 10
500.998535
 20
269.339569
 10
500.947357
 20
269.139587
 10
500.850861
 20
268.95578
 10
500.71347
 20
268.796509
 10
500.540863
 20
268.668396
 10
500.340027
 20
268.57663
 10
500.119324
 20
268.523895
 10
499.88678
 20
268.513672
 10
499.650757
 20
268.553131
 10
499.420288
 20
268.626984
 10
499.206879
 20
268.744751
 10
499.016815
 20
268.897034
 10
498.855865
 20
269.076477
 10
498.730621
 20
269.276855
 10
498.645264
 20
269.490173
 10
498.60318
 20
269.707642
 10
498.607391
 20
269.931
  0
LWPOLYLINE
  5
1F2
330
1C3
100
AcDbEntity
  8
0
  6
Continuous
 62
     0
370
    30
100
AcDbPolyline
 90
       17
 70
     0
 43
0.0
 10
499.206604
 20
274.384308
 10
499.256439
 20
274.582306
 10
499.349487
 20
274.759369
 10
499.481903
 20
274.908295
 10
499.648346
 20
275.024292
 10
499.842926
 20
275.103973
 10
500.058594
 20
275.146027
 10
500.287933
 20
275.148712
 10
500.52298
 20
275.106171
 10
500.755096
 20
275.033875
 10
500.972321
 20
274.921997
 10
501.167786
 20
274.77887
 10
501.334961
 20
274.610657
 10
501.466248
 20
274.421661
 10
501.556335
 20
274.218109
 10
501.601044
 20
274.007263
 10
501.597748
 20
273.792877
  0
LWPOLYLINE
  5
1F3
330
1C3
100
AcDbEntity
  8
0
  6
Continuous
 62
     0
370
    30
100
AcDbPolyline
 90
       17
 70
     0
 43
0.0
 10
501.597748
 20
273.792877
 10
501.54657
 20
273.592896
 10
501.450073
 20
273.409088
 10
501.312683
 20
273.249786
 10
501.140076
 20
273.121704
 10
500.93924
 20
273.029907
 10
500.718536
 20
272.977203
 10
500.485992
 20
272.96698
 10
500.249969
 20
273.006439
 10
500.019501
 20
273.080261
 10
499.806091
 20
273.198059
 10
499.616028
 20
273.350342
 10
499.455078
 20
273.529785
 10
499.329834
 20
273.730164
 10
499.244476
 20
273.943481
 10
499.202393
 20
274.16095
 10
499.206604
 20
274.384308
  0
LWPOLYLINE
  5
1F4
330
1C3
100
AcDbEntity
  8
0
  6
Continuous
 62
     0
370
    30
100
AcDbPolyline
 90
       17
 70
     0
 43
0.0
 10
505.012421
 20
229.641495
 10
505.058807
 20
229.852615
 10
505.141205
 20
230.06868
 10
505.255493
 20
230.280746
 10
505.395935
 20
230.481201
 10
505.556305
 20
230.663391
 10
505.729523
 20
230.82196
 10
505.908569
 20
230.950943
 10
506.086212
 20
231.040497
 10
506.256134
 20
231.100128
 10
506.409363
 20
231.114182
 10
506.541962
 20
231.086868
 10
506.650696
 20
231.020523
 10
506.731628
 20
230.915237
 10
506.782715
 20
230.7742
 10
506.802612
 20
230.602112
 10
506.790527
 20
230.402039
  0
LWPOLYLINE
  5
1F5
330
1C3
100
AcDbEntity
  8
0
  6
Continuous
 62
     0
370
    30
100
AcDbPolyline
 90
       17
 70
     0
 43
0.0
 10
506.790527
 20
230.402039
 10
506.747498
 20
230.188461
 10
506.674896
 20
229.965729
 10
506.575409
 20
229.743896
 10
506.452057
 20
229.532135
 10
506.308624
 20
229.338806
 10
506.149811
 20
229.170715
 10
505.980347
 20
229.035553
 10
505.80603
 20
228.943924
 10
505.632599
 20
228.886642
 10
505.469757
 20
228.879562
 10
505.322571
 20
228.91658
 10
505.196777
 20
228.994568
 10
505.098785
 20
229.111649
 10
505.033203
 20
229.262756
 10
505.003784
 20
229.441772
 10
505.012421
 20
229.641495
  0
LWPOLYLINE
  5
1F6
330
1C3
100
AcDbEntity
  8
0
  6
Continuous
 62
     0
370
    30
100
AcDbPolyline
 90
       17
 70
     0
 43
0.0
 10
505.611633
 20
234.094803
 10
505.65802
 20
234.305908
 10
505.740417
 20
234.521988
 10
505.854706
 20
234.734055
 10
505.995148
 20
234.934494
 10
506.155518
 20
235.116699
 10
506.328735
 20
235.275269
 10
506.507782
 20
235.404251
 10
506.685425
 20
235.493805
 10
506.855347
 20
235.553421
 10
507.008575
 20
235.567474
 10
507.141174
 20
235.540176
 10
507.249908
 20
235.473831
 10
507.330811
 20
235.368546
 10
507.381927
 20
235.227509
 10
507.401794
 20
235.05542
 10
507.38974
 20
234.855347
  0
LWPOLYLINE
  5
1F7
330
1C3
100
AcDbEntity
  8
0
  6
Continuous
 62
     0
370
    30
100
AcDbPolyline
 90
       17
 70
     0
 43
0.0
 10
507.38974
 20
234.855347
 10
507.34668
 20
234.641769
 10
507.274109
 20
234.419037
 10
507.174591
 20
234.197205
 10
507.05127
 20
233.985443
 10
506.907837
 20
233.792099
 10
506.749023
 20
233.624008
 10
506.579559
 20
233.488861
 10
506.405243
 20
233.397232
 10
506.231812
 20
233.339935
 10
506.06897
 20
233.332855
 10
505.921783
 20
233.369888
 10
505.79599
 20
233.447876
 10
505.697998
 20
233.564957
 10
505.632416
 20
233.716064
 10
505.602997
 20
233.895081
 10
505.611633
 20
234.094803
  0
LWPOLYLINE
  5
1F8
330
1C3
100
AcDbEntity
  8
0
  6
Continuous
 62
     0
370
    30
100
AcDbPolyline
 90
       17
 70
     0
 43
0.0
 10
506.210846
 20
238.548096
 10
506.257233
 20
238.759216
 10
506.33963
 20
238.975296
 10
506.453918
 20
239.187363
 10
506.59436
 20
239.387802
 10
506.75473
 20
239.569992
 10
506.927948
 20
239.728577
 10
507.106995
 20
239.857559
 10
507.284637
 20
239.947113
 10
507.454529
 20
240.006729
 10
507.607758
 20
240.020782
 10
507.740387
 20
239.993469
 10
507.849091
 20
239.927139
 10
507.930023
 20
239.821854
 10
507.98114
 20
239.680801
 10
508.001007
 20
239.508728
 10
507.988953
 20
239.308655
  0
LWPOLYLINE
  5
1F9
330
1C3
100
AcDbEntity
  8
0
  6
Continuous
 62
     0
370
    30
100
AcDbPolyline
 90
       17
 70
     0
 43
0.0
 10
507.988953
 20
239.308655
 10
507.945892
 20
239.095062
 10
507.873322
 20
238.872345
 10
507.773804
 20
238.650513
 10
507.650452
 20
238.438751
 10
507.50705
 20
238.245407
 10
507.348206
 20
238.077316
 10
507.178772
 20
237.942169
 10
507.004456
 20
237.850525
 10
506.830994
 20
237.793243
 10
506.668152
 20
237.786163
 10
506.520996
 20
237.823181
 10
506.395203
 20
237.901184
 10
506.297211
 20
238.01825
 10
506.231628
 20
238.169357
 10
506.202209
 20
238.348389
 10
506.210846
 20
238.548096
  0
LWPOLYLINE
  5
1FA
330
1C3
100
AcDbEntity
  8
0
  6
Continuous
 62
     0
370
    30
100
AcDbPolyline
 90
       17
 70
     0
 43
0.0
 10
506.810059
 20
243.001404
 10
506.856415
 20
243.212524
 10
506.938812
 20
243.428589
 10
507.053131
 20
243.640671
 10
507.193573
 20
243.84111
 10
507.353943
 20
244.0233
 10
507.527161
 20
244.18187
 10
507.706177
 20
244.310867
 10
507.88385
 20
244.400406
 10
508.053741
 20
244.460037
 10
508.20697
 20
244.474091
 10
508.3396
 20
244.446777
 10
508.448303
 20
244.380432
 10
508.529236
 20
244.275146
 10
508.580353
 20
244.134109
 10
508.60022
 20
243.962036
 10
508.588165
 20
243.761948
  0
LWPOLYLINE
  5
1FB
330
1C3
100
AcDbEntity
  8
0
  6
Continuous
 62
     0
370
    30
100
AcDbPolyline
 90
       17
 70
     0
 43
0.0
 10
508.588165
 20
243.761948
 10
508.545105
 20
243.54837
 10
508.472534
 20
243.325638
 10
508.373016
 20
243.103821
 10
508.249664
 20
242.892044
 10
508.106262
 20
242.698715
 10
507.947418
 20
242.530624
 10
507.777985
 20
242.395462
 10
507.603668
 20
242.303833
 10
507.430206
 20
242.246552
 10
507.267365
 20
242.239471
 10
507.120209
 20
242.276489
 10
506.994385
 20
242.354492
 10
506.896423
 20
242.471558
 10
506.830841
 20
242.622665
 10
506.801422
 20
242.801697
 10
506.810059
 20
243.001404
  0
LWPOLYLINE
  5
1FC
330
1C3
100
AcDbEntity
  8
0
  6
Continuous
 62
     0
370
    30
100
AcDbPolyline
 90
       17
 70
     0
 43
0.0
 10
507.409241
 20
247.454712
 10
507.455627
 20
247.665817
 10
507.538025
 20
247.881897
 10
507.652344
 20
248.093964
 10
507.792786
 20
248.294403
 10
507.953156
 20
248.476608
 10
508.126373
 20
248.635178
 10
508.305389
 20
248.76416
 10
508.483063
 20
248.853714
 10
508.652954
 20
248.913345
 10
508.806183
 20
248.927399
 10
508.938812
 20
248.900085
 10
509.047516
 20
248.83374
 10
509.128448
 20
248.728455
 10
509.179565
 20
248.587418
 10
509.199432
 20
248.415329
 10
509.187378
 20
248.215256
  0
LWPOLYLINE
  5
1FD
330
1C3
100
AcDbEntity
  8
0
  6
Continuous
 62
     0
370
    30
100
AcDbPolyline
 90
       17
 70
     0
 43
0.0
 10
509.187378
 20
248.215256
 10
509.144318
 20
248.001678
 10
509.071747
 20
247.778946
 10
508.972229
 20
247.557114
 10
508.848877
 20
247.345352
 10
508.705444
 20
247.152023
 10
508.546631
 20
246.983917
 10
508.377197
 20
246.84877
 10
508.202881
 20
246.757141
 10
508.029419
 20
246.69986
 10
507.866577
 20
246.692764
 10
507.719421
 20
246.729797
 10
507.593597
 20
246.807785
 10
507.495636
 20
246.924866
 10
507.430054
 20
247.075974
 10
507.400635
 20
247.25499
 10
507.409241
 20
247.454712
  0
LWPOLYLINE
  5
1FE
330
1C3
100
AcDbEntity
  8
0
  6
Continuous
 62
     0
370
    30
100
AcDbPolyline
 90
       17
 70
     0
 43
0.0
 10
508.008453
 20
251.90802
 10
508.05484
 20
252.119125
 10
508.137238
 20
252.335205
 10
508.251556
 20
252.547272
 10
508.391968
 20
252.747711
 10
508.552368
 20
252.929916
 10
508.725586
 20
253.088486
 10
508.904602
 20
253.217468
 10
509.082275
 20
253.307022
 10
509.252167
 20
253.366638
 10
509.405396
 20
253.380692
 10
509.538025
 20
253.353394
 10
509.646729
 20
253.287048
 10
509.727661
 20
253.181763
 10
509.778748
 20
253.040726
 10
509.798645
 20
252.868637
 10
509.786591
 20
252.668564
  0
LWPOLYLINE
  5
1FF
330
1C3
100
AcDbEntity
  8
0
  6
Continuous
 62
     0
370
    30
100
AcDbPolyline
 90
       17
 70
     0
 43
0.0
 10
509.786591
 20
252.668564
 10
509.74353
 20
252.454971
 10
509.670929
 20
252.232254
 10
509.571442
 20
252.010422
 10
509.44809
 20
251.79866
 10
509.304657
 20
251.605316
 10
509.145844
 20
251.437225
 10
508.97641
 20
251.302078
 10
508.802094
 20
251.210449
 10
508.628632
 20
251.153152
 10
508.46579
 20
251.146072
 10
508.318634
 20
251.183105
 10
508.19281
 20
251.261093
 10
508.094849
 20
251.378174
 10
508.029266
 20
251.529282
 10
507.999817
 20
251.708298
 10
508.008453
 20
251.90802
  0
LWPOLYLINE
  5
200
330
1C3
100
AcDbEntity
  8
0
  6
Continuous
 62
     0
370
    30
100
AcDbPolyline
 90
       17
 70
     0
 43
0.0
 10
508.607666
 20
256.361328
 10
508.654053
 20
256.572418
 10
508.73645
 20
256.788513
 10
508.850739
 20
257.00058
 10
508.99118
 20
257.201019
 10
509.151581
 20
257.383209
 10
509.324799
 20
257.541779
 10
509.503815
 20
257.670776
 10
509.681488
 20
257.760315
 10
509.851379
 20
257.819946
 10
510.004608
 20
257.834015
 10
510.137238
 20
257.806702
 10
510.245941
 20
257.740356
 10
510.326874
 20
257.635071
 10
510.37796
 20
257.494019
 10
510.397858
 20
257.32193
 10
510.385803
 20
257.121857
  0
LWPOLYLINE
  5
201
330
1C3
100
AcDbEntity
  8
0
  6
Continuous
 62
     0
370
    30
100
AcDbPolyline
 90
       17
 70
     0
 43
0.0
 10
510.385803
 20
257.121857
 10
510.342743
 20
256.908295
 10
510.270142
 20
256.685547
 10
510.170654
 20
256.463715
 10
510.047302
 20
256.251953
 10
509.90387
 20
256.058624
 10
509.745056
 20
255.890533
 10
509.575592
 20
255.755386
 10
509.401306
 20
255.663742
 10
509.227844
 20
255.606461
 10
509.065002
 20
255.59938
 10
508.917847
 20
255.636398
 10
508.792023
 20
255.714401
 10
508.694061
 20
255.831467
 10
508.628479
 20
255.982574
 10
508.59903
 20
256.161591
 10
508.607666
 20
256.361328
  0
LWPOLYLINE
  5
202
330
1C3
100
AcDbEntity
  8
0
  6
Continuous
 62
     0
370
    30
100
AcDbPolyline
 90
       17
 70
     0
 43
0.0
 10
509.206879
 20
260.814606
 10
509.253265
 20
261.025726
 10
509.335663
 20
261.241821
 10
509.449951
 20
261.453888
 10
509.590393
 20
261.654327
 10
509.750763
 20
261.836517
 10
509.924011
 20
261.995087
 10
510.103027
 20
262.124084
 10
510.280701
 20
262.213623
 10
510.450592
 20
262.273254
 10
510.603821
 20
262.287292
 10
510.73642
 20
262.259979
 10
510.845154
 20
262.193665
 10
510.926086
 20
262.088379
 10
510.977173
 20
261.947327
 10
510.99707
 20
261.775238
 10
510.984985
 20
261.575165
  0
LWPOLYLINE
  5
203
330
1C3
100
AcDbEntity
  8
0
  6
Continuous
 62
     0
370
    30
100
AcDbPolyline
 90
       17
 70
     0
 43
0.0
 10
510.984985
 20
261.575165
 10
510.941956
 20
261.361572
 10
510.869354
 20
261.138855
 10
510.769867
 20
260.917023
 10
510.646515
 20
260.705261
 10
510.503082
 20
260.511932
 10
510.344269
 20
260.343842
 10
510.174805
 20
260.208679
 10
510.000519
 20
260.117035
 10
509.827057
 20
260.059753
 10
509.664215
 20
260.052673
 10
509.517059
 20
260.089722
 10
509.391235
 20
260.167694
 10
509.293274
 20
260.28476
 10
509.227692
 20
260.435883
 10
509.198242
 20
260.614899
 10
509.206879
 20
260.814606
  0
LWPOLYLINE
  5
204
330
1C3
100
AcDbEntity
  8
0
  6
Continuous
 62
     0
370
    30
100
AcDbPolyline
 90
       17
 70
     0
 43
0.0
 10
509.806091
 20
265.267914
 10
509.852478
 20
265.479034
 10
509.934875
 20
265.695129
 10
510.049164
 20
265.907196
 10
510.189606
 20
266.107635
 10
510.349976
 20
266.289825
 10
510.523193
 20
266.448395
 10
510.70224
 20
266.577393
 10
510.879883
 20
266.666931
 10
511.049805
 20
266.726562
 10
511.203033
 20
266.740601
 10
511.335632
 20
266.713287
 10
511.444366
 20
266.646973
 10
511.525299
 20
266.541656
 10
511.576385
 20
266.400635
 10
511.596283
 20
266.228546
 10
511.584198
 20
266.028473
  0
LWPOLYLINE
  5
205
330
1C3
100
AcDbEntity
  8
0
  6
Continuous
 62
     0
370
    30
100
AcDbPolyline
 90
       17
 70
     0
 43
0.0
 10
511.584198
 20
266.028473
 10
511.541168
 20
265.81488
 10
511.468567
 20
265.592163
 10
511.36908
 20
265.370331
 10
511.245728
 20
265.158569
 10
511.102295
 20
264.96524
 10
510.943481
 20
264.79715
 10
510.774017
 20
264.661987
 10
510.599701
 20
264.570343
 10
510.42627
 20
264.513062
 10
510.263428
 20
264.505981
 10
510.116241
 20
264.542999
 10
509.990448
 20
264.621002
 10
509.892487
 20
264.738068
 10
509.826874
 20
264.889191
 10
509.797455
 20
265.068207
 10
509.806091
 20
265.267914
  0
LWPOLYLINE
  5
206
330
1C3
100
AcDbEntity
  8
0
  6
Continuous
 62
     0
370
    30
100
AcDbPolyline
 90
       17
 70
     0
 43
0.0
 10
510.405304
 20
269.721222
 10
510.451691
 20
269.932343
 10
510.534088
 20
270.148407
 10
510.648376
 20
270.360474
 10
510.788818
 20
270.560944
 10
510.949188
 20
270.743134
 10
511.122406
 20
270.901703
 10
511.301453
 20
271.03067
 10
511.479095
 20
271.120239
 10
511.649017
 20
271.179871
 10
511.802246
 20
271.193909
 10
511.934845
 20
271.166595
 10
512.043579
 20
271.10025
 10
512.124512
 20
270.994965
 10
512.175598
 20
270.853943
 10
512.195496
 20
270.681854
 10
512.183411
 20
270.481781
  0
LWPOLYLINE
  5
207
330
1C3
100
AcDbEntity
  8
0
  6
Continuous
 62
     0
370
    30
100
AcDbPolyline
 90
       17
 70
     0
 43
0.0
 10
512.183411
 20
270.481781
 10
512.140381
 20
270.268188
 10
512.067749
 20
270.045471
 10
511.968262
 20
269.823639
 10
511.84494
 20
269.611877
 10
511.701508
 20
269.418549
 10
511.542694
 20
269.250458
 10
511.37323
 20
269.115295
 10
511.198914
 20
269.023651
 10
511.025482
 20
268.96637
 10
510.86264
 20
268.95929
 10
510.715454
 20
268.996307
 10
510.589661
 20
269.07431
 10
510.491669
 20
269.191376
 10
510.426086
 20
269.342499
 10
510.396667
 20
269.521515
 10
510.405304
 20
269.721222
  0
LWPOLYLINE
  5
208
330
1C3
100
AcDbEntity
  8
0
  6
Continuous
 62
     0
370
    30
100
AcDbPolyline
 90
       17
 70
     0
 43
0.0
 10
511.004517
 20
274.17453
 10
511.050903
 20
274.385651
 10
511.133301
 20
274.601715
 10
511.247589
 20
274.813782
 10
511.388031
 20
275.014221
 10
511.548401
 20
275.196442
 10
511.721619
 20
275.355011
 10
511.900665
 20
275.483978
 10
512.078308
 20
275.573547
 10
512.24823
 20
275.633148
 10
512.401428
 20
275.647217
 10
512.534058
 20
275.619904
 10
512.642761
 20
275.553558
 10
512.723694
 20
275.448273
 10
512.77478
 20
275.307251
 10
512.794678
 20
275.135162
 10
512.782654
 20
274.935089
  0
LWPOLYLINE
  5
209
330
1C3
100
AcDbEntity
  8
0
  6
Continuous
 62
     0
370
    30
100
AcDbPolyline
 90
       17
 70
     0
 43
0.0
 10
512.782654
 20
274.935089
 10
512.739563
 20
274.721497
 10
512.666992
 20
274.498779
 10
512.567505
 20
274.276947
 10
512.444153
 20
274.065186
 10
512.30072
 20
273.871826
 10
512.141907
 20
273.703735
 10
511.972443
 20
273.568604
 10
511.798126
 20
273.476959
 10
511.624664
 20
273.419678
 10
511.461823
 20
273.412598
 10
511.314667
 20
273.449615
 10
511.188873
 20
273.527618
 10
511.090881
 20
273.644684
 10
511.025299
 20
273.795807
 10
510.99588
 20
273.974823
 10
511.004517
 20
274.17453
  0
LWPOLYLINE
  5
20A
330
1C3
100
AcDbEntity
  8
0
  6
Continuous
 62
     0
370
    30
100
AcDbPolyline
 90
       17
 70
     0
 43
0.0
 10
496.514709
 20
231.251633
 10
496.566071
 20
231.452423
 10
496.663269
 20
231.63858
 10
496.802216
 20
231.802551
 10
496.977112
 20
231.938843
 10
497.18158
 20
232.043137
 10
497.40744
 20
232.113739
 10
497.646759
 20
232.147919
 10
497.891174
 20
232.138382
 10
498.131439
 20
232.099518
 10
498.355469
 20
232.019974
 10
498.556366
 20
231.906906
 10
498.727661
 20
231.76532
 10
498.862152
 20
231.598557
 10
498.954498
 20
231.411743
 10
499.001068
 20
231.211441
 10
498.998474
 20
230.996063
  0
LWPOLYLINE
  5
20B
330
1C3
100
AcDbEntity
  8
0
  6
Continuous
 62
     0
370
    30
100
AcDbPolyline
 90
       17
 70
     0
 43
0.0
 10
498.998474
 20
230.996063
 10
498.947052
 20
230.792755
 10
498.849823
 20
230.599106
 10
498.710815
 20
230.423889
 10
498.535767
 20
230.274384
 10
498.331177
 20
230.15683
 10
498.105286
 20
230.074844
 10
497.865936
 20
230.033142
 10
497.621582
 20
230.039642
 10
497.3815
 20
230.080856
 10
497.157654
 20
230.16748
 10
496.956909
 20
230.29126
 10
496.78598
 20
230.445892
 10
496.651642
 20
230.625748
 10
496.55896
 20
230.823654
 10
496.512146
 20
231.031525
 10
496.514709
 20
231.251633
  0
LWPOLYLINE
  5
20C
330
1C3
100
AcDbEntity
  8
0
  6
Continuous
 62
     0
370
    30
100
AcDbPolyline
 90
       17
 70
     0
 43
0.0
 10
497.115753
 20
235.718643
 10
497.167114
 20
235.919418
 10
497.264313
 20
236.105591
 10
497.403259
 20
236.269547
 10
497.578156
 20
236.405853
 10
497.782654
 20
236.510132
 10
498.008514
 20
236.580734
 10
498.247803
 20
236.614914
 10
498.492218
 20
236.605377
 10
498.732483
 20
236.566528
 10
498.956543
 20
236.486969
 10
499.15744
 20
236.373917
 10
499.328705
 20
236.23233
 10
499.463196
 20
236.065567
 10
499.555542
 20
235.878738
 10
499.602112
 20
235.678452
 10
499.599518
 20
235.463074
  0
LWPOLYLINE
  5
20D
330
1C3
100
AcDbEntity
  8
0
  6
Continuous
 62
     0
370
    30
100
AcDbPolyline
 90
       17
 70
     0
 43
0.0
 10
499.599518
 20
235.463074
 10
499.548126
 20
235.25975
 10
499.450867
 20
235.066101
 10
499.31189
 20
234.8909
 10
499.136841
 20
234.741394
 10
498.93222
 20
234.62384
 10
498.706329
 20
234.54184
 10
498.46698
 20
234.500137
 10
498.222656
 20
234.506653
 10
497.982574
 20
234.547852
 10
497.758698
 20
234.634476
 10
497.557953
 20
234.758255
 10
497.387024
 20
234.912903
 10
497.252686
 20
235.092743
 10
497.160004
 20
235.290665
 10
497.11319
 20
235.49852
 10
497.115753
 20
235.718643
  0
LWPOLYLINE
  5
20E
330
1C3
100
AcDbEntity
  8
0
  6
Continuous
 62
     0
370
    30
100
AcDbPolyline
 90
       17
 70
     0
 43
0.0
 10
497.716827
 20
240.185638
 10
497.768188
 20
240.386429
 10
497.865387
 20
240.572586
 10
498.004333
 20
240.736557
 10
498.179199
 20
240.872864
 10
498.383698
 20
240.977142
 10
498.609558
 20
241.047745
 10
498.848846
 20
241.081924
 10
499.093262
 20
241.072388
 10
499.333527
 20
241.033524
 10
499.557587
 20
240.953979
 10
499.758484
 20
240.840927
 10
499.929779
 20
240.699341
 10
500.06427
 20
240.532562
 10
500.156586
 20
240.345749
 10
500.203156
 20
240.145462
 10
500.200592
 20
239.930069
  0
LWPOLYLINE
  5
20F
330
1C3
100
AcDbEntity
  8
0
  6
Continuous
 62
     0
370
    30
100
AcDbPolyline
 90
       17
 70
     0
 43
0.0
 10
500.200592
 20
239.930069
 10
500.14917
 20
239.726761
 10
500.051941
 20
239.533112
 10
499.912933
 20
239.357895
 10
499.737885
 20
239.208389
 10
499.533264
 20
239.090851
 10
499.307404
 20
239.00885
 10
499.068024
 20
238.967148
 10
498.8237
 20
238.973663
 10
498.583618
 20
239.014862
 10
498.359741
 20
239.101486
 10
498.158997
 20
239.225266
 10
497.988098
 20
239.379898
 10
497.85376
 20
239.559753
 10
497.761047
 20
239.757675
 10
497.714233
 20
239.96553
 10
497.716827
 20
240.185638
  0
LWPOLYLINE
  5
210
330
1C3
100
AcDbEntity
  8
0
  6
Continuous
 62
     0
370
    30
100
AcDbPolyline
 90
       17
 70
     0
 43
0.0
 10
498.317871
 20
244.652649
 10
498.369232
 20
244.853439
 10
498.466431
 20
245.039597
 10
498.605377
 20
245.203568
 10
498.780273
 20
245.339859
 10
498.984741
 20
245.444153
 10
499.210602
 20
245.514755
 10
499.449921
 20
245.548935
 10
499.694336
 20
245.539398
 10
499.93457
 20
245.500534
 10
500.15863
 20
245.42099
 10
500.359528
 20
245.307922
 10
500.530823
 20
245.166336
 10
500.665314
 20
244.999573
 10
500.75766
 20
244.812759
 10
500.804199
 20
244.612457
 10
500.801636
 20
244.397079
  0
LWPOLYLINE
  5
211
330
1C3
100
AcDbEntity
  8
0
  6
Continuous
 62
     0
370
    30
100
AcDbPolyline
 90
       17
 70
     0
 43
0.0
 10
500.801636
 20
244.397079
 10
500.750214
 20
244.193771
 10
500.652985
 20
244.000122
 10
500.513977
 20
243.824905
 10
500.338928
 20
243.6754
 10
500.134338
 20
243.557846
 10
499.908447
 20
243.475861
 10
499.669098
 20
243.434158
 10
499.424744
 20
243.440674
 10
499.184662
 20
243.481873
 10
498.960815
 20
243.568497
 10
498.760071
 20
243.692276
 10
498.589142
 20
243.846909
 10
498.454803
 20
244.026764
 10
498.362122
 20
244.22467
 10
498.315277
 20
244.432541
 10
498.317871
 20
244.652649
  0
LWPOLYLINE
  5
212
330
1C3
100
AcDbEntity
  8
0
  6
Continuous
 62
     0
370
    30
100
AcDbPolyline
 90
       17
 70
     0
 43
0.0
 10
498.918915
 20
249.119659
 10
498.970276
 20
249.320435
 10
499.067474
 20
249.506607
 10
499.206421
 20
249.670563
 10
499.381317
 20
249.80687
 10
499.585815
 20
249.911148
 10
499.811646
 20
249.98175
 10
500.050964
 20
250.01593
 10
500.29538
 20
250.006393
 10
500.535645
 20
249.967545
 10
500.759674
 20
249.887985
 10
500.960602
 20
249.774933
 10
501.131866
 20
249.633347
 10
501.266357
 20
249.466583
 10
501.358704
 20
249.279755
 10
501.405273
 20
249.079468
 10
501.402679
 20
248.86409
  0
LWPOLYLINE
  5
213
330
1C3
100
AcDbEntity
  8
0
  6
Continuous
 62
     0
370
    30
100
AcDbPolyline
 90
       17
 70
     0
 43
0.0
 10
501.402679
 20
248.86409
 10
501.351257
 20
248.660767
 10
501.254028
 20
248.467117
 10
501.115021
 20
248.291916
 10
500.939972
 20
248.14241
 10
500.735382
 20
248.024857
 10
500.509491
 20
247.942856
 10
500.270142
 20
247.901154
 10
500.025818
 20
247.907669
 10
499.785706
 20
247.948868
 10
499.561859
 20
248.035507
 10
499.361115
 20
248.159271
 10
499.190186
 20
248.313919
 10
499.055847
 20
248.493759
 10
498.963165
 20
248.691681
 10
498.916351
 20
248.899536
 10
498.918915
 20
249.119659
  0
LWPOLYLINE
  5
214
330
1C3
100
AcDbEntity
  8
0
  6
Continuous
 62
     0
370
    30
100
AcDbPolyline
 90
       17
 70
     0
 43
0.0
 10
499.519958
 20
253.586655
 10
499.57135
 20
253.787445
 10
499.668518
 20
253.973602
 10
499.807495
 20
254.137573
 10
499.982361
 20
254.27388
 10
500.186859
 20
254.378159
 10
500.41272
 20
254.448761
 10
500.652008
 20
254.482941
 10
500.896423
 20
254.473404
 10
501.136688
 20
254.43454
 10
501.360748
 20
254.354996
 10
501.561646
 20
254.241943
 10
501.732941
 20
254.100357
 10
501.867432
 20
253.933578
 10
501.959747
 20
253.746765
 10
502.006317
 20
253.546478
 10
502.003754
 20
253.331085
  0
LWPOLYLINE
  5
215
330
1C3
100
AcDbEntity
  8
0
  6
Continuous
 62
     0
370
    30
100
AcDbPolyline
 90
       17
 70
     0
 43
0.0
 10
502.003754
 20
253.331085
 10
501.952332
 20
253.127777
 10
501.855103
 20
252.934128
 10
501.716095
 20
252.758911
 10
501.541046
 20
252.609406
 10
501.336426
 20
252.491867
 10
501.110565
 20
252.409866
 10
500.871185
 20
252.368164
 10
500.626862
 20
252.37468
 10
500.38678
 20
252.415878
 10
500.162903
 20
252.502502
 10
499.962158
 20
252.626282
 10
499.791229
 20
252.78093
 10
499.656921
 20
252.96077
 10
499.564209
 20
253.158691
 10
499.517395
 20
253.366547
 10
499.519958
 20
253.586655
  0
LWPOLYLINE
  5
216
330
1C3
100
AcDbEntity
  8
0
  6
Continuous
 62
     0
370
    30
100
AcDbPolyline
 90
       17
 70
     0
 43
0.0
 10
500.121033
 20
258.05368
 10
500.172394
 20
258.254456
 10
500.269592
 20
258.440613
 10
500.408539
 20
258.604584
 10
500.583435
 20
258.740875
 10
500.787903
 20
258.845154
 10
501.013763
 20
258.915771
 10
501.253082
 20
258.949951
 10
501.497467
 20
258.940399
 10
501.737732
 20
258.90155
 10
501.961792
 20
258.821991
 10
502.162689
 20
258.708954
 10
502.333984
 20
258.567352
 10
502.468475
 20
258.400574
 10
502.560822
 20
258.213776
 10
502.607361
 20
258.013489
 10
502.604797
 20
257.798096
  0
LWPOLYLINE
  5
217
330
1C3
100
AcDbEntity
  8
0
  6
Continuous
 62
     0
370
    30
100
AcDbPolyline
 90
       17
 70
     0
 43
0.0
 10
502.604797
 20
257.798096
 10
502.553375
 20
257.594788
 10
502.456146
 20
257.401123
 10
502.317139
 20
257.225922
 10
502.14209
 20
257.076416
 10
501.937469
 20
256.958862
 10
501.711609
 20
256.876862
 10
501.47226
 20
256.835175
 10
501.227905
 20
256.841675
 10
500.987823
 20
256.882874
 10
500.763977
 20
256.969513
 10
500.563202
 20
257.093292
 10
500.392303
 20
257.247925
 10
500.257965
 20
257.427765
 10
500.165283
 20
257.625702
 10
500.118439
 20
257.833557
 10
500.121033
 20
258.05368
  0
LWPOLYLINE
  5
218
330
1C3
100
AcDbEntity
  8
0
  6
Continuous
 62
     0
370
    30
100
AcDbPolyline
 90
       17
 70
     0
 43
0.0
 10
500.722076
 20
262.52066
 10
500.773438
 20
262.721466
 10
500.870636
 20
262.907623
 10
501.009583
 20
263.071594
 10
501.184479
 20
263.207886
 10
501.388947
 20
263.312164
 10
501.614807
 20
263.382782
 10
501.854126
 20
263.416962
 10
502.098541
 20
263.40741
 10
502.338806
 20
263.368561
 10
502.562836
 20
263.289001
 10
502.763733
 20
263.175964
 10
502.935028
 20
263.034363
 10
503.069519
 20
262.867584
 10
503.161865
 20
262.680786
 10
503.208435
 20
262.480469
 10
503.205841
 20
262.265106
  0
LWPOLYLINE
  5
219
330
1C3
100
AcDbEntity
  8
0
  6
Continuous
 62
     0
370
    30
100
AcDbPolyline
 90
       17
 70
     0
 43
0.0
 10
503.205841
 20
262.265106
 10
503.154419
 20
262.061798
 10
503.05719
 20
261.868134
 10
502.918182
 20
261.692932
 10
502.743134
 20
261.543427
 10
502.538544
 20
261.425873
 10
502.312653
 20
261.343872
 10
502.073303
 20
261.302185
 10
501.828949
 20
261.308685
 10
501.588867
 20
261.349884
 10
501.365021
 20
261.436523
 10
501.164276
 20
261.560303
 10
500.993347
 20
261.714935
 10
500.859009
 20
261.894775
 10
500.766327
 20
262.092682
 10
500.719513
 20
262.300568
 10
500.722076
 20
262.52066
  0
LWPOLYLINE
  5
21A
330
1C3
100
AcDbEntity
  8
0
  6
Continuous
 62
     0
370
    30
100
AcDbPolyline
 90
       17
 70
     0
 43
0.0
 10
501.32312
 20
266.987671
 10
501.374481
 20
267.188477
 10
501.47168
 20
267.374634
 10
501.610626
 20
267.538574
 10
501.785522
 20
267.674896
 10
501.990021
 20
267.779175
 10
502.215881
 20
267.849792
 10
502.45517
 20
267.883972
 10
502.699585
 20
267.87442
 10
502.93985
 20
267.835571
 10
503.16391
 20
267.756012
 10
503.364807
 20
267.642944
 10
503.536072
 20
267.501373
 10
503.670593
 20
267.334595
 10
503.762909
 20
267.147797
 10
503.809479
 20
266.947479
 10
503.806885
 20
266.732117
  0
LWPOLYLINE
  5
21B
330
1C3
100
AcDbEntity
  8
0
  6
Continuous
 62
     0
370
    30
100
AcDbPolyline
 90
       17
 70
     0
 43
0.0
 10
503.806885
 20
266.732117
 10
503.755493
 20
266.528809
 10
503.658234
 20
266.335144
 10
503.519257
 20
266.159943
 10
503.344208
 20
266.010437
 10
503.139587
 20
265.892883
 10
502.913696
 20
265.810883
 10
502.674347
 20
265.769196
 10
502.430023
 20
265.775696
 10
502.189941
 20
265.816895
 10
501.966064
 20
265.903534
 10
501.76532
 20
266.027313
 10
501.594391
 20
266.181946
 10
501.460052
 20
266.361786
 10
501.367371
 20
266.559692
 10
501.320557
 20
266.767578
 10
501.32312
 20
266.987671
  0
LWPOLYLINE
  5
21C
330
1C3
100
AcDbEntity
  8
0
  6
Continuous
 62
     0
370
    30
100
AcDbPolyline
 90
       17
 70
     0
 43
0.0
 10
501.924194
 20
271.454681
 10
501.975555
 20
271.655457
 10
502.072754
 20
271.841614
 10
502.2117
 20
272.005585
 10
502.386566
 20
272.141907
 10
502.591064
 20
272.246185
 10
502.816925
 20
272.316772
 10
503.056213
 20
272.350952
 10
503.300629
 20
272.341431
 10
503.540894
 20
272.302551
 10
503.764954
 20
272.223022
 10
503.965851
 20
272.109955
 10
504.137146
 20
271.968384
 10
504.271637
 20
271.801605
 10
504.363953
 20
271.614777
 10
504.410522
 20
271.41449
 10
504.407959
 20
271.199127
  0
LWPOLYLINE
  5
21D
330
1C3
100
AcDbEntity
  8
0
  6
Continuous
 62
     0
370
    30
100
AcDbPolyline
 90
       17
 70
     0
 43
0.0
 10
504.407959
 20
271.199127
 10
504.356537
 20
270.995789
 10
504.259308
 20
270.802155
 10
504.1203
 20
270.626953
 10
503.945251
 20
270.477448
 10
503.740631
 20
270.359894
 10
503.514771
 20
270.277893
 10
503.275421
 20
270.236176
 10
503.031067
 20
270.242706
 10
502.790985
 20
270.283905
 10
502.567108
 20
270.370514
 10
502.366364
 20
270.494293
 10
502.195465
 20
270.648956
 10
502.061127
 20
270.828796
 10
501.968414
 20
271.026703
 10
501.9216
 20
271.234558
 10
501.924194
 20
271.454681
  0
LWPOLYLINE
  5
21E
330
1C3
100
AcDbEntity
  8
0
  6
Continuous
 62
     0
370
    30
100
AcDbPolyline
 90
       17
 70
     0
 43
0.0
 10
502.621765
 20
231.143036
 10
502.671448
 20
231.350998
 10
502.763428
 20
231.557602
 10
502.893402
 20
231.754395
 10
503.055359
 20
231.934464
 10
503.242676
 20
232.091812
 10
503.447113
 20
232.222565
 10
503.660889
 20
232.32164
 10
503.876007
 20
232.380066
 10
504.084381
 20
232.408997
 10
504.275299
 20
232.393784
 10
504.443542
 20
232.33992
 10
504.584198
 20
232.250259
 10
504.691986
 20
232.126053
 10
504.763275
 20
231.970825
 10
504.795868
 20
231.789993
 10
504.788208
 20
231.587311
  0
LWPOLYLINE
  5
21F
330
1C3
100
AcDbEntity
  8
0
  6
Continuous
 62
     0
370
    30
100
AcDbPolyline
 90
       17
 70
     0
 43
0.0
 10
504.788208
 20
231.587311
 10
504.740906
 20
231.376755
 10
504.655853
 20
231.162811
 10
504.536224
 20
230.955078
 10
504.386353
 20
230.762238
 10
504.211121
 20
230.592117
 10
504.016907
 20
230.4505
 10
503.809875
 20
230.344391
 10
503.597198
 20
230.283325
 10
503.386414
 20
230.256989
 10
503.188721
 20
230.27948
 10
503.010254
 20
230.344055
 10
502.857727
 20
230.446716
 10
502.737915
 20
230.583862
 10
502.656006
 20
230.749908
 10
502.616455
 20
230.938156
 10
502.621765
 20
231.143036
  0
LWPOLYLINE
  5
220
330
1C3
100
AcDbEntity
  8
0
  6
Continuous
 62
     0
370
    30
100
AcDbPolyline
 90
       17
 70
     0
 43
0.0
 10
503.222809
 20
235.610046
 10
503.272491
 20
235.817993
 10
503.364471
 20
236.024612
 10
503.494476
 20
236.221405
 10
503.656403
 20
236.401459
 10
503.843719
 20
236.558823
 10
504.048157
 20
236.68956
 10
504.261963
 20
236.788651
 10
504.477051
 20
236.847076
 10
504.685425
 20
236.875992
 10
504.876373
 20
236.860779
 10
505.044586
 20
236.806931
 10
505.185242
 20
236.71727
 10
505.29303
 20
236.593048
 10
505.364319
 20
236.437836
 10
505.396912
 20
236.256989
 10
505.389252
 20
236.054321
  0
LWPOLYLINE
  5
221
330
1C3
100
AcDbEntity
  8
0
  6
Continuous
 62
     0
370
    30
100
AcDbPolyline
 90
       17
 70
     0
 43
0.0
 10
505.389252
 20
236.054321
 10
505.341949
 20
235.843765
 10
505.256927
 20
235.629807
 10
505.137299
 20
235.422089
 10
504.987396
 20
235.229248
 10
504.812164
 20
235.059128
 10
504.61795
 20
234.917511
 10
504.410919
 20
234.811401
 10
504.198242
 20
234.750336
 10
503.987457
 20
234.723999
 10
503.789764
 20
234.746475
 10
503.611328
 20
234.811066
 10
503.458771
 20
234.913727
 10
503.338959
 20
235.050873
 10
503.25705
 20
235.216919
 10
503.217499
 20
235.405167
 10
503.222809
 20
235.610046
  0
LWPOLYLINE
  5
222
330
1C3
100
AcDbEntity
  8
0
  6
Continuous
 62
     0
370
    30
100
AcDbPolyline
 90
       17
 70
     0
 43
0.0
 10
503.823853
 20
240.077057
 10
503.873566
 20
240.285004
 10
503.965546
 20
240.491608
 10
504.09552
 20
240.688416
 10
504.257477
 20
240.868469
 10
504.444763
 20
241.025818
 10
504.6492
 20
241.15657
 10
504.863007
 20
241.255661
 10
505.078094
 20
241.314087
 10
505.286499
 20
241.343002
 10
505.477417
 20
241.327789
 10
505.64563
 20
241.273926
 10
505.786285
 20
241.18428
 10
505.894073
 20
241.060059
 10
505.965363
 20
240.904846
 10
505.997955
 20
240.723999
 10
505.990295
 20
240.521317
  0
LWPOLYLINE
  5
223
330
1C3
100
AcDbEntity
  8
0
  6
Continuous
 62
     0
370
    30
100
AcDbPolyline
 90
       17
 70
     0
 43
0.0
 10
505.990295
 20
240.521317
 10
505.943024
 20
240.310776
 10
505.857971
 20
240.096817
 10
505.738342
 20
239.889099
 10
505.58847
 20
239.696243
 10
505.413208
 20
239.526138
 10
505.218994
 20
239.384521
 10
505.011963
 20
239.278412
 10
504.799316
 20
239.217331
 10
504.588531
 20
239.190994
 10
504.390808
 20
239.213486
 10
504.212372
 20
239.278076
 10
504.059845
 20
239.380722
 10
503.940002
 20
239.517868
 10
503.858124
 20
239.683929
 10
503.818573
 20
239.872162
 10
503.823853
 20
240.077057
  0
LWPOLYLINE
  5
224
330
1C3
100
AcDbEntity
  8
0
  6
Continuous
 62
     0
370
    30
100
AcDbPolyline
 90
       17
 70
     0
 43
0.0
 10
504.424927
 20
244.544052
 10
504.474609
 20
244.752014
 10
504.566589
 20
244.958618
 10
504.696564
 20
245.155411
 10
504.858521
 20
245.33548
 10
505.045837
 20
245.492828
 10
505.250244
 20
245.623581
 10
505.46405
 20
245.722656
 10
505.679169
 20
245.781082
 10
505.887543
 20
245.810013
 10
506.078461
 20
245.7948
 10
506.246704
 20
245.740936
 10
506.38736
 20
245.651276
 10
506.495117
 20
245.527069
 10
506.566437
 20
245.371841
 10
506.59903
 20
245.19101
 10
506.59137
 20
244.988327
  0
LWPOLYLINE
  5
225
330
1C3
100
AcDbEntity
  8
0
  6
Continuous
 62
     0
370
    30
100
AcDbPolyline
 90
       17
 70
     0
 43
0.0
 10
506.59137
 20
244.988327
 10
506.544067
 20
244.777771
 10
506.459015
 20
244.563828
 10
506.339386
 20
244.356094
 10
506.189514
 20
244.163254
 10
506.014252
 20
243.993134
 10
505.820068
 20
243.851517
 10
505.613037
 20
243.745407
 10
505.40036
 20
243.684341
 10
505.189575
 20
243.658005
 10
504.991852
 20
243.680496
 10
504.813416
 20
243.745071
 10
504.660889
 20
243.847733
 10
504.541046
 20
243.984879
 10
504.459167
 20
244.150925
 10
504.419617
 20
244.339172
 10
504.424927
 20
244.544052
  0
LWPOLYLINE
  5
226
330
1C3
100
AcDbEntity
  8
0
  6
Continuous
 62
     0
370
    30
100
AcDbPolyline
 90
       17
 70
     0
 43
0.0
 10
505.02597
 20
249.011063
 10
505.075653
 20
249.219009
 10
505.167633
 20
249.425629
 10
505.297638
 20
249.622421
 10
505.459564
 20
249.80249
 10
505.646881
 20
249.959839
 10
505.851318
 20
250.090576
 10
506.065125
 20
250.189667
 10
506.280212
 20
250.248093
 10
506.488586
 20
250.277008
 10
506.679535
 20
250.261795
 10
506.847748
 20
250.207947
 10
506.988403
 20
250.118286
 10
507.096191
 20
249.99408
 10
507.16748
 20
249.838852
 10
507.200073
 20
249.658005
 10
507.192413
 20
249.455338
  0
LWPOLYLINE
  5
227
330
1C3
100
AcDbEntity
  8
0
  6
Continuous
 62
     0
370
    30
100
AcDbPolyline
 90
       17
 70
     0
 43
0.0
 10
507.192413
 20
249.455338
 10
507.145111
 20
249.244781
 10
507.060059
 20
249.030823
 10
506.94043
 20
248.823105
 10
506.790558
 20
248.630264
 10
506.615326
 20
248.460144
 10
506.421112
 20
248.318527
 10
506.214081
 20
248.212418
 10
506.001404
 20
248.151352
 10
505.790619
 20
248.125015
 10
505.592926
 20
248.147491
 10
505.414459
 20
248.212082
 10
505.261932
 20
248.314743
 10
505.14212
 20
248.451889
 10
505.060211
 20
248.617935
 10
505.02066
 20
248.806183
 10
505.02597
 20
249.011063
  0
LWPOLYLINE
  5
228
330
1C3
100
AcDbEntity
  8
0
  6
Continuous
 62
     0
370
    30
100
AcDbPolyline
 90
       17
 70
     0
 43
0.0
 10
505.627014
 20
253.478073
 10
505.676697
 20
253.68602
 10
505.768707
 20
253.892624
 10
505.898682
 20
254.089432
 10
506.060638
 20
254.269485
 10
506.247925
 20
254.426834
 10
506.452362
 20
254.557587
 10
506.666168
 20
254.656677
 10
506.881256
 20
254.715103
 10
507.089661
 20
254.744019
 10
507.280579
 20
254.728806
 10
507.448792
 20
254.674942
 10
507.589447
 20
254.585297
 10
507.697235
 20
254.461075
 10
507.768524
 20
254.305862
 10
507.801117
 20
254.125015
 10
507.793457
 20
253.922333
  0
LWPOLYLINE
  5
229
330
1C3
100
AcDbEntity
  8
0
  6
Continuous
 62
     0
370
    30
100
AcDbPolyline
 90
       17
 70
     0
 43
0.0
 10
507.793457
 20
253.922333
 10
507.746155
 20
253.711792
 10
507.661133
 20
253.497833
 10
507.541504
 20
253.290115
 10
507.391602
 20
253.09726
 10
507.21637
 20
252.927155
 10
507.022156
 20
252.785538
 10
506.815125
 20
252.679428
 10
506.602478
 20
252.618347
 10
506.391693
 20
252.59201
 10
506.19397
 20
252.614502
 10
506.015533
 20
252.679092
 10
505.862976
 20
252.781738
 10
505.743164
 20
252.918884
 10
505.661285
 20
253.084946
 10
505.621735
 20
253.273193
 10
505.627014
 20
253.478073
  0
LWPOLYLINE
  5
22A
330
1C3
100
AcDbEntity
  8
0
  6
Continuous
 62
     0
370
    30
100
AcDbPolyline
 90
       17
 70
     0
 43
0.0
 10
506.228088
 20
257.945068
 10
506.277771
 20
258.153015
 10
506.369751
 20
258.35965
 10
506.499725
 20
258.556427
 10
506.661682
 20
258.736481
 10
506.848969
 20
258.893829
 10
507.053406
 20
259.024597
 10
507.267212
 20
259.123688
 10
507.4823
 20
259.182098
 10
507.690704
 20
259.211029
 10
507.881622
 20
259.195801
 10
508.049866
 20
259.141937
 10
508.190521
 20
259.052307
 10
508.298279
 20
258.92807
 10
508.369598
 20
258.772858
 10
508.402191
 20
258.59201
 10
508.394531
 20
258.389343
  0
LWPOLYLINE
  5
22B
330
1C3
100
AcDbEntity
  8
0
  6
Continuous
 62
     0
370
    30
100
AcDbPolyline
 90
       17
 70
     0
 43
0.0
 10
508.394531
 20
258.389343
 10
508.347229
 20
258.178802
 10
508.262177
 20
257.964844
 10
508.142548
 20
257.757111
 10
507.992676
 20
257.56427
 10
507.817413
 20
257.394165
 10
507.62323
 20
257.252533
 10
507.416199
 20
257.146423
 10
507.203522
 20
257.085358
 10
506.992737
 20
257.059021
 10
506.795013
 20
257.081512
 10
506.616577
 20
257.146088
 10
506.46405
 20
257.248749
 10
506.344208
 20
257.385895
 10
506.262329
 20
257.551941
 10
506.222778
 20
257.740204
 10
506.228088
 20
257.945068
  0
LWPOLYLINE
  5
22C
330
1C3
100
AcDbEntity
  8
0
  6
Continuous
 62
     0
370
    30
100
AcDbPolyline
 90
       17
 70
     0
 43
0.0
 10
506.829132
 20
262.412079
 10
506.878815
 20
262.620026
 10
506.970795
 20
262.82663
 10
507.100769
 20
263.023438
 10
507.262726
 20
263.203491
 10
507.450043
 20
263.36084
 10
507.65448
 20
263.491608
 10
507.868256
 20
263.590698
 10
508.083374
 20
263.649109
 10
508.291748
 20
263.67804
 10
508.482666
 20
263.662811
 10
508.650909
 20
263.608948
 10
508.791565
 20
263.519318
 10
508.899353
 20
263.395081
 10
508.970642
 20
263.239868
 10
509.003235
 20
263.059021
 10
508.995575
 20
262.856354
  0
LWPOLYLINE
  5
22D
330
1C3
100
AcDbEntity
  8
0
  6
Continuous
 62
     0
370
    30
100
AcDbPolyline
 90
       17
 70
     0
 43
0.0
 10
508.995575
 20
262.856354
 10
508.948273
 20
262.645813
 10
508.86322
 20
262.431854
 10
508.743591
 20
262.224121
 10
508.593719
 20
262.031281
 10
508.418488
 20
261.861176
 10
508.224274
 20
261.719543
 10
508.017242
 20
261.613434
 10
507.804565
 20
261.552368
 10
507.593781
 20
261.526031
 10
507.396088
 20
261.548523
 10
507.217621
 20
261.613098
 10
507.065094
 20
261.715759
 10
506.945282
 20
261.852905
 10
506.863373
 20
262.018951
 10
506.823822
 20
262.207184
 10
506.829132
 20
262.412079
  0
LWPOLYLINE
  5
22E
330
1C3
100
AcDbEntity
  8
0
  6
Continuous
 62
     0
370
    30
100
AcDbPolyline
 90
       17
 70
     0
 43
0.0
 10
507.430176
 20
266.879089
 10
507.479858
 20
267.087036
 10
507.571838
 20
267.29364
 10
507.701843
 20
267.490448
 10
507.86377
 20
267.670502
 10
508.051086
 20
267.82785
 10
508.255524
 20
267.958588
 10
508.46933
 20
268.057678
 10
508.684418
 20
268.116119
 10
508.892792
 20
268.14502
 10
509.08374
 20
268.129822
 10
509.251953
 20
268.075958
 10
509.392609
 20
267.986298
 10
509.500397
 20
267.862091
 10
509.571686
 20
267.706879
 10
509.604279
 20
267.526031
 10
509.596619
 20
267.323364
  0
LWPOLYLINE
  5
22F
330
1C3
100
AcDbEntity
  8
0
  6
Continuous
 62
     0
370
    30
100
AcDbPolyline
 90
       17
 70
     0
 43
0.0
 10
509.596619
 20
267.323364
 10
509.549316
 20
267.112793
 10
509.464294
 20
266.898865
 10
509.344666
 20
266.691132
 10
509.194763
 20
266.498291
 10
509.019531
 20
266.328156
 10
508.825317
 20
266.186554
 10
508.618286
 20
266.080444
 10
508.40564
 20
266.019379
 10
508.194824
 20
265.993042
 10
507.997131
 20
266.015503
 10
507.818695
 20
266.080109
 10
507.666138
 20
266.18277
 10
507.546326
 20
266.319916
 10
507.464417
 20
266.485962
 10
507.424866
 20
266.674194
 10
507.430176
 20
266.879089
  0
LWPOLYLINE
  5
230
330
1C3
100
AcDbEntity
  8
0
  6
Continuous
 62
     0
370
    30
100
AcDbPolyline
 90
       17
 70
     0
 43
0.0
 10
508.031219
 20
271.3461
 10
508.080933
 20
271.554047
 10
508.172913
 20
271.760651
 10
508.302887
 20
271.957458
 10
508.464844
 20
272.137512
 10
508.65213
 20
272.294861
 10
508.856567
 20
272.425598
 10
509.070374
 20
272.524689
 10
509.285461
 20
272.58313
 10
509.493866
 20
272.61203
 10
509.684784
 20
272.596832
 10
509.852997
 20
272.542969
 10
509.993652
 20
272.453308
 10
510.10144
 20
272.329102
 10
510.172729
 20
272.173889
 10
510.205322
 20
271.993042
 10
510.197662
 20
271.790375
  0
LWPOLYLINE
  5
231
330
1C3
100
AcDbEntity
  8
0
  6
Continuous
 62
     0
370
    30
100
AcDbPolyline
 90
       17
 70
     0
 43
0.0
 10
510.197662
 20
271.790375
 10
510.150391
 20
271.579803
 10
510.065338
 20
271.365845
 10
509.945709
 20
271.158142
 10
509.795837
 20
270.965302
 10
509.620575
 20
270.795166
 10
509.426361
 20
270.653564
 10
509.21933
 20
270.547455
 10
509.006683
 20
270.486389
 10
508.795898
 20
270.460022
 10
508.598175
 20
270.482513
 10
508.419739
 20
270.547119
 10
508.267212
 20
270.64978
 10
508.147369
 20
270.786926
 10
508.065491
 20
270.952972
 10
508.02594
 20
271.141205
 10
508.031219
 20
271.3461
  0
LWPOLYLINE
  5
232
330
1C3
100
AcDbEntity
  8
0
  6
Continuous
 62
     0
370
    30
100
AcDbPolyline
 90
        2
 70
     0
 43
0.0
 10
501.504761
 20
229.5168
 10
501.512482
 20
229.678268
  0
LWPOLYLINE
  5
233
330
1C3
100
AcDbEntity
  8
0
  6
Continuous
 62
     0
370
    30
100
AcDbPolyline
 90
        8
 70
     0
 43
0.0
 10
499.338654
 20
228.691772
 10
499.638336
 20
228.481644
 10
500.012177
 20
228.383286
 10
500.417145
 20
228.411026
 10
500.807129
 20
228.561523
 10
501.139374
 20
228.814072
 10
501.379425
 20
229.138
 10
501.504761
 20
229.5168
  0
LWPOLYLINE
  5
234
330
1C3
100
AcDbEntity
  8
0
  6
Continuous
 62
     0
370
    30
100
AcDbPolyline
 90
        2
 70
     0
 43
0.0
 10
502.103973
 20
233.970108
 10
502.111694
 20
234.131561
  0
LWPOLYLINE
  5
235
330
1C3
100
AcDbEntity
  8
0
  6
Continuous
 62
     0
370
    30
100
AcDbPolyline
 90
        8
 70
     0
 43
0.0
 10
499.937866
 20
233.145065
 10
500.237549
 20
232.934952
 10
500.611389
 20
232.836594
 10
501.016357
 20
232.864334
 10
501.406342
 20
233.014832
 10
501.738586
 20
233.267365
 10
501.978638
 20
233.591309
 10
502.103973
 20
233.970108
  0
LWPOLYLINE
  5
236
330
1C3
100
AcDbEntity
  8
0
  6
Continuous
 62
     0
370
    30
100
AcDbPolyline
 90
        2
 70
     0
 43
0.0
 10
502.703186
 20
238.423401
 10
502.710907
 20
238.584869
  0
LWPOLYLINE
  5
237
330
1C3
100
AcDbEntity
  8
0
  6
Continuous
 62
     0
370
    30
100
AcDbPolyline
 90
        8
 70
     0
 43
0.0
 10
500.537079
 20
237.598373
 10
500.836761
 20
237.38826
 10
501.210602
 20
237.289902
 10
501.61557
 20
237.317627
 10
502.005524
 20
237.46814
 10
502.337799
 20
237.720673
 10
502.57785
 20
238.044601
 10
502.703186
 20
238.423401
  0
LWPOLYLINE
  5
238
330
1C3
100
AcDbEntity
  8
0
  6
Continuous
 62
     0
370
    30
100
AcDbPolyline
 90
        2
 70
     0
 43
0.0
 10
503.302368
 20
242.876709
 10
503.31012
 20
243.038177
  0
LWPOLYLINE
  5
239
330
1C3
100
AcDbEntity
  8
0
  6
Continuous
 62
     0
370
    30
100
AcDbPolyline
 90
        8
 70
     0
 43
0.0
 10
501.136292
 20
242.051682
 10
501.435974
 20
241.841568
 10
501.809814
 20
241.743195
 10
502.214783
 20
241.770935
 10
502.604736
 20
241.921432
 10
502.937012
 20
242.173981
 10
503.177063
 20
242.49791
 10
503.302368
 20
242.876709
  0
LWPOLYLINE
  5
23A
330
1C3
100
AcDbEntity
  8
0
  6
Continuous
 62
     0
370
    30
100
AcDbPolyline
 90
        2
 70
     0
 43
0.0
 10
503.901581
 20
247.330017
 10
503.909332
 20
247.49147
  0
LWPOLYLINE
  5
23B
330
1C3
100
AcDbEntity
  8
0
  6
Continuous
 62
     0
370
    30
100
AcDbPolyline
 90
        8
 70
     0
 43
0.0
 10
501.735504
 20
246.504974
 10
502.035187
 20
246.294861
 10
502.409027
 20
246.196503
 10
502.813995
 20
246.224243
 10
503.203949
 20
246.374741
 10
503.536224
 20
246.627289
 10
503.776276
 20
246.951218
 10
503.901581
 20
247.330017
  0
LWPOLYLINE
  5
23C
330
1C3
100
AcDbEntity
  8
0
  6
Continuous
 62
     0
370
    30
100
AcDbPolyline
 90
        2
 70
     0
 43
0.0
 10
504.500793
 20
251.78331
 10
504.508514
 20
251.944778
  0
LWPOLYLINE
  5
23D
330
1C3
100
AcDbEntity
  8
0
  6
Continuous
 62
     0
370
    30
100
AcDbPolyline
 90
        8
 70
     0
 43
0.0
 10
502.334717
 20
250.958282
 10
502.634399
 20
250.748169
 10
503.00824
 20
250.649811
 10
503.413208
 20
250.677551
 10
503.803162
 20
250.828049
 10
504.135437
 20
251.080582
 10
504.375488
 20
251.404526
 10
504.500793
 20
251.78331
  0
LWPOLYLINE
  5
23E
330
1C3
100
AcDbEntity
  8
0
  6
Continuous
 62
     0
370
    30
100
AcDbPolyline
 90
        2
 70
     0
 43
0.0
 10
505.100006
 20
256.236633
 10
505.107727
 20
256.398071
  0
LWPOLYLINE
  5
23F
330
1C3
100
AcDbEntity
  8
0
  6
Continuous
 62
     0
370
    30
100
AcDbPolyline
 90
        8
 70
     0
 43
0.0
 10
502.933929
 20
255.411591
 10
503.233582
 20
255.201477
 10
503.607452
 20
255.103119
 10
504.012421
 20
255.130844
 10
504.402374
 20
255.281357
 10
504.73465
 20
255.53389
 10
504.974701
 20
255.857819
 10
505.100006
 20
256.236633
  0
LWPOLYLINE
  5
240
330
1C3
100
AcDbEntity
  8
0
  6
Continuous
 62
     0
370
    30
100
AcDbPolyline
 90
        2
 70
     0
 43
0.0
 10
505.699219
 20
260.689911
 10
505.70694
 20
260.851379
  0
LWPOLYLINE
  5
241
330
1C3
100
AcDbEntity
  8
0
  6
Continuous
 62
     0
370
    30
100
AcDbPolyline
 90
        8
 70
     0
 43
0.0
 10
503.533112
 20
259.864899
 10
503.832794
 20
259.654785
 10
504.206635
 20
259.556427
 10
504.611633
 20
259.584167
 10
505.001587
 20
259.73465
 10
505.333832
 20
259.987183
 10
505.573883
 20
260.311127
 10
505.699219
 20
260.689911
  0
LWPOLYLINE
  5
242
330
1C3
100
AcDbEntity
  8
0
  6
Continuous
 62
     0
370
    30
100
AcDbPolyline
 90
        2
 70
     0
 43
0.0
 10
506.298431
 20
265.143219
 10
506.306152
 20
265.304688
  0
LWPOLYLINE
  5
243
330
1C3
100
AcDbEntity
  8
0
  6
Continuous
 62
     0
370
    30
100
AcDbPolyline
 90
        8
 70
     0
 43
0.0
 10
504.132324
 20
264.318207
 10
504.432007
 20
264.108093
 10
504.805847
 20
264.009735
 10
505.210815
 20
264.037445
 10
505.6008
 20
264.187958
 10
505.933044
 20
264.440491
 10
506.173096
 20
264.764435
 10
506.298431
 20
265.143219
  0
LWPOLYLINE
  5
244
330
1C3
100
AcDbEntity
  8
0
  6
Continuous
 62
     0
370
    30
100
AcDbPolyline
 90
        2
 70
     0
 43
0.0
 10
506.897644
 20
269.596527
 10
506.905365
 20
269.757996
  0
LWPOLYLINE
  5
245
330
1C3
100
AcDbEntity
  8
0
  6
Continuous
 62
     0
370
    30
100
AcDbPolyline
 90
        8
 70
     0
 43
0.0
 10
504.731537
 20
268.771484
 10
505.031219
 20
268.561371
 10
505.40506
 20
268.463013
 10
505.810028
 20
268.490753
 10
506.200012
 20
268.641266
 10
506.532257
 20
268.893799
 10
506.772308
 20
269.217743
 10
506.897644
 20
269.596527
  0
LWPOLYLINE
  5
246
330
1C3
100
AcDbEntity
  8
0
  6
Continuous
 62
     0
370
    30
100
AcDbPolyline
 90
        2
 70
     0
 43
0.0
 10
507.496857
 20
274.049835
 10
507.504578
 20
274.211304
  0
LWPOLYLINE
  5
247
330
1C3
100
AcDbEntity
  8
0
  6
Continuous
 62
     0
370
    30
100
AcDbPolyline
 90
        8
 70
     0
 43
0.0
 10
505.33075
 20
273.224792
 10
505.630432
 20
273.014679
 10
506.004272
 20
272.916321
 10
506.409241
 20
272.944061
 10
506.799194
 20
273.094574
 10
507.13147
 20
273.347107
 10
507.371521
 20
273.671051
 10
507.496857
 20
274.049835
  0
LINE
  5
248
330
1C3
100
AcDbEntity
  8
0
  6
Continuous
 62
     0
370
    30
100
AcDbLine
 10
493.490332
 20
230.375702
 30
0.0
 11
493.485181
 21
230.342062
 31
0.0
  0
LWPOLYLINE
  5
249
330
1C3
100
AcDbEntity
  8
0
  6
Continuous
 62
     0
370
    30
100
AcDbPolyline
 90
        9
 70
     0
 43
0.0
 10
493.485168
 20
230.342056
 10
493.49826
 20
230.000015
 10
493.624115
 20
229.655518
 10
493.851318
 20
229.34758
 10
494.159882
 20
229.10733
 10
494.520996
 20
228.961288
 10
494.899506
 20
228.924789
 10
495.257599
 20
229.000488
 10
495.598175
 20
229.213409
  0
LINE
  5
24A
330
1C3
100
AcDbEntity
  8
0
  6
Continuous
 62
     0
370
    30
100
AcDbLine
 10
494.089541
 20
234.829006
 30
0.0
 11
494.08439
 21
234.795366
 31
0.0
  0
LWPOLYLINE
  5
24B
330
1C3
100
AcDbEntity
  8
0
  6
Continuous
 62
     0
370
    30
100
AcDbPolyline
 90
        9
 70
     0
 43
0.0
 10
494.084381
 20
234.795364
 10
494.097473
 20
234.453323
 10
494.223328
 20
234.108826
 10
494.450531
 20
233.800873
 10
494.759064
 20
233.560638
 10
495.120178
 20
233.414597
 10
495.498718
 20
233.378082
 10
495.856812
 20
233.453796
 10
496.197388
 20
233.666718
  0
LINE
  5
24C
330
1C3
100
AcDbEntity
  8
0
  6
Continuous
 62
     0
370
    30
100
AcDbLine
 10
494.68875
 20
239.282309
 30
0.0
 11
494.683599
 21
239.24867
 31
0.0
  0
LWPOLYLINE
  5
24D
330
1C3
100
AcDbEntity
  8
0
  6
Continuous
 62
     0
370
    30
100
AcDbPolyline
 90
        9
 70
     0
 43
0.0
 10
494.683594
 20
239.248672
 10
494.696686
 20
238.906631
 10
494.82254
 20
238.562134
 10
495.049713
 20
238.254181
 10
495.358276
 20
238.013947
 10
495.719391
 20
237.867889
 10
496.097931
 20
237.83139
 10
496.456024
 20
237.907089
 10
496.7966
 20
238.120026
  0
LINE
  5
24E
330
1C3
100
AcDbEntity
  8
0
  6
Continuous
 62
     0
370
    30
100
AcDbLine
 10
495.287959
 20
243.735613
 30
0.0
 11
495.282808
 21
243.701974
 31
0.0
  0
LWPOLYLINE
  5
24F
330
1C3
100
AcDbEntity
  8
0
  6
Continuous
 62
     0
370
    30
100
AcDbPolyline
 90
        9
 70
     0
 43
0.0
 10
495.282806
 20
243.701981
 10
495.295898
 20
243.35994
 10
495.421753
 20
243.015427
 10
495.648926
 20
242.707489
 10
495.957489
 20
242.467255
 10
496.318604
 20
242.321198
 10
496.697113
 20
242.284698
 10
497.055237
 20
242.360397
 10
497.395813
 20
242.573334
  0
LINE
  5
250
330
1C3
100
AcDbEntity
  8
0
  6
Continuous
 62
     0
370
    30
100
AcDbLine
 10
495.887168
 20
248.188917
 30
0.0
 11
495.882017
 21
248.155278
 31
0.0
  0
LWPOLYLINE
  5
251
330
1C3
100
AcDbEntity
  8
0
  6
Continuous
 62
     0
370
    30
100
AcDbPolyline
 90
        9
 70
     0
 43
0.0
 10
495.882019
 20
248.155273
 10
495.895081
 20
247.813232
 10
496.020966
 20
247.468735
 10
496.248138
 20
247.160797
 10
496.556702
 20
246.920547
 10
496.917816
 20
246.774506
 10
497.296326
 20
246.738007
 10
497.654419
 20
246.813705
 10
497.994995
 20
247.026627
  0
LINE
  5
252
330
1C3
100
AcDbEntity
  8
0
  6
Continuous
 62
     0
370
    30
100
AcDbLine
 10
496.486377
 20
252.642221
 30
0.0
 11
496.481226
 21
252.608582
 31
0.0
  0
LWPOLYLINE
  5
253
330
1C3
100
AcDbEntity
  8
0
  6
Continuous
 62
     0
370
    30
100
AcDbPolyline
 90
        9
 70
     0
 43
0.0
 10
496.481232
 20
252.608582
 10
496.494293
 20
252.266541
 10
496.620178
 20
251.922043
 10
496.847351
 20
251.61409
 10
497.155914
 20
251.373856
 10
497.517029
 20
251.227814
 10
497.895538
 20
251.191299
 10
498.253632
 20
251.267014
 10
498.594208
 20
251.479935
  0
LINE
  5
254
330
1C3
100
AcDbEntity
  8
0
  6
Continuous
 62
     0
370
    30
100
AcDbLine
 10
497.085586
 20
257.095525
 30
0.0
 11
497.080435
 21
257.061885
 31
0.0
  0
LWPOLYLINE
  5
255
330
1C3
100
AcDbEntity
  8
0
  6
Continuous
 62
     0
370
    30
100
AcDbPolyline
 90
        9
 70
     0
 43
0.0
 10
497.080444
 20
257.06189
 10
497.093506
 20
256.719849
 10
497.21936
 20
256.375336
 10
497.446564
 20
256.067413
 10
497.755127
 20
255.827164
 10
498.116241
 20
255.681107
 10
498.494751
 20
255.644608
 10
498.852844
 20
255.720306
 10
499.19342
 20
255.933243
  0
LINE
  5
256
330
1C3
100
AcDbEntity
  8
0
  6
Continuous
 62
     0
370
    30
100
AcDbLine
 10
497.684795
 20
261.548829
 30
0.0
 11
497.679644
 21
261.515189
 31
0.0
  0
LWPOLYLINE
  5
257
330
1C3
100
AcDbEntity
  8
0
  6
Continuous
 62
     0
370
    30
100
AcDbPolyline
 90
        9
 70
     0
 43
0.0
 10
497.679657
 20
261.515198
 10
497.692719
 20
261.173157
 10
497.818573
 20
260.828644
 10
498.045776
 20
260.520691
 10
498.35434
 20
260.280457
 10
498.715454
 20
260.13443
 10
499.093964
 20
260.0979
 10
499.452057
 20
260.173615
 10
499.792633
 20
260.386536
  0
LINE
  5
258
330
1C3
100
AcDbEntity
  8
0
  6
Continuous
 62
     0
370
    30
100
AcDbLine
 10
498.284003
 20
266.002132
 30
0.0
 11
498.278852
 21
265.968493
 31
0.0
  0
LWPOLYLINE
  5
259
330
1C3
100
AcDbEntity
  8
0
  6
Continuous
 62
     0
370
    30
100
AcDbPolyline
 90
        9
 70
     0
 43
0.0
 10
498.278839
 20
265.968506
 10
498.291931
 20
265.626465
 10
498.417786
 20
265.281952
 10
498.644989
 20
264.973999
 10
498.953552
 20
264.733765
 10
499.314667
 20
264.587708
 10
499.693176
 20
264.551208
 10
500.05127
 20
264.626923
 10
500.391846
 20
264.839844
  0
LINE
  5
25A
330
1C3
100
AcDbEntity
  8
0
  6
Continuous
 62
     0
370
    30
100
AcDbLine
 10
498.883212
 20
270.455436
 30
0.0
 11
498.878061
 21
270.421797
 31
0.0
  0
LWPOLYLINE
  5
25B
330
1C3
100
AcDbEntity
  8
0
  6
Continuous
 62
     0
370
    30
100
AcDbPolyline
 90
        9
 70
     0
 43
0.0
 10
498.878052
 20
270.421783
 10
498.891144
 20
270.079742
 10
499.016998
 20
269.73526
 10
499.244202
 20
269.427307
 10
499.552734
 20
269.187073
 10
499.913849
 20
269.041016
 10
500.292389
 20
269.004517
 10
500.650482
 20
269.080231
 10
500.991058
 20
269.293152
  0
LINE
  5
25C
330
1C3
100
AcDbEntity
  8
0
  6
Continuous
 62
     0
370
    30
100
AcDbLine
 10
499.482421
 20
274.90874
 30
0.0
 11
499.47727
 21
274.875101
 31
0.0
  0
LWPOLYLINE
  5
25D
330
1C3
100
AcDbEntity
  8
0
  6
Continuous
 62
     0
370
    30
100
AcDbPolyline
 90
        9
 70
     0
 43
0.0
 10
499.477264
 20
274.875092
 10
499.490356
 20
274.533051
 10
499.616211
 20
274.188568
 10
499.843384
 20
273.880615
 10
500.151947
 20
273.640381
 10
500.513062
 20
273.494324
 10
500.891602
 20
273.457825
 10
501.249695
 20
273.533539
 10
501.590271
 20
273.74646
  0
LWPOLYLINE
  5
25E
330
1C3
100
AcDbEntity
  8
0
  6
Continuous
 62
     0
370
    30
100
AcDbPolyline
 90
        2
 70
     0
 43
0.0
 10
506.092621
 20
230.853531
 10
506.105011
 20
231.048386
  0
LWPOLYLINE
  5
25F
330
1C3
100
AcDbEntity
  8
0
  6
Continuous
 62
     0
370
    30
100
AcDbPolyline
 90
        6
 70
     0
 43
0.0
 10
505.012726
 20
229.355637
 10
505.30249
 20
229.497894
 10
505.57724
 20
229.746201
 10
505.81131
 20
230.071136
 10
505.985382
 20
230.437195
 10
506.092621
 20
230.853531
  0
LWPOLYLINE
  5
260
330
1C3
100
AcDbEntity
  8
0
  6
Continuous
 62
     0
370
    30
100
AcDbPolyline
 90
        2
 70
     0
 43
0.0
 10
506.691833
 20
235.306839
 10
506.704224
 20
235.501694
  0
LWPOLYLINE
  5
261
330
1C3
100
AcDbEntity
  8
0
  6
Continuous
 62
     0
370
    30
100
AcDbPolyline
 90
        6
 70
     0
 43
0.0
 10
505.611938
 20
233.808945
 10
505.901672
 20
233.951202
 10
506.176453
 20
234.199493
 10
506.410522
 20
234.524429
 10
506.584595
 20
234.890503
 10
506.691833
 20
235.306839
  0
LWPOLYLINE
  5
262
330
1C3
100
AcDbEntity
  8
0
  6
Continuous
 62
     0
370
    30
100
AcDbPolyline
 90
        2
 70
     0
 43
0.0
 10
507.291046
 20
239.760147
 10
507.303436
 20
239.955002
  0
LWPOLYLINE
  5
263
330
1C3
100
AcDbEntity
  8
0
  6
Continuous
 62
     0
370
    30
100
AcDbPolyline
 90
        6
 70
     0
 43
0.0
 10
506.211151
 20
238.262253
 10
506.500885
 20
238.404495
 10
506.775665
 20
238.652802
 10
507.009735
 20
238.977737
 10
507.183807
 20
239.343796
 10
507.291046
 20
239.760147
  0
LWPOLYLINE
  5
264
330
1C3
100
AcDbEntity
  8
0
  6
Continuous
 62
     0
370
    30
100
AcDbPolyline
 90
        2
 70
     0
 43
0.0
 10
507.890259
 20
244.21344
 10
507.902649
 20
244.408295
  0
LWPOLYLINE
  5
265
330
1C3
100
AcDbEntity
  8
0
  6
Continuous
 62
     0
370
    30
100
AcDbPolyline
 90
        6
 70
     0
 43
0.0
 10
506.810364
 20
242.715546
 10
507.100098
 20
242.857803
 10
507.374878
 20
243.10611
 10
507.608948
 20
243.431046
 10
507.78302
 20
243.797104
 10
507.890259
 20
244.21344
  0
LWPOLYLINE
  5
266
330
1C3
100
AcDbEntity
  8
0
  6
Continuous
 62
     0
370
    30
100
AcDbPolyline
 90
        2
 70
     0
 43
0.0
 10
508.489441
 20
248.666748
 10
508.501862
 20
248.861603
  0
LWPOLYLINE
  5
267
330
1C3
100
AcDbEntity
  8
0
  6
Continuous
 62
     0
370
    30
100
AcDbPolyline
 90
        6
 70
     0
 43
0.0
 10
507.409576
 20
247.168854
 10
507.69931
 20
247.311111
 10
507.974091
 20
247.559418
 10
508.20816
 20
247.884354
 10
508.382202
 20
248.250412
 10
508.489441
 20
248.666748
  0
LWPOLYLINE
  5
268
330
1C3
100
AcDbEntity
  8
0
  6
Continuous
 62
     0
370
    30
100
AcDbPolyline
 90
        2
 70
     0
 43
0.0
 10
509.088654
 20
253.120056
 10
509.101074
 20
253.314911
  0
LWPOLYLINE
  5
269
330
1C3
100
AcDbEntity
  8
0
  6
Continuous
 62
     0
370
    30
100
AcDbPolyline
 90
        6
 70
     0
 43
0.0
 10
508.008789
 20
251.622162
 10
508.298523
 20
251.76442
 10
508.573273
 20
252.012711
 10
508.807343
 20
252.337646
 10
508.981415
 20
252.703705
 10
509.088654
 20
253.120056
  0
LWPOLYLINE
  5
26A
330
1C3
100
AcDbEntity
  8
0
  6
Continuous
 62
     0
370
    30
100
AcDbPolyline
 90
        2
 70
     0
 43
0.0
 10
509.687866
 20
257.573364
 10
509.700287
 20
257.768219
  0
LWPOLYLINE
  5
26B
330
1C3
100
AcDbEntity
  8
0
  6
Continuous
 62
     0
370
    30
100
AcDbPolyline
 90
        6
 70
     0
 43
0.0
 10
508.608002
 20
256.07547
 10
508.897736
 20
256.217712
 10
509.172485
 20
256.466003
 10
509.406555
 20
256.790955
 10
509.580627
 20
257.157013
 10
509.687866
 20
257.573364
  0
LWPOLYLINE
  5
26C
330
1C3
100
AcDbEntity
  8
0
  6
Continuous
 62
     0
370
    30
100
AcDbPolyline
 90
        2
 70
     0
 43
0.0
 10
510.287079
 20
262.026672
 10
510.299469
 20
262.221527
  0
LWPOLYLINE
  5
26D
330
1C3
100
AcDbEntity
  8
0
  6
Continuous
 62
     0
370
    30
100
AcDbPolyline
 90
        6
 70
     0
 43
0.0
 10
509.207214
 20
260.528778
 10
509.496948
 20
260.671021
 10
509.771698
 20
260.919312
 10
510.005768
 20
261.244263
 10
510.17984
 20
261.610321
 10
510.287079
 20
262.026672
  0
LWPOLYLINE
  5
26E
330
1C3
100
AcDbEntity
  8
0
  6
Continuous
 62
     0
370
    30
100
AcDbPolyline
 90
        2
 70
     0
 43
0.0
 10
510.886292
 20
266.47995
 10
510.898682
 20
266.674805
  0
LWPOLYLINE
  5
26F
330
1C3
100
AcDbEntity
  8
0
  6
Continuous
 62
     0
370
    30
100
AcDbPolyline
 90
        6
 70
     0
 43
0.0
 10
509.806396
 20
264.982056
 10
510.096161
 20
265.124329
 10
510.370911
 20
265.37262
 10
510.60498
 20
265.697571
 10
510.779053
 20
266.063629
 10
510.886292
 20
266.47995
  0
LWPOLYLINE
  5
270
330
1C3
100
AcDbEntity
  8
0
  6
Continuous
 62
     0
370
    30
100
AcDbPolyline
 90
        2
 70
     0
 43
0.0
 10
511.485504
 20
270.933258
 10
511.497894
 20
271.128113
  0
LWPOLYLINE
  5
271
330
1C3
100
AcDbEntity
  8
0
  6
Continuous
 62
     0
370
    30
100
AcDbPolyline
 90
        6
 70
     0
 43
0.0
 10
510.405609
 20
269.435364
 10
510.695343
 20
269.577637
 10
510.970123
 20
269.825928
 10
511.204193
 20
270.150879
 10
511.378265
 20
270.516937
 10
511.485504
 20
270.933258
  0
LWPOLYLINE
  5
272
330
1C3
100
AcDbEntity
  8
0
  6
Continuous
 62
     0
370
    30
100
AcDbPolyline
 90
        2
 70
     0
 43
0.0
 10
512.084717
 20
275.386566
 10
512.097107
 20
275.581421
  0
LWPOLYLINE
  5
273
330
1C3
100
AcDbEntity
  8
0
  6
Continuous
 62
     0
370
    30
100
AcDbPolyline
 90
        6
 70
     0
 43
0.0
 10
511.004822
 20
273.888672
 10
511.294556
 20
274.030945
 10
511.569336
 20
274.279236
 10
511.803406
 20
274.604156
 10
511.977478
 20
274.970245
 10
512.084717
 20
275.386566
  0
LWPOLYLINE
  5
274
330
1C3
100
AcDbEntity
  8
0
  6
Continuous
 62
     0
370
    30
100
AcDbPolyline
 90
        9
 70
     0
 43
0.0
 10
496.553406
 20
231.417145
 10
496.709167
 20
231.090332
 10
496.974762
 20
230.820755
 10
497.323303
 20
230.638138
 10
497.718658
 20
230.565048
 10
498.119202
 20
230.60968
 10
498.483002
 20
230.765244
 10
498.7724
 20
231.012604
 10
498.971069
 20
231.360886
  0
LWPOLYLINE
  5
275
330
1C3
100
AcDbEntity
  8
0
  6
Continuous
 62
     0
370
    30
100
AcDbPolyline
 90
        9
 70
     0
 43
0.0
 10
497.154449
 20
235.88414
 10
497.310211
 20
235.557343
 10
497.575806
 20
235.287766
 10
497.924347
 20
235.105148
 10
498.319733
 20
235.032059
 10
498.720245
 20
235.076675
 10
499.084045
 20
235.232239
 10
499.373444
 20
235.479599
 10
499.572113
 20
235.827896
  0
LWPOLYLINE
  5
276
330
1C3
100
AcDbEntity
  8
0
  6
Continuous
 62
     0
370
    30
100
AcDbPolyline
 90
        9
 70
     0
 43
0.0
 10
497.755493
 20
240.351151
 10
497.911285
 20
240.024353
 10
498.17688
 20
239.754761
 10
498.525391
 20
239.572144
 10
498.920776
 20
239.499054
 10
499.321289
 20
239.543686
 10
499.68512
 20
239.699249
 10
499.974487
 20
239.946609
 10
500.173187
 20
240.294907
  0
LWPOLYLINE
  5
277
330
1C3
100
AcDbEntity
  8
0
  6
Continuous
 62
     0
370
    30
100
AcDbPolyline
 90
        9
 70
     0
 43
0.0
 10
498.356537
 20
244.818161
 10
498.512329
 20
244.491348
 10
498.777924
 20
244.221771
 10
499.126465
 20
244.039154
 10
499.52182
 20
243.966064
 10
499.922363
 20
244.010696
 10
500.286163
 20
244.16626
 10
500.575531
 20
244.41362
 10
500.774231
 20
244.761902
  0
LWPOLYLINE
  5
278
330
1C3
100
AcDbEntity
  8
0
  6
Continuous
 62
     0
370
    30
100
AcDbPolyline
 90
        9
 70
     0
 43
0.0
 10
498.957611
 20
249.285156
 10
499.113373
 20
248.958359
 10
499.378967
 20
248.688782
 10
499.727509
 20
248.506165
 10
500.122864
 20
248.433075
 10
500.523407
 20
248.477692
 10
500.887207
 20
248.633255
 10
501.176605
 20
248.880615
 10
501.375275
 20
249.228912
  0
LWPOLYLINE
  5
279
330
1C3
100
AcDbEntity
  8
0
  6
Continuous
 62
     0
370
    30
100
AcDbPolyline
 90
        9
 70
     0
 43
0.0
 10
499.558655
 20
253.752167
 10
499.714417
 20
253.425369
 10
499.980011
 20
253.155792
 10
500.328552
 20
252.97316
 10
500.723938
 20
252.90007
 10
501.124451
 20
252.944702
 10
501.488251
 20
253.100266
 10
501.777649
 20
253.347626
 10
501.976318
 20
253.695923
  0
LWPOLYLINE
  5
27A
330
1C3
100
AcDbEntity
  8
0
  6
Continuous
 62
     0
370
    30
100
AcDbPolyline
 90
        9
 70
     0
 43
0.0
 10
500.159698
 20
258.219177
 10
500.315491
 20
257.892365
 10
500.581085
 20
257.622803
 10
500.929596
 20
257.440186
 10
501.324982
 20
257.367065
 10
501.725525
 20
257.411713
 10
502.089325
 20
257.567261
 10
502.378693
 20
257.814636
 10
502.577393
 20
258.162933
  0
LWPOLYLINE
  5
27B
330
1C3
100
AcDbEntity
  8
0
  6
Continuous
 62
     0
370
    30
100
AcDbPolyline
 90
        9
 70
     0
 43
0.0
 10
500.760773
 20
262.686188
 10
500.916534
 20
262.359375
 10
501.182129
 20
262.089783
 10
501.53067
 20
261.907166
 10
501.926025
 20
261.834076
 10
502.326569
 20
261.878723
 10
502.690369
 20
262.034271
 10
502.979767
 20
262.281647
 10
503.178436
 20
262.629944
  0
LWPOLYLINE
  5
27C
330
1C3
100
AcDbEntity
  8
0
  6
Continuous
 62
     0
370
    30
100
AcDbPolyline
 90
        9
 70
     0
 43
0.0
 10
501.361816
 20
267.153168
 10
501.517578
 20
266.826385
 10
501.783173
 20
266.556793
 10
502.131714
 20
266.374176
 10
502.5271
 20
266.301086
 10
502.927612
 20
266.345703
 10
503.291412
 20
266.501282
 10
503.580811
 20
266.748627
 10
503.77948
 20
267.096924
  0
LWPOLYLINE
  5
27D
330
1C3
100
AcDbEntity
  8
0
  6
Continuous
 62
     0
370
    30
100
AcDbPolyline
 90
        9
 70
     0
 43
0.0
 10
501.96286
 20
271.620178
 10
502.118652
 20
271.293396
 10
502.384247
 20
271.023804
 10
502.732758
 20
270.841187
 10
503.128143
 20
270.768097
 10
503.528656
 20
270.812714
 10
503.892487
 20
270.968292
 10
504.181854
 20
271.215637
 10
504.380554
 20
271.563934
  0
LWPOLYLINE
  5
27E
330
1C3
100
AcDbEntity
  8
0
  6
Continuous
 62
     0
370
    30
100
AcDbPolyline
 90
        2
 70
     0
 43
0.0
 10
504.299255
 20
232.102631
 10
504.297546
 20
232.388245
  0
LWPOLYLINE
  5
27F
330
1C3
100
AcDbEntity
  8
0
  6
Continuous
 62
     0
370
    30
100
AcDbPolyline
 90
        7
 70
     0
 43
0.0
 10
502.637756
 20
230.811203
 10
502.974274
 20
230.774811
 10
503.33429
 20
230.863663
 10
503.677856
 20
231.067657
 10
503.969696
 20
231.36084
 10
504.182159
 20
231.709167
 10
504.299255
 20
232.102631
  0
LWPOLYLINE
  5
280
330
1C3
100
AcDbEntity
  8
0
  6
Continuous
 62
     0
370
    30
100
AcDbPolyline
 90
        2
 70
     0
 43
0.0
 10
504.900299
 20
236.569641
 10
504.89859
 20
236.855255
  0
LWPOLYLINE
  5
281
330
1C3
100
AcDbEntity
  8
0
  6
Continuous
 62
     0
370
    30
100
AcDbPolyline
 90
        7
 70
     0
 43
0.0
 10
503.2388
 20
235.278214
 10
503.575348
 20
235.241821
 10
503.935333
 20
235.330673
 10
504.2789
 20
235.534668
 10
504.57074
 20
235.827835
 10
504.783234
 20
236.176178
 10
504.900299
 20
236.569641
  0
LWPOLYLINE
  5
282
330
1C3
100
AcDbEntity
  8
0
  6
Continuous
 62
     0
370
    30
100
AcDbPolyline
 90
        2
 70
     0
 43
0.0
 10
505.501343
 20
241.036636
 10
505.499634
 20
241.32225
  0
LWPOLYLINE
  5
283
330
1C3
100
AcDbEntity
  8
0
  6
Continuous
 62
     0
370
    30
100
AcDbPolyline
 90
        7
 70
     0
 43
0.0
 10
503.839874
 20
239.745224
 10
504.176392
 20
239.708817
 10
504.536377
 20
239.797668
 10
504.879974
 20
240.001663
 10
505.171783
 20
240.294846
 10
505.384277
 20
240.643173
 10
505.501343
 20
241.036636
  0
LWPOLYLINE
  5
284
330
1C3
100
AcDbEntity
  8
0
  6
Continuous
 62
     0
370
    30
100
AcDbPolyline
 90
        2
 70
     0
 43
0.0
 10
506.102417
 20
245.503647
 10
506.100708
 20
245.789261
  0
LWPOLYLINE
  5
285
330
1C3
100
AcDbEntity
  8
0
  6
Continuous
 62
     0
370
    30
100
AcDbPolyline
 90
        7
 70
     0
 43
0.0
 10
504.440918
 20
244.212219
 10
504.777435
 20
244.175827
 10
505.137451
 20
244.264679
 10
505.481018
 20
244.468674
 10
505.772858
 20
244.761856
 10
505.985321
 20
245.110184
 10
506.102417
 20
245.503647
  0
LWPOLYLINE
  5
286
330
1C3
100
AcDbEntity
  8
0
  6
Continuous
 62
     0
370
    30
100
AcDbPolyline
 90
        2
 70
     0
 43
0.0
 10
506.703461
 20
249.970657
 10
506.701752
 20
250.256271
  0
LWPOLYLINE
  5
287
330
1C3
100
AcDbEntity
  8
0
  6
Continuous
 62
     0
370
    30
100
AcDbPolyline
 90
        7
 70
     0
 43
0.0
 10
505.041962
 20
248.67923
 10
505.37851
 20
248.642838
 10
505.738495
 20
248.731689
 10
506.082062
 20
248.935684
 10
506.373901
 20
249.228867
 10
506.586395
 20
249.577194
 10
506.703461
 20
249.970657
  0
LWPOLYLINE
  5
288
330
1C3
100
AcDbEntity
  8
0
  6
Continuous
 62
     0
370
    30
100
AcDbPolyline
 90
        2
 70
     0
 43
0.0
 10
507.304504
 20
254.437653
 10
507.302795
 20
254.723267
  0
LWPOLYLINE
  5
289
330
1C3
100
AcDbEntity
  8
0
  6
Continuous
 62
     0
370
    30
100
AcDbPolyline
 90
        7
 70
     0
 43
0.0
 10
505.643005
 20
253.14624
 10
505.979553
 20
253.109833
 10
506.339539
 20
253.198685
 10
506.683136
 20
253.402695
 10
506.974945
 20
253.695862
 10
507.187439
 20
254.044189
 10
507.304504
 20
254.437653
  0
LWPOLYLINE
  5
28A
330
1C3
100
AcDbEntity
  8
0
  6
Continuous
 62
     0
370
    30
100
AcDbPolyline
 90
        2
 70
     0
 43
0.0
 10
507.905579
 20
258.904663
 10
507.90387
 20
259.190277
  0
LWPOLYLINE
  5
28B
330
1C3
100
AcDbEntity
  8
0
  6
Continuous
 62
     0
370
    30
100
AcDbPolyline
 90
        7
 70
     0
 43
0.0
 10
506.24408
 20
257.613251
 10
506.580597
 20
257.576843
 10
506.940582
 20
257.66568
 10
507.28418
 20
257.86969
 10
507.576019
 20
258.162872
 10
507.788483
 20
258.5112
 10
507.905579
 20
258.904663
  0
LWPOLYLINE
  5
28C
330
1C3
100
AcDbEntity
  8
0
  6
Continuous
 62
     0
370
    30
100
AcDbPolyline
 90
        2
 70
     0
 43
0.0
 10
508.506622
 20
263.371674
 10
508.504913
 20
263.657288
  0
LWPOLYLINE
  5
28D
330
1C3
100
AcDbEntity
  8
0
  6
Continuous
 62
     0
370
    30
100
AcDbPolyline
 90
        7
 70
     0
 43
0.0
 10
506.845123
 20
262.080231
 10
507.181641
 20
262.043854
 10
507.541656
 20
262.13269
 10
507.885223
 20
262.3367
 10
508.177063
 20
262.629883
 10
508.389526
 20
262.97821
 10
508.506622
 20
263.371674
  0
LWPOLYLINE
  5
28E
330
1C3
100
AcDbEntity
  8
0
  6
Continuous
 62
     0
370
    30
100
AcDbPolyline
 90
        2
 70
     0
 43
0.0
 10
509.107666
 20
267.838684
 10
509.105957
 20
268.124298
  0
LWPOLYLINE
  5
28F
330
1C3
100
AcDbEntity
  8
0
  6
Continuous
 62
     0
370
    30
100
AcDbPolyline
 90
        7
 70
     0
 43
0.0
 10
507.446167
 20
266.547241
 10
507.782715
 20
266.510864
 10
508.1427
 20
266.599701
 10
508.486267
 20
266.803711
 10
508.778107
 20
267.096893
 10
508.990601
 20
267.445221
 10
509.107666
 20
267.838684
  0
LWPOLYLINE
  5
290
330
1C3
100
AcDbEntity
  8
0
  6
Continuous
 62
     0
370
    30
100
AcDbPolyline
 90
        2
 70
     0
 43
0.0
 10
509.70874
 20
272.305695
 10
509.707001
 20
272.591309
  0
LWPOLYLINE
  5
291
330
1C3
100
AcDbEntity
  8
0
  6
Continuous
 62
     0
370
    30
100
AcDbPolyline
 90
        7
 70
     0
 43
0.0
 10
508.047241
 20
271.014252
 10
508.383759
 20
270.977875
 10
508.743744
 20
271.066711
 10
509.087341
 20
271.270721
 10
509.379181
 20
271.563873
 10
509.591644
 20
271.912201
 10
509.70874
 20
272.305695
  0
ELLIPSE
  5
292
330
1C3
100
AcDbEntity
  8
0
  6
Continuous
 62
     0
370
    30
100
AcDbEllipse
 10
505.331909
 20
292.682995
 30
0.0
 11
11.8928247818114
 21
-1.600224580842545
 31
0.0
210
0.0
220
0.0
230
-1.0
 40
0.530287
 41
5.962583439256544
 42
9.104176092846329
  0
LINE
  5
293
330
1C3
100
AcDbEntity
  8
0
  6
Continuous
 62
     0
370
     0
100
AcDbLine
 10
493.777653
 20
292.21423
 30
0.0
 11
493.585454
 21
290.785812
 31
0.0
  0
ELLIPSE
  5
294
330
1C3
100
AcDbEntity
  8
0
  6
Continuous
 62
     0
370
    30
100
AcDbEllipse
 10
505.331909
 20
292.682995
 30
0.0
 11
11.8928247818114
 21
-1.600224580842545
 31
0.0
210
0.0
220
0.0
230
-1.0
 40
0.530287
 41
2.820990785666742
 42
5.962583439256544
  0
ELLIPSE
  5
295
330
1C3
100
AcDbEntity
  8
0
  6
Continuous
 62
     0
370
    30
100
AcDbEllipse
 10
497.197601
 20
232.229047
 30
0.0
 11
-10.90175604999378
 21
1.466872532439
 31
0.0
210
0.0
220
0.0
230
1.0
 40
0.530287
 41
4.820084328879676
 42
4.975472260894092
  0
ELLIPSE
  5
296
330
1C3
100
AcDbEntity
  8
0
  6
Continuous
 62
     0
370
    30
100
AcDbEllipse
 10
497.197601
 20
232.229047
 30
0.0
 11
-10.90175604999378
 21
1.466872532439
 31
0.0
210
0.0
220
0.0
230
1.0
 40
0.530287
 41
4.402086074052652
 42
4.454494296276051
  0
ELLIPSE
  5
297
330
1C3
100
AcDbEntity
  8
0
  6
Continuous
 62
     0
370
    30
100
AcDbEllipse
 10
497.197601
 20
232.229047
 30
0.0
 11
-10.90175604999378
 21
1.466872532439
 31
0.0
210
0.0
220
0.0
230
1.0
 40
0.530287
 41
4.041509361527323
 42
4.155802366578964
  0
ELLIPSE
  5
298
330
1C3
100
AcDbEntity
  8
0
  6
Continuous
 62
     0
370
    30
100
AcDbEllipse
 10
497.197601
 20
232.229047
 30
0.0
 11
-10.90175604999378
 21
1.466872532439
 31
0.0
210
0.0
220
0.0
230
1.0
 40
0.530287
 41
3.782406088967462
 42
3.853011843554083
  0
LWPOLYLINE
  5
299
330
1C3
100
AcDbEntity
  8
0
  6
Continuous
 62
     0
370
    30
100
AcDbPolyline
 90
        4
 70
     0
 43
0.0
 10
473.704651
 20
136.369019
 10
473.684143
 20
135.782837
 10
473.774078
 20
135.20549
 10
474.000885
 20
134.558655
  0
LINE
  5
29A
330
1C3
100
AcDbEntity
  8
0
  6
Continuous
 62
     0
370
     0
100
AcDbLine
 10
474.000896
 20
134.55865
 30
0.0
 11
474.666572
 21
139.50594
 31
0.0
  0
LWPOLYLINE
  5
29B
330
1C3
100
AcDbEntity
  8
0
  6
Continuous
 62
     0
370
    30
100
AcDbPolyline
 90
       25
 70
     0
 43
0.0
 10
474.000885
 20
134.558655
 10
474.335144
 20
133.952347
 10
474.801819
 20
133.334717
 10
475.405823
 20
132.717819
 10
476.146637
 20
132.115417
 10
477.017487
 20
131.542099
 10
478.005157
 20
131.012375
 10
479.090454
 20
130.539505
 10
480.249268
 20
130.134491
 10
481.454498
 20
129.805191
 10
482.677948
 20
129.555878
 10
483.892456
 20
129.387115
 10
485.073792
 20
129.296143
 10
486.20163
 20
129.277374
 10
487.274323
 20
129.32431
 10
488.344421
 20
129.439636
 10
489.399384
 20
129.629349
 10
490.414459
 20
129.896896
 10
491.363678
 20
130.242691
 10
492.221558
 20
130.663651
 10
492.965088
 20
131.153015
 10
493.575623
 20
131.70076
 10
494.040466
 20
132.294098
 10
494.353577
 20
132.918625
 10
494.51709
 20
133.568619
  0
LINE
  5
29C
330
1C3
100
AcDbEntity
  8
0
  6
Continuous
 62
     0
370
    30
100
AcDbLine
 10
495.010741
 20
137.237416
 30
0.0
 11
494.517091
 21
133.568623
 31
0.0
  0
LINE
  5
29D
330
1C3
100
AcDbEntity
  8
0
  6
Continuous
 62
     0
370
    30
100
AcDbLine
 10
474.198298
 20
140.037809
 30
0.0
 11
473.704648
 21
136.369016
 31
0.0
  0
LINE
  5
29E
330
1C3
100
AcDbEntity
  8
0
  6
Continuous
 62
     0
370
    30
100
AcDbLine
 10
493.439084
 20
294.28322
 30
0.0
 11
493.246885
 21
292.854802
 31
0.0
  0
LINE
  5
29F
330
1C3
100
AcDbEntity
  8
0
  6
Continuous
 62
     0
370
    30
100
AcDbLine
 10
517.224734
 20
291.082771
 30
0.0
 11
517.032534
 21
289.654352
 31
0.0
  0
LINE
  5
2A0
330
1C3
100
AcDbEntity
  8
0
  6
Continuous
 62
     0
370
    30
100
AcDbLine
 10
496.908161
 20
140.090563
 30
0.0
 11
517.032534
 21
289.654352
 31
0.0
  0
LINE
  5
2A1
330
1C3
100
AcDbEntity
  8
0
  6
Continuous
 62
     0
370
    30
100
AcDbLine
 10
473.122511
 20
143.291012
 30
0.0
 11
493.246885
 21
292.854802
 31
0.0
  0
ENDBLK
  5
2A3
330
1C3
100
AcDbEntity
  8
0
100
AcDbBlockEnd
  0
BLOCK
  5
330
330
2A5
100
AcDbEntity
  8
0
100
AcDbBlockBegin
  2
e
 70
     0
 10
234.731079
 20
0.0
 30
0.0
  3
e
  1

  0
LINE
  5
2A6
330
2A5
100
AcDbEntity
  8
0
  6
Continuous
 62
     0
370
     0
100
AcDbLine
 10
201.226226
 20
525.898415
 30
0.0
 11
188.980959
 21
525.898415
 31
0.0
  0
LINE
  5
2A7
330
2A5
100
AcDbEntity
  8
0
  6
Continuous
 62
     0
370
     0
100
AcDbLine
 10
188.980959
 20
525.898415
 30
0.0
 11
177.226226
 21
525.898415
 31
0.0
  0
LINE
  5
2A8
330
2A5
100
AcDbEntity
  8
0
  6
Continuous
 62
     0
370
    30
100
AcDbLine
 10
177.226226
 20
347.898415
 30
0.0
 11
201.005455
 21
347.898415
 31
0.0
  0
LINE
  5
2A9
330
2A5
100
AcDbEntity
  8
0
  6
Continuous
 62
     0
370
     0
100
AcDbLine
 10
201.005455
 20
347.898415
 30
0.0
 11
201.005455
 21
350.098415
 31
0.0
  0
LINE
  5
2AA
330
2A5
100
AcDbEntity
  8
0
  6
Continuous
 62
     0
370
     0
100
AcDbLine
 10
201.005455
 20
350.098415
 30
0.0
 11
201.226226
 21
350.098415
 31
0.0
  0
LWPOLYLINE
  5
2AB
330
2A5
100
AcDbEntity
  8
0
  6
Continuous
 62
     0
370
    30
100
AcDbPolyline
 90
        9
 70
     0
 43
0.0
 10
177.226776
 20
460.640686
 10
177.226715
 20
460.595306
 10
177.230469
 20
460.512939
 10
177.237167
 20
460.3927
 10
177.245514
 20
460.239288
 10
177.254089
 20
460.057526
 10
177.26152
 20
459.853455
 10
177.266571
 20
459.633789
 10
177.268448
 20
459.398376
  0
LWPOLYLINE
  5
2AC
330
2A5
100
AcDbEntity
  8
0
  6
Continuous
 62
     0
370
    30
100
AcDbPolyline
 90
        9
 70
     0
 43
0.0
 10
177.268448
 20
459.398376
 10
177.266708
 20
459.171204
 10
177.261734
 20
458.950897
 10
177.254379
 20
458.745941
 10
177.245804
 20
458.563202
 10
177.237411
 20
458.4086
 10
177.230652
 20
458.286835
 10
177.226776
 20
458.203949
 10
177.226776
 20
458.156128
  0
LWPOLYLINE
  5
2AD
330
2A5
100
AcDbEntity
  8
0
  6
Continuous
 62
     0
370
    30
100
AcDbPolyline
 90
        9
 70
     0
 43
0.0
 10
177.226776
 20
465.940704
 10
177.226715
 20
465.895294
 10
177.230469
 20
465.812958
 10
177.237167
 20
465.692719
 10
177.245514
 20
465.539307
 10
177.254089
 20
465.357513
 10
177.26152
 20
465.153442
 10
177.266571
 20
464.933807
 10
177.268448
 20
464.698395
  0
LWPOLYLINE
  5
2AE
330
2A5
100
AcDbEntity
  8
0
  6
Continuous
 62
     0
370
    30
100
AcDbPolyline
 90
        9
 70
     0
 43
0.0
 10
177.268448
 20
464.698395
 10
177.266708
 20
464.471191
 10
177.261734
 20
464.250916
 10
177.254379
 20
464.045959
 10
177.245804
 20
463.86319
 10
177.237411
 20
463.708618
 10
177.230652
 20
463.586823
 10
177.226776
 20
463.503967
 10
177.226776
 20
463.456116
  0
LWPOLYLINE
  5
2AF
330
2A5
100
AcDbEntity
  8
0
  6
Continuous
 62
     0
370
    30
100
AcDbPolyline
 90
        9
 70
     0
 43
0.0
 10
177.226776
 20
471.240692
 10
177.226715
 20
471.195312
 10
177.230469
 20
471.112946
 10
177.237167
 20
470.992706
 10
177.245514
 20
470.839294
 10
177.254089
 20
470.657501
 10
177.26152
 20
470.45343
 10
177.266571
 20
470.233795
 10
177.268448
 20
469.998383
  0
LWPOLYLINE
  5
2B0
330
2A5
100
AcDbEntity
  8
0
  6
Continuous
 62
     0
370
    30
100
AcDbPolyline
 90
        9
 70
     0
 43
0.0
 10
177.268448
 20
469.998383
 10
177.266708
 20
469.77121
 10
177.261734
 20
469.550903
 10
177.254379
 20
469.345947
 10
177.245804
 20
469.163177
 10
177.237411
 20
469.008606
 10
177.230652
 20
468.88681
 10
177.226776
 20
468.803955
 10
177.226776
 20
468.756104
  0
LWPOLYLINE
  5
2B1
330
2A5
100
AcDbEntity
  8
0
  6
Continuous
 62
     0
370
    30
100
AcDbPolyline
 90
        9
 70
     0
 43
0.0
 10
177.226776
 20
476.54071
 10
177.226715
 20
476.4953
 10
177.230469
 20
476.412933
 10
177.237167
 20
476.292694
 10
177.245514
 20
476.139282
 10
177.254089
 20
475.95752
 10
177.26152
 20
475.753448
 10
177.266571
 20
475.533783
 10
177.268448
 20
475.298401
  0
LWPOLYLINE
  5
2B2
330
2A5
100
AcDbEntity
  8
0
  6
Continuous
 62
     0
370
    30
100
AcDbPolyline
 90
        9
 70
     0
 43
0.0
 10
177.268448
 20
475.298401
 10
177.266708
 20
475.071198
 10
177.261734
 20
474.850922
 10
177.254379
 20
474.645935
 10
177.245804
 20
474.463196
 10
177.237411
 20
474.308624
 10
177.230652
 20
474.186829
 10
177.226776
 20
474.103943
 10
177.226776
 20
474.056122
  0
LWPOLYLINE
  5
2B3
330
2A5
100
AcDbEntity
  8
0
  6
Continuous
 62
     0
370
    30
100
AcDbPolyline
 90
        9
 70
     0
 43
0.0
 10
177.226776
 20
481.840698
 10
177.226715
 20
481.795319
 10
177.230469
 20
481.712952
 10
177.237167
 20
481.592712
 10
177.245514
 20
481.439301
 10
177.254089
 20
481.257507
 10
177.26152
 20
481.053436
 10
177.266571
 20
480.833801
 10
177.268448
 20
480.598389
  0
LWPOLYLINE
  5
2B4
330
2A5
100
AcDbEntity
  8
0
  6
Continuous
 62
     0
370
    30
100
AcDbPolyline
 90
        9
 70
     0
 43
0.0
 10
177.268448
 20
480.598389
 10
177.266708
 20
480.371185
 10
177.261734
 20
480.150909
 10
177.254379
 20
479.945953
 10
177.245804
 20
479.763184
 10
177.237411
 20
479.608612
 10
177.230652
 20
479.486816
 10
177.226776
 20
479.403961
 10
177.226776
 20
479.35611
  0
LWPOLYLINE
  5
2B5
330
2A5
100
AcDbEntity
  8
0
  6
Continuous
 62
     0
370
    30
100
AcDbPolyline
 90
        9
 70
     0
 43
0.0
 10
177.226776
 20
487.140686
 10
177.226715
 20
487.095306
 10
177.230469
 20
487.012939
 10
177.237167
 20
486.8927
 10
177.245514
 20
486.739288
 10
177.254089
 20
486.557526
 10
177.26152
 20
486.353455
 10
177.266571
 20
486.133789
 10
177.268448
 20
485.898376
  0
LWPOLYLINE
  5
2B6
330
2A5
100
AcDbEntity
  8
0
  6
Continuous
 62
     0
370
    30
100
AcDbPolyline
 90
        9
 70
     0
 43
0.0
 10
177.268448
 20
485.898376
 10
177.266708
 20
485.671204
 10
177.261734
 20
485.450897
 10
177.254379
 20
485.245941
 10
177.245804
 20
485.063202
 10
177.237411
 20
484.9086
 10
177.230652
 20
484.786835
 10
177.226776
 20
484.703949
 10
177.226776
 20
484.656128
  0
LWPOLYLINE
  5
2B7
330
2A5
100
AcDbEntity
  8
0
  6
Continuous
 62
     0
370
    30
100
AcDbPolyline
 90
        9
 70
     0
 43
0.0
 10
177.226776
 20
492.440704
 10
177.226715
 20
492.395294
 10
177.230469
 20
492.312958
 10
177.237167
 20
492.192719
 10
177.245514
 20
492.039307
 10
177.254089
 20
491.857513
 10
177.26152
 20
491.653442
 10
177.266571
 20
491.433807
 10
177.268448
 20
491.198395
  0
LWPOLYLINE
  5
2B8
330
2A5
100
AcDbEntity
  8
0
  6
Continuous
 62
     0
370
    30
100
AcDbPolyline
 90
        9
 70
     0
 43
0.0
 10
177.268448
 20
491.198395
 10
177.266708
 20
490.971191
 10
177.261734
 20
490.750916
 10
177.254379
 20
490.545959
 10
177.245804
 20
490.36319
 10
177.237411
 20
490.208618
 10
177.230652
 20
490.086823
 10
177.226776
 20
490.003967
 10
177.226776
 20
489.956116
  0
LWPOLYLINE
  5
2B9
330
2A5
100
AcDbEntity
  8
0
  6
Continuous
 62
     0
370
    30
100
AcDbPolyline
 90
        9
 70
     0
 43
0.0
 10
177.226776
 20
497.740692
 10
177.226715
 20
497.695312
 10
177.230469
 20
497.612946
 10
177.237167
 20
497.492706
 10
177.245514
 20
497.339294
 10
177.254089
 20
497.157501
 10
177.26152
 20
496.95343
 10
177.266571
 20
496.733795
 10
177.268448
 20
496.498383
  0
LWPOLYLINE
  5
2BA
330
2A5
100
AcDbEntity
  8
0
  6
Continuous
 62
     0
370
    30
100
AcDbPolyline
 90
        9
 70
     0
 43
0.0
 10
177.268448
 20
496.498383
 10
177.266708
 20
496.27121
 10
177.261734
 20
496.050903
 10
177.254379
 20
495.845947
 10
177.245804
 20
495.663177
 10
177.237411
 20
495.508606
 10
177.230652
 20
495.38681
 10
177.226776
 20
495.303955
 10
177.226776
 20
495.256104
  0
LWPOLYLINE
  5
2BB
330
2A5
100
AcDbEntity
  8
0
  6
Continuous
 62
     0
370
    30
100
AcDbPolyline
 90
        9
 70
     0
 43
0.0
 10
177.226776
 20
503.04071
 10
177.226715
 20
502.9953
 10
177.230469
 20
502.912933
 10
177.237167
 20
502.792694
 10
177.245514
 20
502.639282
 10
177.254089
 20
502.45752
 10
177.26152
 20
502.253448
 10
177.266571
 20
502.033783
 10
177.268448
 20
501.798401
  0
LWPOLYLINE
  5
2BC
330
2A5
100
AcDbEntity
  8
0
  6
Continuous
 62
     0
370
    30
100
AcDbPolyline
 90
        9
 70
     0
 43
0.0
 10
177.268448
 20
501.798401
 10
177.266708
 20
501.571198
 10
177.261734
 20
501.350922
 10
177.254379
 20
501.145935
 10
177.245804
 20
500.963196
 10
177.237411
 20
500.808624
 10
177.230652
 20
500.686829
 10
177.226776
 20
500.603943
 10
177.226776
 20
500.556122
  0
LWPOLYLINE
  5
2BD
330
2A5
100
AcDbEntity
  8
0
  6
Continuous
 62
     0
370
    30
100
AcDbPolyline
 90
        9
 70
     0
 43
0.0
 10
177.226776
 20
508.340698
 10
177.226715
 20
508.295319
 10
177.230469
 20
508.212952
 10
177.237167
 20
508.092712
 10
177.245514
 20
507.939301
 10
177.254089
 20
507.757507
 10
177.26152
 20
507.553436
 10
177.266571
 20
507.333801
 10
177.268448
 20
507.098389
  0
LWPOLYLINE
  5
2BE
330
2A5
100
AcDbEntity
  8
0
  6
Continuous
 62
     0
370
    30
100
AcDbPolyline
 90
        9
 70
     0
 43
0.0
 10
177.268448
 20
507.098389
 10
177.266708
 20
506.871185
 10
177.261734
 20
506.650909
 10
177.254379
 20
506.445953
 10
177.245804
 20
506.263184
 10
177.237411
 20
506.108612
 10
177.230652
 20
505.986816
 10
177.226776
 20
505.903961
 10
177.226776
 20
505.85611
  0
LWPOLYLINE
  5
2BF
330
2A5
100
AcDbEntity
  8
0
  6
Continuous
 62
     0
370
    30
100
AcDbPolyline
 90
        9
 70
     0
 43
0.0
 10
177.226776
 20
513.640686
 10
177.226715
 20
513.595276
 10
177.230469
 20
513.512939
 10
177.237167
 20
513.3927
 10
177.245514
 20
513.239319
 10
177.254089
 20
513.057495
 10
177.26152
 20
512.853455
 10
177.266571
 20
512.633789
 10
177.268448
 20
512.398376
  0
LWPOLYLINE
  5
2C0
330
2A5
100
AcDbEntity
  8
0
  6
Continuous
 62
     0
370
    30
100
AcDbPolyline
 90
        9
 70
     0
 43
0.0
 10
177.268448
 20
512.398376
 10
177.266708
 20
512.171204
 10
177.261734
 20
511.950897
 10
177.254379
 20
511.745941
 10
177.245804
 20
511.563202
 10
177.237411
 20
511.4086
 10
177.230652
 20
511.286835
 10
177.226776
 20
511.203949
 10
177.226776
 20
511.156128
  0
LWPOLYLINE
  5
2C1
330
2A5
100
AcDbEntity
  8
0
  6
Continuous
 62
     0
370
    30
100
AcDbPolyline
 90
       18
 70
     0
 43
0.0
 10
178.167908
 20
459.398407
 10
178.176193
 20
459.627563
 10
178.201096
 20
459.849579
 10
178.242294
 20
460.055725
 10
178.29895
 20
460.239258
 10
178.370163
 20
460.394165
 10
178.454803
 20
460.514862
 10
178.550781
 20
460.597534
 10
178.655411
 20
460.641479
 10
178.76593
 20
460.642487
 10
178.87851
 20
460.602661
 10
178.988586
 20
460.520477
 10
179.092621
 20
460.402344
 10
179.185532
 20
460.249512
 10
179.263275
 20
460.067444
 10
179.322357
 20
459.862335
 10
179.359695
 20
459.641022
 10
179.373383
 20
459.398376
  0
LWPOLYLINE
  5
2C2
330
2A5
100
AcDbEntity
  8
0
  6
Continuous
 62
     0
370
    30
100
AcDbPolyline
 90
       18
 70
     0
 43
0.0
 10
179.373383
 20
459.398376
 10
179.361191
 20
459.169281
 10
179.325195
 20
458.947296
 10
179.267365
 20
458.740997
 10
179.190628
 20
458.557465
 10
179.098526
 20
458.40274
 10
178.995148
 20
458.282074
 10
178.885056
 20
458.199219
 10
178.772736
 20
458.155396
 10
178.662003
 20
458.154297
 10
178.556732
 20
458.194092
 10
178.460464
 20
458.276306
 10
178.374954
 20
458.394226
 10
178.302811
 20
458.546997
 10
178.245285
 20
458.729004
 10
178.203186
 20
458.934021
 10
178.177292
 20
459.155243
 10
178.167908
 20
459.398407
  0
LWPOLYLINE
  5
2C3
330
2A5
100
AcDbEntity
  8
0
  6
Continuous
 62
     0
370
    30
100
AcDbPolyline
 90
       18
 70
     0
 43
0.0
 10
178.167908
 20
464.698425
 10
178.176193
 20
464.927582
 10
178.201096
 20
465.149567
 10
178.242294
 20
465.355743
 10
178.29895
 20
465.539276
 10
178.370163
 20
465.694153
 10
178.454803
 20
465.81485
 10
178.550781
 20
465.897552
 10
178.655411
 20
465.941467
 10
178.76593
 20
465.942474
 10
178.87851
 20
465.902649
 10
178.988586
 20
465.820496
 10
179.092621
 20
465.702362
 10
179.185532
 20
465.54953
 10
179.263275
 20
465.367462
 10
179.322357
 20
465.162323
 10
179.359695
 20
464.94104
 10
179.373383
 20
464.698395
  0
LWPOLYLINE
  5
2C4
330
2A5
100
AcDbEntity
  8
0
  6
Continuous
 62
     0
370
    30
100
AcDbPolyline
 90
       18
 70
     0
 43
0.0
 10
179.373383
 20
464.698395
 10
179.361191
 20
464.469299
 10
179.325195
 20
464.247284
 10
179.267365
 20
464.040985
 10
179.190628
 20
463.857452
 10
179.098526
 20
463.702759
 10
178.995148
 20
463.582062
 10
178.885056
 20
463.499207
 10
178.772736
 20
463.455414
 10
178.662003
 20
463.454315
 10
178.556732
 20
463.49411
 10
178.460464
 20
463.576294
 10
178.374954
 20
463.694244
 10
178.302811
 20
463.847015
 10
178.245285
 20
464.028992
 10
178.203186
 20
464.234009
 10
178.177292
 20
464.455231
 10
178.167908
 20
464.698425
  0
LWPOLYLINE
  5
2C5
330
2A5
100
AcDbEntity
  8
0
  6
Continuous
 62
     0
370
    30
100
AcDbPolyline
 90
       18
 70
     0
 43
0.0
 10
178.167908
 20
469.998413
 10
178.176193
 20
470.22757
 10
178.201096
 20
470.449554
 10
178.242294
 20
470.655731
 10
178.29895
 20
470.839264
 10
178.370163
 20
470.994171
 10
178.454803
 20
471.114868
 10
178.550781
 20
471.19754
 10
178.655411
 20
471.241486
 10
178.76593
 20
471.242462
 10
178.87851
 20
471.202667
 10
178.988586
 20
471.120483
 10
179.092621
 20
471.00235
 10
179.185532
 20
470.849518
 10
179.263275
 20
470.66745
 10
179.322357
 20
470.462341
 10
179.359695
 20
470.241028
 10
179.373383
 20
469.998383
  0
LWPOLYLINE
  5
2C6
330
2A5
100
AcDbEntity
  8
0
  6
Continuous
 62
     0
370
    30
100
AcDbPolyline
 90
       18
 70
     0
 43
0.0
 10
179.373383
 20
469.998383
 10
179.361191
 20
469.769287
 10
179.325195
 20
469.547302
 10
179.267365
 20
469.341003
 10
179.190628
 20
469.157471
 10
179.098526
 20
469.002747
 10
178.995148
 20
468.88208
 10
178.885056
 20
468.799225
 10
178.772736
 20
468.755402
 10
178.662003
 20
468.754303
 10
178.556732
 20
468.794098
 10
178.460464
 20
468.876312
 10
178.374954
 20
468.994232
 10
178.302811
 20
469.147003
 10
178.245285
 20
469.32901
 10
178.203186
 20
469.533997
 10
178.177292
 20
469.755249
 10
178.167908
 20
469.998413
  0
LWPOLYLINE
  5
2C7
330
2A5
100
AcDbEntity
  8
0
  6
Continuous
 62
     0
370
    30
100
AcDbPolyline
 90
       18
 70
     0
 43
0.0
 10
178.167908
 20
475.298401
 10
178.176193
 20
475.527557
 10
178.201096
 20
475.749573
 10
178.242294
 20
475.955719
 10
178.29895
 20
476.139282
 10
178.370163
 20
476.294159
 10
178.454803
 20
476.414856
 10
178.550781
 20
476.497559
 10
178.655411
 20
476.541473
 10
178.76593
 20
476.54248
 10
178.87851
 20
476.502655
 10
178.988586
 20
476.420471
 10
179.092621
 20
476.302338
 10
179.185532
 20
476.149506
 10
179.263275
 20
475.967438
 10
179.322357
 20
475.762329
 10
179.359695
 20
475.541016
 10
179.373383
 20
475.298401
  0
LWPOLYLINE
  5
2C8
330
2A5
100
AcDbEntity
  8
0
  6
Continuous
 62
     0
370
    30
100
AcDbPolyline
 90
       18
 70
     0
 43
0.0
 10
179.373383
 20
475.298401
 10
179.361191
 20
475.069275
 10
179.325195
 20
474.84729
 10
179.267365
 20
474.640991
 10
179.190628
 20
474.457458
 10
179.098526
 20
474.302765
 10
178.995148
 20
474.182068
 10
178.885056
 20
474.099213
 10
178.772736
 20
474.05542
 10
178.662003
 20
474.054321
 10
178.556732
 20
474.094086
 10
178.460464
 20
474.1763
 10
178.374954
 20
474.29422
 10
178.302811
 20
474.446991
 10
178.245285
 20
474.628998
 10
178.203186
 20
474.834015
 10
178.177292
 20
475.055237
 10
178.167908
 20
475.298401
  0
LWPOLYLINE
  5
2C9
330
2A5
100
AcDbEntity
  8
0
  6
Continuous
 62
     0
370
    30
100
AcDbPolyline
 90
       18
 70
     0
 43
0.0
 10
178.167908
 20
480.598419
 10
178.176193
 20
480.827576
 10
178.201096
 20
481.049561
 10
178.242294
 20
481.255737
 10
178.29895
 20
481.43927
 10
178.370163
 20
481.594177
 10
178.454803
 20
481.714844
 10
178.550781
 20
481.797546
 10
178.655411
 20
481.841492
 10
178.76593
 20
481.842468
 10
178.87851
 20
481.802673
 10
178.988586
 20
481.72049
 10
179.092621
 20
481.602356
 10
179.185532
 20
481.449524
 10
179.263275
 20
481.267456
 10
179.322357
 20
481.062317
 10
179.359695
 20
480.841034
 10
179.373383
 20
480.598389
  0
LWPOLYLINE
  5
2CA
330
2A5
100
AcDbEntity
  8
0
  6
Continuous
 62
     0
370
    30
100
AcDbPolyline
 90
       18
 70
     0
 43
0.0
 10
179.373383
 20
480.598389
 10
179.361191
 20
480.369293
 10
179.325195
 20
480.147278
 10
179.267365
 20
479.94101
 10
179.190628
 20
479.757477
 10
179.098526
 20
479.602753
 10
178.995148
 20
479.482056
 10
178.885056
 20
479.399231
 10
178.772736
 20
479.355408
 10
178.662003
 20
479.354309
 10
178.556732
 20
479.394104
 10
178.460464
 20
479.476288
 10
178.374954
 20
479.594238
 10
178.302811
 20
479.747009
 10
178.245285
 20
479.928986
 10
178.203186
 20
480.134003
 10
178.177292
 20
480.355225
 10
178.167908
 20
480.598419
  0
LWPOLYLINE
  5
2CB
330
2A5
100
AcDbEntity
  8
0
  6
Continuous
 62
     0
370
    30
100
AcDbPolyline
 90
       18
 70
     0
 43
0.0
 10
178.167908
 20
485.898407
 10
178.176193
 20
486.127563
 10
178.201096
 20
486.349579
 10
178.242294
 20
486.555725
 10
178.29895
 20
486.739258
 10
178.370163
 20
486.894165
 10
178.454803
 20
487.014862
 10
178.550781
 20
487.097534
 10
178.655411
 20
487.141479
 10
178.76593
 20
487.142487
 10
178.87851
 20
487.102661
 10
178.988586
 20
487.020477
 10
179.092621
 20
486.902344
 10
179.185532
 20
486.749512
 10
179.263275
 20
486.567444
 10
179.322357
 20
486.362335
 10
179.359695
 20
486.141022
 10
179.373383
 20
485.898376
  0
LWPOLYLINE
  5
2CC
330
2A5
100
AcDbEntity
  8
0
  6
Continuous
 62
     0
370
    30
100
AcDbPolyline
 90
       18
 70
     0
 43
0.0
 10
179.373383
 20
485.898376
 10
179.361191
 20
485.669281
 10
179.325195
 20
485.447296
 10
179.267365
 20
485.240997
 10
179.190628
 20
485.057465
 10
179.098526
 20
484.90274
 10
178.995148
 20
484.782074
 10
178.885056
 20
484.699219
 10
178.772736
 20
484.655396
 10
178.662003
 20
484.654297
 10
178.556732
 20
484.694092
 10
178.460464
 20
484.776306
 10
178.374954
 20
484.894226
 10
178.302811
 20
485.046997
 10
178.245285
 20
485.229004
 10
178.203186
 20
485.434021
 10
178.177292
 20
485.655243
 10
178.167908
 20
485.898407
  0
LWPOLYLINE
  5
2CD
330
2A5
100
AcDbEntity
  8
0
  6
Continuous
 62
     0
370
    30
100
AcDbPolyline
 90
       18
 70
     0
 43
0.0
 10
178.167908
 20
491.198425
 10
178.176193
 20
491.427582
 10
178.201096
 20
491.649567
 10
178.242294
 20
491.855743
 10
178.29895
 20
492.039276
 10
178.370163
 20
492.194153
 10
178.454803
 20
492.31485
 10
178.550781
 20
492.397552
 10
178.655411
 20
492.441467
 10
178.76593
 20
492.442474
 10
178.87851
 20
492.402649
 10
178.988586
 20
492.320496
 10
179.092621
 20
492.202362
 10
179.185532
 20
492.04953
 10
179.263275
 20
491.867462
 10
179.322357
 20
491.662323
 10
179.359695
 20
491.44104
 10
179.373383
 20
491.198395
  0
LWPOLYLINE
  5
2CE
330
2A5
100
AcDbEntity
  8
0
  6
Continuous
 62
     0
370
    30
100
AcDbPolyline
 90
       18
 70
     0
 43
0.0
 10
179.373383
 20
491.198395
 10
179.361191
 20
490.969299
 10
179.325195
 20
490.747284
 10
179.267365
 20
490.540985
 10
179.190628
 20
490.357452
 10
179.098526
 20
490.202759
 10
178.995148
 20
490.082062
 10
178.885056
 20
489.999207
 10
178.772736
 20
489.955414
 10
178.662003
 20
489.954315
 10
178.556732
 20
489.99411
 10
178.460464
 20
490.076294
 10
178.374954
 20
490.194244
 10
178.302811
 20
490.347015
 10
178.245285
 20
490.528992
 10
178.203186
 20
490.734009
 10
178.177292
 20
490.955231
 10
178.167908
 20
491.198425
  0
LWPOLYLINE
  5
2CF
330
2A5
100
AcDbEntity
  8
0
  6
Continuous
 62
     0
370
    30
100
AcDbPolyline
 90
       18
 70
     0
 43
0.0
 10
178.167908
 20
496.498413
 10
178.176193
 20
496.72757
 10
178.201096
 20
496.949554
 10
178.242294
 20
497.155731
 10
178.29895
 20
497.339264
 10
178.370163
 20
497.494171
 10
178.454803
 20
497.614868
 10
178.550781
 20
497.69754
 10
178.655411
 20
497.741486
 10
178.76593
 20
497.742462
 10
178.87851
 20
497.702667
 10
178.988586
 20
497.620483
 10
179.092621
 20
497.50235
 10
179.185532
 20
497.349518
 10
179.263275
 20
497.16745
 10
179.322357
 20
496.962341
 10
179.359695
 20
496.741028
 10
179.373383
 20
496.498383
  0
LWPOLYLINE
  5
2D0
330
2A5
100
AcDbEntity
  8
0
  6
Continuous
 62
     0
370
    30
100
AcDbPolyline
 90
       18
 70
     0
 43
0.0
 10
179.373383
 20
496.498383
 10
179.361191
 20
496.269287
 10
179.325195
 20
496.047302
 10
179.267365
 20
495.841003
 10
179.190628
 20
495.657471
 10
179.098526
 20
495.502747
 10
178.995148
 20
495.38208
 10
178.885056
 20
495.299225
 10
178.772736
 20
495.255402
 10
178.662003
 20
495.254303
 10
178.556732
 20
495.294098
 10
178.460464
 20
495.376312
 10
178.374954
 20
495.494232
 10
178.302811
 20
495.647003
 10
178.245285
 20
495.82901
 10
178.203186
 20
496.033997
 10
178.177292
 20
496.255249
 10
178.167908
 20
496.498413
  0
LWPOLYLINE
  5
2D1
330
2A5
100
AcDbEntity
  8
0
  6
Continuous
 62
     0
370
    30
100
AcDbPolyline
 90
       18
 70
     0
 43
0.0
 10
178.167908
 20
501.798401
 10
178.176193
 20
502.027557
 10
178.201096
 20
502.249573
 10
178.242294
 20
502.455719
 10
178.29895
 20
502.639282
 10
178.370163
 20
502.794159
 10
178.454803
 20
502.914856
 10
178.550781
 20
502.997559
 10
178.655411
 20
503.041473
 10
178.76593
 20
503.04248
 10
178.87851
 20
503.002655
 10
178.988586
 20
502.920471
 10
179.092621
 20
502.802338
 10
179.185532
 20
502.649506
 10
179.263275
 20
502.467438
 10
179.322357
 20
502.262329
 10
179.359695
 20
502.041016
 10
179.373383
 20
501.798401
  0
LWPOLYLINE
  5
2D2
330
2A5
100
AcDbEntity
  8
0
  6
Continuous
 62
     0
370
    30
100
AcDbPolyline
 90
       18
 70
     0
 43
0.0
 10
179.373383
 20
501.798401
 10
179.361191
 20
501.569275
 10
179.325195
 20
501.34729
 10
179.267365
 20
501.140991
 10
179.190628
 20
500.957458
 10
179.098526
 20
500.802765
 10
178.995148
 20
500.682068
 10
178.885056
 20
500.599213
 10
178.772736
 20
500.55542
 10
178.662003
 20
500.554321
 10
178.556732
 20
500.594086
 10
178.460464
 20
500.6763
 10
178.374954
 20
500.79422
 10
178.302811
 20
500.946991
 10
178.245285
 20
501.128998
 10
178.203186
 20
501.334015
 10
178.177292
 20
501.555237
 10
178.167908
 20
501.798401
  0
LWPOLYLINE
  5
2D3
330
2A5
100
AcDbEntity
  8
0
  6
Continuous
 62
     0
370
    30
100
AcDbPolyline
 90
       18
 70
     0
 43
0.0
 10
178.167908
 20
507.098419
 10
178.176193
 20
507.327576
 10
178.201096
 20
507.549561
 10
178.242294
 20
507.755737
 10
178.29895
 20
507.93927
 10
178.370163
 20
508.094177
 10
178.454803
 20
508.214844
 10
178.550781
 20
508.297546
 10
178.655411
 20
508.341492
 10
178.76593
 20
508.342468
 10
178.87851
 20
508.302673
 10
178.988586
 20
508.22049
 10
179.092621
 20
508.102356
 10
179.185532
 20
507.949524
 10
179.263275
 20
507.767456
 10
179.322357
 20
507.562317
 10
179.359695
 20
507.341034
 10
179.373383
 20
507.098389
  0
LWPOLYLINE
  5
2D4
330
2A5
100
AcDbEntity
  8
0
  6
Continuous
 62
     0
370
    30
100
AcDbPolyline
 90
       18
 70
     0
 43
0.0
 10
179.373383
 20
507.098389
 10
179.361191
 20
506.869293
 10
179.325195
 20
506.647278
 10
179.267365
 20
506.44101
 10
179.190628
 20
506.257477
 10
179.098526
 20
506.102753
 10
178.995148
 20
505.982056
 10
178.885056
 20
505.899231
 10
178.772736
 20
505.855408
 10
178.662003
 20
505.854309
 10
178.556732
 20
505.894104
 10
178.460464
 20
505.976288
 10
178.374954
 20
506.094238
 10
178.302811
 20
506.247009
 10
178.245285
 20
506.428986
 10
178.203186
 20
506.634003
 10
178.177292
 20
506.855225
 10
178.167908
 20
507.098419
  0
LWPOLYLINE
  5
2D5
330
2A5
100
AcDbEntity
  8
0
  6
Continuous
 62
     0
370
    30
100
AcDbPolyline
 90
       18
 70
     0
 43
0.0
 10
178.167908
 20
512.398438
 10
178.176193
 20
512.627563
 10
178.201096
 20
512.849548
 10
178.242294
 20
513.055725
 10
178.29895
 20
513.239258
 10
178.370163
 20
513.394165
 10
178.454803
 20
513.514832
 10
178.550781
 20
513.597534
 10
178.655411
 20
513.641479
 10
178.76593
 20
513.642456
 10
178.87851
 20
513.602661
 10
178.988586
 20
513.520508
 10
179.092621
 20
513.402344
 10
179.185532
 20
513.249512
 10
179.263275
 20
513.067444
 10
179.322357
 20
512.862305
 10
179.359695
 20
512.641052
 10
179.373383
 20
512.398376
  0
LWPOLYLINE
  5
2D6
330
2A5
100
AcDbEntity
  8
0
  6
Continuous
 62
     0
370
    30
100
AcDbPolyline
 90
       18
 70
     0
 43
0.0
 10
179.373383
 20
512.398376
 10
179.361191
 20
512.169312
 10
179.325195
 20
511.947296
 10
179.267365
 20
511.740997
 10
179.190628
 20
511.557465
 10
179.098526
 20
511.40274
 10
178.995148
 20
511.282074
 10
178.885056
 20
511.199219
 10
178.772736
 20
511.155396
 10
178.662003
 20
511.154297
 10
178.556732
 20
511.194092
 10
178.460464
 20
511.276306
 10
178.374954
 20
511.394226
 10
178.302811
 20
511.546997
 10
178.245285
 20
511.729004
 10
178.203186
 20
511.934021
 10
178.177292
 20
512.155212
 10
178.167908
 20
512.398438
  0
LWPOLYLINE
  5
2D7
330
2A5
100
AcDbEntity
  8
0
  6
Continuous
 62
     0
370
    30
100
AcDbPolyline
 90
       18
 70
     0
 43
0.0
 10
177.338669
 20
461.898407
 10
177.341599
 20
462.127472
 10
177.35054
 20
462.349396
 10
177.365768
 20
462.555603
 10
177.38765
 20
462.739197
 10
177.41658
 20
462.89389
 10
177.452774
 20
463.014526
 10
177.495972
 20
463.097382
 10
177.545456
 20
463.141418
 10
177.600128
 20
463.142548
 10
177.658142
 20
463.102997
 10
177.716904
 20
463.020874
 10
177.774155
 20
462.902985
 10
177.826584
 20
462.750305
 10
177.871368
 20
462.568512
 10
177.905899
 20
462.363556
 10
177.928009
 20
462.142395
 10
177.936218
 20
461.898438
  0
LWPOLYLINE
  5
2D8
330
2A5
100
AcDbEntity
  8
0
  6
Continuous
 62
     0
370
    30
100
AcDbPolyline
 90
       18
 70
     0
 43
0.0
 10
177.936218
 20
461.898438
 10
177.928986
 20
461.669342
 10
177.907776
 20
461.447357
 10
177.873962
 20
461.241119
 10
177.829773
 20
461.057526
 10
177.77774
 20
460.902832
 10
177.720764
 20
460.782135
 10
177.66185
 20
460.699249
 10
177.603821
 20
460.655426
 10
177.548859
 20
460.654266
 10
177.498901
 20
460.694122
 10
177.455383
 20
460.776093
 10
177.418686
 20
460.894104
 10
177.389313
 20
461.047028
 10
177.366989
 20
461.228912
 10
177.351303
 20
461.433807
 10
177.34198
 20
461.654999
 10
177.338669
 20
461.898407
  0
LWPOLYLINE
  5
2D9
330
2A5
100
AcDbEntity
  8
0
  6
Continuous
 62
     0
370
    30
100
AcDbPolyline
 90
       18
 70
     0
 43
0.0
 10
177.338669
 20
467.214722
 10
177.341599
 20
467.443787
 10
177.35054
 20
467.66571
 10
177.365768
 20
467.871918
 10
177.38765
 20
468.055511
 10
177.41658
 20
468.210205
 10
177.452774
 20
468.330841
 10
177.495972
 20
468.413696
 10
177.545456
 20
468.457733
 10
177.600128
 20
468.458832
 10
177.658142
 20
468.419281
 10
177.716904
 20
468.337189
 10
177.774155
 20
468.219299
 10
177.826584
 20
468.06662
 10
177.871368
 20
467.884827
 10
177.905899
 20
467.679871
 10
177.928009
 20
467.45871
 10
177.936218
 20
467.214752
  0
LWPOLYLINE
  5
2DA
330
2A5
100
AcDbEntity
  8
0
  6
Continuous
 62
     0
370
    30
100
AcDbPolyline
 90
       18
 70
     0
 43
0.0
 10
177.936218
 20
467.214752
 10
177.928986
 20
466.985657
 10
177.907776
 20
466.763672
 10
177.873962
 20
466.557434
 10
177.829773
 20
466.37384
 10
177.77774
 20
466.219116
 10
177.720764
 20
466.098419
 10
177.66185
 20
466.015564
 10
177.603821
 20
465.971741
 10
177.548859
 20
465.970581
 10
177.498901
 20
466.010406
 10
177.455383
 20
466.092407
 10
177.418686
 20
466.210388
 10
177.389313
 20
466.363342
 10
177.366989
 20
466.545197
 10
177.351303
 20
466.750122
 10
177.34198
 20
466.971283
 10
177.338669
 20
467.214722
  0
LWPOLYLINE
  5
2DB
330
2A5
100
AcDbEntity
  8
0
  6
Continuous
 62
     0
370
    30
100
AcDbPolyline
 90
       18
 70
     0
 43
0.0
 10
177.338669
 20
472.531036
 10
177.341599
 20
472.760101
 10
177.35054
 20
472.982025
 10
177.365768
 20
473.188202
 10
177.38765
 20
473.371796
 10
177.41658
 20
473.52652
 10
177.452774
 20
473.647125
 10
177.495972
 20
473.730011
 10
177.545456
 20
473.774017
 10
177.600128
 20
473.775146
 10
177.658142
 20
473.735596
 10
177.716904
 20
473.653503
 10
177.774155
 20
473.535583
 10
177.826584
 20
473.382935
 10
177.871368
 20
473.201141
 10
177.905899
 20
472.996155
 10
177.928009
 20
472.774994
 10
177.936218
 20
472.531036
  0
LWPOLYLINE
  5
2DC
330
2A5
100
AcDbEntity
  8
0
  6
Continuous
 62
     0
370
    30
100
AcDbPolyline
 90
       18
 70
     0
 43
0.0
 10
177.936218
 20
472.531036
 10
177.928986
 20
472.301971
 10
177.907776
 20
472.079987
 10
177.873962
 20
471.873749
 10
177.829773
 20
471.690125
 10
177.77774
 20
471.535431
 10
177.720764
 20
471.414734
 10
177.66185
 20
471.331848
 10
177.603821
 20
471.288025
 10
177.548859
 20
471.286896
 10
177.498901
 20
471.326721
 10
177.455383
 20
471.408722
 10
177.418686
 20
471.526703
 10
177.389313
 20
471.679626
 10
177.366989
 20
471.861511
 10
177.351303
 20
472.066406
 10
177.34198
 20
472.287598
 10
177.338669
 20
472.531036
  0
LWPOLYLINE
  5
2DD
330
2A5
100
AcDbEntity
  8
0
  6
Continuous
 62
     0
370
    30
100
AcDbPolyline
 90
       18
 70
     0
 43
0.0
 10
177.338669
 20
477.847321
 10
177.341599
 20
478.076385
 10
177.35054
 20
478.29834
 10
177.365768
 20
478.504517
 10
177.38765
 20
478.68811
 10
177.41658
 20
478.842834
 10
177.452774
 20
478.96344
 10
177.495972
 20
479.046326
 10
177.545456
 20
479.090332
 10
177.600128
 20
479.091461
 10
177.658142
 20
479.05191
 10
177.716904
 20
478.969818
 10
177.774155
 20
478.851898
 10
177.826584
 20
478.699249
 10
177.871368
 20
478.517456
 10
177.905899
 20
478.312469
 10
177.928009
 20
478.091309
 10
177.936218
 20
477.847351
  0
LWPOLYLINE
  5
2DE
330
2A5
100
AcDbEntity
  8
0
  6
Continuous
 62
     0
370
    30
100
AcDbPolyline
 90
       18
 70
     0
 43
0.0
 10
177.936218
 20
477.847351
 10
177.928986
 20
477.618256
 10
177.907776
 20
477.396301
 10
177.873962
 20
477.190033
 10
177.829773
 20
477.006439
 10
177.77774
 20
476.851746
 10
177.720764
 20
476.731049
 10
177.66185
 20
476.648163
 10
177.603821
 20
476.60434
 10
177.548859
 20
476.60321
 10
177.498901
 20
476.643036
 10
177.455383
 20
476.725037
 10
177.418686
 20
476.843018
 10
177.389313
 20
476.995941
 10
177.366989
 20
477.177826
 10
177.351303
 20
477.382721
 10
177.34198
 20
477.603912
 10
177.338669
 20
477.847321
  0
LWPOLYLINE
  5
2DF
330
2A5
100
AcDbEntity
  8
0
  6
Continuous
 62
     0
370
    30
100
AcDbPolyline
 90
       18
 70
     0
 43
0.0
 10
177.338669
 20
483.163635
 10
177.341599
 20
483.3927
 10
177.35054
 20
483.614624
 10
177.365768
 20
483.820831
 10
177.38765
 20
484.004425
 10
177.41658
 20
484.159119
 10
177.452774
 20
484.279755
 10
177.495972
 20
484.36261
 10
177.545456
 20
484.406647
 10
177.600128
 20
484.407776
 10
177.658142
 20
484.368195
 10
177.716904
 20
484.286102
 10
177.774155
 20
484.168213
 10
177.826584
 20
484.015533
 10
177.871368
 20
483.83374
 10
177.905899
 20
483.628784
 10
177.928009
 20
483.407623
 10
177.936218
 20
483.163666
  0
LWPOLYLINE
  5
2E0
330
2A5
100
AcDbEntity
  8
0
  6
Continuous
 62
     0
370
    30
100
AcDbPolyline
 90
       18
 70
     0
 43
0.0
 10
177.936218
 20
483.163666
 10
177.928986
 20
482.93457
 10
177.907776
 20
482.712585
 10
177.873962
 20
482.506348
 10
177.829773
 20
482.322754
 10
177.77774
 20
482.16806
 10
177.720764
 20
482.047363
 10
177.66185
 20
481.964478
 10
177.603821
 20
481.920654
 10
177.548859
 20
481.919495
 10
177.498901
 20
481.959351
 10
177.455383
 20
482.041321
 10
177.418686
 20
482.159332
 10
177.389313
 20
482.312256
 10
177.366989
 20
482.494141
 10
177.351303
 20
482.699036
 10
177.34198
 20
482.920227
 10
177.338669
 20
483.163635
  0
LWPOLYLINE
  5
2E1
330
2A5
100
AcDbEntity
  8
0
  6
Continuous
 62
     0
370
    30
100
AcDbPolyline
 90
       18
 70
     0
 43
0.0
 10
177.338669
 20
488.47995
 10
177.341599
 20
488.709015
 10
177.35054
 20
488.930939
 10
177.365768
 20
489.137146
 10
177.38765
 20
489.32074
 10
177.41658
 20
489.475433
 10
177.452774
 20
489.596069
 10
177.495972
 20
489.678925
 10
177.545456
 20
489.722961
 10
177.600128
 20
489.72406
 10
177.658142
 20
489.684509
 10
177.716904
 20
489.602417
 10
177.774155
 20
489.484528
 10
177.826584
 20
489.331848
 10
177.871368
 20
489.150055
 10
177.905899
 20
488.945099
 10
177.928009
 20
488.723907
 10
177.936218
 20
488.47998
  0
LWPOLYLINE
  5
2E2
330
2A5
100
AcDbEntity
  8
0
  6
Continuous
 62
     0
370
    30
100
AcDbPolyline
 90
       18
 70
     0
 43
0.0
 10
177.936218
 20
488.47998
 10
177.928986
 20
488.250885
 10
177.907776
 20
488.0289
 10
177.873962
 20
487.822662
 10
177.829773
 20
487.639069
 10
177.77774
 20
487.484344
 10
177.720764
 20
487.363647
 10
177.66185
 20
487.280792
 10
177.603821
 20
487.236969
 10
177.548859
 20
487.235809
 10
177.498901
 20
487.275635
 10
177.455383
 20
487.357635
 10
177.418686
 20
487.475616
 10
177.389313
 20
487.628571
 10
177.366989
 20
487.810425
 10
177.351303
 20
488.01535
 10
177.34198
 20
488.236511
 10
177.338669
 20
488.47995
  0
LWPOLYLINE
  5
2E3
330
2A5
100
AcDbEntity
  8
0
  6
Continuous
 62
     0
370
    30
100
AcDbPolyline
 90
       18
 70
     0
 43
0.0
 10
177.338669
 20
493.796265
 10
177.341599
 20
494.02533
 10
177.35054
 20
494.247253
 10
177.365768
 20
494.45343
 10
177.38765
 20
494.637024
 10
177.41658
 20
494.791748
 10
177.452774
 20
494.912354
 10
177.495972
 20
494.995239
 10
177.545456
 20
495.039246
 10
177.600128
 20
495.040375
 10
177.658142
 20
495.000824
 10
177.716904
 20
494.918732
 10
177.774155
 20
494.800812
 10
177.826584
 20
494.648163
 10
177.871368
 20
494.46637
 10
177.905899
 20
494.261383
 10
177.928009
 20
494.040222
 10
177.936218
 20
493.796265
  0
LWPOLYLINE
  5
2E4
330
2A5
100
AcDbEntity
  8
0
  6
Continuous
 62
     0
370
    30
100
AcDbPolyline
 90
       18
 70
     0
 43
0.0
 10
177.936218
 20
493.796265
 10
177.928986
 20
493.5672
 10
177.907776
 20
493.345215
 10
177.873962
 20
493.138947
 10
177.829773
 20
492.955353
 10
177.77774
 20
492.800659
 10
177.720764
 20
492.679962
 10
177.66185
 20
492.597076
 10
177.603821
 20
492.553253
 10
177.548859
 20
492.552124
 10
177.498901
 20
492.591949
 10
177.455383
 20
492.67395
 10
177.418686
 20
492.791931
 10
177.389313
 20
492.944855
 10
177.366989
 20
493.12674
 10
177.351303
 20
493.331635
 10
177.34198
 20
493.552826
 10
177.338669
 20
493.796265
  0
LWPOLYLINE
  5
2E5
330
2A5
100
AcDbEntity
  8
0
  6
Continuous
 62
     0
370
    30
100
AcDbPolyline
 90
       18
 70
     0
 43
0.0
 10
177.338669
 20
499.112549
 10
177.341599
 20
499.341614
 10
177.35054
 20
499.563568
 10
177.365768
 20
499.769745
 10
177.38765
 20
499.953339
 10
177.41658
 20
500.108063
 10
177.452774
 20
500.228668
 10
177.495972
 20
500.311554
 10
177.545456
 20
500.35556
 10
177.600128
 20
500.356689
 10
177.658142
 20
500.317139
 10
177.716904
 20
500.235046
 10
177.774155
 20
500.117126
 10
177.826584
 20
499.964478
 10
177.871368
 20
499.782684
 10
177.905899
 20
499.577698
 10
177.928009
 20
499.356537
 10
177.936218
 20
499.112579
  0
LWPOLYLINE
  5
2E6
330
2A5
100
AcDbEntity
  8
0
  6
Continuous
 62
     0
370
    30
100
AcDbPolyline
 90
       18
 70
     0
 43
0.0
 10
177.936218
 20
499.112579
 10
177.928986
 20
498.883484
 10
177.907776
 20
498.66153
 10
177.873962
 20
498.455261
 10
177.829773
 20
498.271667
 10
177.77774
 20
498.116974
 10
177.720764
 20
497.996277
 10
177.66185
 20
497.913391
 10
177.603821
 20
497.869568
 10
177.548859
 20
497.868439
 10
177.498901
 20
497.908264
 10
177.455383
 20
497.990265
 10
177.418686
 20
498.108246
 10
177.389313
 20
498.261169
 10
177.366989
 20
498.443054
 10
177.351303
 20
498.647949
 10
177.34198
 20
498.869141
 10
177.338669
 20
499.112549
  0
LWPOLYLINE
  5
2E7
330
2A5
100
AcDbEntity
  8
0
  6
Continuous
 62
     0
370
    30
100
AcDbPolyline
 90
       18
 70
     0
 43
0.0
 10
177.338669
 20
504.428864
 10
177.341599
 20
504.657928
 10
177.35054
 20
504.879852
 10
177.365768
 20
505.08606
 10
177.38765
 20
505.269653
 10
177.41658
 20
505.424347
 10
177.452774
 20
505.544983
 10
177.495972
 20
505.627838
 10
177.545456
 20
505.671875
 10
177.600128
 20
505.673004
 10
177.658142
 20
505.633423
 10
177.716904
 20
505.551331
 10
177.774155
 20
505.433441
 10
177.826584
 20
505.280762
 10
177.871368
 20
505.098969
 10
177.905899
 20
504.894012
 10
177.928009
 20
504.672852
 10
177.936218
 20
504.428894
  0
LWPOLYLINE
  5
2E8
330
2A5
100
AcDbEntity
  8
0
  6
Continuous
 62
     0
370
    30
100
AcDbPolyline
 90
       18
 70
     0
 43
0.0
 10
177.936218
 20
504.428894
 10
177.928986
 20
504.199799
 10
177.907776
 20
503.977814
 10
177.873962
 20
503.771576
 10
177.829773
 20
503.587982
 10
177.77774
 20
503.433289
 10
177.720764
 20
503.312592
 10
177.66185
 20
503.229706
 10
177.603821
 20
503.185883
 10
177.548859
 20
503.184723
 10
177.498901
 20
503.224579
 10
177.455383
 20
503.306549
 10
177.418686
 20
503.424561
 10
177.389313
 20
503.577484
 10
177.366989
 20
503.759369
 10
177.351303
 20
503.964264
 10
177.34198
 20
504.185425
 10
177.338669
 20
504.428864
  0
LWPOLYLINE
  5
2E9
330
2A5
100
AcDbEntity
  8
0
  6
Continuous
 62
     0
370
    30
100
AcDbPolyline
 90
       18
 70
     0
 43
0.0
 10
177.338669
 20
509.745178
 10
177.341599
 20
509.974243
 10
177.35054
 20
510.196167
 10
177.365768
 20
510.402344
 10
177.38765
 20
510.585968
 10
177.41658
 20
510.740662
 10
177.452774
 20
510.861298
 10
177.495972
 20
510.944153
 10
177.545456
 20
510.988159
 10
177.600128
 20
510.989288
 10
177.658142
 20
510.949738
 10
177.716904
 20
510.867645
 10
177.774155
 20
510.749756
 10
177.826584
 20
510.597076
 10
177.871368
 20
510.415283
 10
177.905899
 20
510.210327
 10
177.928009
 20
509.989136
 10
177.936218
 20
509.745209
  0
LWPOLYLINE
  5
2EA
330
2A5
100
AcDbEntity
  8
0
  6
Continuous
 62
     0
370
    30
100
AcDbPolyline
 90
       18
 70
     0
 43
0.0
 10
177.936218
 20
509.745209
 10
177.928986
 20
509.516113
 10
177.907776
 20
509.294128
 10
177.873962
 20
509.087891
 10
177.829773
 20
508.904297
 10
177.77774
 20
508.749573
 10
177.720764
 20
508.628876
 10
177.66185
 20
508.546021
 10
177.603821
 20
508.502197
 10
177.548859
 20
508.501038
 10
177.498901
 20
508.540863
 10
177.455383
 20
508.622864
 10
177.418686
 20
508.740845
 10
177.389313
 20
508.893799
 10
177.366989
 20
509.075653
 10
177.351303
 20
509.280579
 10
177.34198
 20
509.50174
 10
177.338669
 20
509.745178
  0
LWPOLYLINE
  5
2EB
330
2A5
100
AcDbEntity
  8
0
  6
Continuous
 62
     0
370
    30
100
AcDbPolyline
 90
        3
 70
     0
 43
0.0
 10
179.228317
 20
459.398376
 10
179.228668
 20
459.446228
 10
179.290344
 20
459.984406
  0
LWPOLYLINE
  5
2EC
330
2A5
100
AcDbEntity
  8
0
  6
Continuous
 62
     0
370
    30
100
AcDbPolyline
 90
        3
 70
     0
 43
0.0
 10
179.290344
 20
458.812378
 10
179.280899
 20
458.855774
 10
179.228317
 20
459.398376
  0
LWPOLYLINE
  5
2ED
330
2A5
100
AcDbEntity
  8
0
  6
Continuous
 62
     0
370
    30
100
AcDbPolyline
 90
        3
 70
     0
 43
0.0
 10
179.228317
 20
464.698395
 10
179.228668
 20
464.746216
 10
179.290344
 20
465.284393
  0
LWPOLYLINE
  5
2EE
330
2A5
100
AcDbEntity
  8
0
  6
Continuous
 62
     0
370
    30
100
AcDbPolyline
 90
        3
 70
     0
 43
0.0
 10
179.290344
 20
464.112396
 10
179.280899
 20
464.155792
 10
179.228317
 20
464.698395
  0
LWPOLYLINE
  5
2EF
330
2A5
100
AcDbEntity
  8
0
  6
Continuous
 62
     0
370
    30
100
AcDbPolyline
 90
        3
 70
     0
 43
0.0
 10
179.228317
 20
469.998383
 10
179.228668
 20
470.046204
 10
179.290344
 20
470.584381
  0
LWPOLYLINE
  5
2F0
330
2A5
100
AcDbEntity
  8
0
  6
Continuous
 62
     0
370
    30
100
AcDbPolyline
 90
        3
 70
     0
 43
0.0
 10
179.290344
 20
469.412384
 10
179.280899
 20
469.45578
 10
179.228317
 20
469.998383
  0
LWPOLYLINE
  5
2F1
330
2A5
100
AcDbEntity
  8
0
  6
Continuous
 62
     0
370
    30
100
AcDbPolyline
 90
        3
 70
     0
 43
0.0
 10
179.228317
 20
475.298401
 10
179.228668
 20
475.346222
 10
179.290344
 20
475.884399
  0
LWPOLYLINE
  5
2F2
330
2A5
100
AcDbEntity
  8
0
  6
Continuous
 62
     0
370
    30
100
AcDbPolyline
 90
        3
 70
     0
 43
0.0
 10
179.290344
 20
474.712372
 10
179.280899
 20
474.755798
 10
179.228317
 20
475.298401
  0
LWPOLYLINE
  5
2F3
330
2A5
100
AcDbEntity
  8
0
  6
Continuous
 62
     0
370
    30
100
AcDbPolyline
 90
        3
 70
     0
 43
0.0
 10
179.228317
 20
480.598389
 10
179.228668
 20
480.64621
 10
179.290344
 20
481.184387
  0
LWPOLYLINE
  5
2F4
330
2A5
100
AcDbEntity
  8
0
  6
Continuous
 62
     0
370
    30
100
AcDbPolyline
 90
        3
 70
     0
 43
0.0
 10
179.290344
 20
480.01239
 10
179.280899
 20
480.055786
 10
179.228317
 20
480.598389
  0
LWPOLYLINE
  5
2F5
330
2A5
100
AcDbEntity
  8
0
  6
Continuous
 62
     0
370
    30
100
AcDbPolyline
 90
        3
 70
     0
 43
0.0
 10
179.228317
 20
485.898376
 10
179.228668
 20
485.946228
 10
179.290344
 20
486.484406
  0
LWPOLYLINE
  5
2F6
330
2A5
100
AcDbEntity
  8
0
  6
Continuous
 62
     0
370
    30
100
AcDbPolyline
 90
        3
 70
     0
 43
0.0
 10
179.290344
 20
485.312378
 10
179.280899
 20
485.355774
 10
179.228317
 20
485.898376
  0
LWPOLYLINE
  5
2F7
330
2A5
100
AcDbEntity
  8
0
  6
Continuous
 62
     0
370
    30
100
AcDbPolyline
 90
        3
 70
     0
 43
0.0
 10
179.228317
 20
491.198395
 10
179.228668
 20
491.246216
 10
179.290344
 20
491.784393
  0
LWPOLYLINE
  5
2F8
330
2A5
100
AcDbEntity
  8
0
  6
Continuous
 62
     0
370
    30
100
AcDbPolyline
 90
        3
 70
     0
 43
0.0
 10
179.290344
 20
490.612396
 10
179.280899
 20
490.655792
 10
179.228317
 20
491.198395
  0
LWPOLYLINE
  5
2F9
330
2A5
100
AcDbEntity
  8
0
  6
Continuous
 62
     0
370
    30
100
AcDbPolyline
 90
        3
 70
     0
 43
0.0
 10
179.228317
 20
496.498383
 10
179.228668
 20
496.546204
 10
179.290344
 20
497.084381
  0
LWPOLYLINE
  5
2FA
330
2A5
100
AcDbEntity
  8
0
  6
Continuous
 62
     0
370
    30
100
AcDbPolyline
 90
        3
 70
     0
 43
0.0
 10
179.290344
 20
495.912384
 10
179.280899
 20
495.95578
 10
179.228317
 20
496.498383
  0
LWPOLYLINE
  5
2FB
330
2A5
100
AcDbEntity
  8
0
  6
Continuous
 62
     0
370
    30
100
AcDbPolyline
 90
        3
 70
     0
 43
0.0
 10
179.228317
 20
501.798401
 10
179.228668
 20
501.846222
 10
179.290344
 20
502.384399
  0
LWPOLYLINE
  5
2FC
330
2A5
100
AcDbEntity
  8
0
  6
Continuous
 62
     0
370
    30
100
AcDbPolyline
 90
        3
 70
     0
 43
0.0
 10
179.290344
 20
501.212372
 10
179.280899
 20
501.255798
 10
179.228317
 20
501.798401
  0
LWPOLYLINE
  5
2FD
330
2A5
100
AcDbEntity
  8
0
  6
Continuous
 62
     0
370
    30
100
AcDbPolyline
 90
        3
 70
     0
 43
0.0
 10
179.228317
 20
507.098389
 10
179.228668
 20
507.14621
 10
179.290344
 20
507.684387
  0
LWPOLYLINE
  5
2FE
330
2A5
100
AcDbEntity
  8
0
  6
Continuous
 62
     0
370
    30
100
AcDbPolyline
 90
        3
 70
     0
 43
0.0
 10
179.290344
 20
506.51239
 10
179.280899
 20
506.555786
 10
179.228317
 20
507.098389
  0
LWPOLYLINE
  5
2FF
330
2A5
100
AcDbEntity
  8
0
  6
Continuous
 62
     0
370
    30
100
AcDbPolyline
 90
        3
 70
     0
 43
0.0
 10
179.228317
 20
512.398376
 10
179.228668
 20
512.446228
 10
179.290344
 20
512.984375
  0
LWPOLYLINE
  5
300
330
2A5
100
AcDbEntity
  8
0
  6
Continuous
 62
     0
370
    30
100
AcDbPolyline
 90
        3
 70
     0
 43
0.0
 10
179.290344
 20
511.812378
 10
179.280899
 20
511.855774
 10
179.228317
 20
512.398376
  0
LWPOLYLINE
  5
301
330
2A5
100
AcDbEntity
  8
0
  6
Continuous
 62
     0
370
    30
100
AcDbPolyline
 90
        3
 70
     0
 43
0.0
 10
179.183197
 20
460.254059
 10
179.089645
 20
459.899384
 10
179.049194
 20
459.398407
  0
LWPOLYLINE
  5
302
330
2A5
100
AcDbEntity
  8
0
  6
Continuous
 62
     0
370
    30
100
AcDbPolyline
 90
        3
 70
     0
 43
0.0
 10
179.049194
 20
459.398407
 10
179.076889
 20
458.980408
 10
179.183197
 20
458.542816
  0
LWPOLYLINE
  5
303
330
2A5
100
AcDbEntity
  8
0
  6
Continuous
 62
     0
370
    30
100
AcDbPolyline
 90
        3
 70
     0
 43
0.0
 10
179.183197
 20
465.554077
 10
179.089645
 20
465.199371
 10
179.049194
 20
464.698425
  0
LWPOLYLINE
  5
304
330
2A5
100
AcDbEntity
  8
0
  6
Continuous
 62
     0
370
    30
100
AcDbPolyline
 90
        3
 70
     0
 43
0.0
 10
179.049194
 20
464.698425
 10
179.076889
 20
464.280426
 10
179.183197
 20
463.842834
  0
LWPOLYLINE
  5
305
330
2A5
100
AcDbEntity
  8
0
  6
Continuous
 62
     0
370
    30
100
AcDbPolyline
 90
        3
 70
     0
 43
0.0
 10
179.183197
 20
470.854065
 10
179.089645
 20
470.499359
 10
179.049194
 20
469.998413
  0
LWPOLYLINE
  5
306
330
2A5
100
AcDbEntity
  8
0
  6
Continuous
 62
     0
370
    30
100
AcDbPolyline
 90
        3
 70
     0
 43
0.0
 10
179.049194
 20
469.998413
 10
179.076889
 20
469.580414
 10
179.183197
 20
469.142822
  0
LWPOLYLINE
  5
307
330
2A5
100
AcDbEntity
  8
0
  6
Continuous
 62
     0
370
    30
100
AcDbPolyline
 90
        3
 70
     0
 43
0.0
 10
179.183197
 20
476.154053
 10
179.089645
 20
475.799377
 10
179.049194
 20
475.298401
  0
LWPOLYLINE
  5
308
330
2A5
100
AcDbEntity
  8
0
  6
Continuous
 62
     0
370
    30
100
AcDbPolyline
 90
        3
 70
     0
 43
0.0
 10
179.049194
 20
475.298401
 10
179.076889
 20
474.880402
 10
179.183197
 20
474.44281
  0
LWPOLYLINE
  5
309
330
2A5
100
AcDbEntity
  8
0
  6
Continuous
 62
     0
370
    30
100
AcDbPolyline
 90
        3
 70
     0
 43
0.0
 10
179.183197
 20
481.454071
 10
179.089645
 20
481.099365
 10
179.049194
 20
480.598419
  0
LWPOLYLINE
  5
30A
330
2A5
100
AcDbEntity
  8
0
  6
Continuous
 62
     0
370
    30
100
AcDbPolyline
 90
        3
 70
     0
 43
0.0
 10
179.049194
 20
480.598419
 10
179.076889
 20
480.18042
 10
179.183197
 20
479.742828
  0
LWPOLYLINE
  5
30B
330
2A5
100
AcDbEntity
  8
0
  6
Continuous
 62
     0
370
    30
100
AcDbPolyline
 90
        3
 70
     0
 43
0.0
 10
179.183197
 20
486.754059
 10
179.089645
 20
486.399384
 10
179.049194
 20
485.898407
  0
LWPOLYLINE
  5
30C
330
2A5
100
AcDbEntity
  8
0
  6
Continuous
 62
     0
370
    30
100
AcDbPolyline
 90
        3
 70
     0
 43
0.0
 10
179.049194
 20
485.898407
 10
179.076889
 20
485.480408
 10
179.183197
 20
485.042816
  0
LWPOLYLINE
  5
30D
330
2A5
100
AcDbEntity
  8
0
  6
Continuous
 62
     0
370
    30
100
AcDbPolyline
 90
        3
 70
     0
 43
0.0
 10
179.183197
 20
492.054077
 10
179.089645
 20
491.699371
 10
179.049194
 20
491.198425
  0
LWPOLYLINE
  5
30E
330
2A5
100
AcDbEntity
  8
0
  6
Continuous
 62
     0
370
    30
100
AcDbPolyline
 90
        3
 70
     0
 43
0.0
 10
179.049194
 20
491.198425
 10
179.076889
 20
490.780426
 10
179.183197
 20
490.342834
  0
LWPOLYLINE
  5
30F
330
2A5
100
AcDbEntity
  8
0
  6
Continuous
 62
     0
370
    30
100
AcDbPolyline
 90
        3
 70
     0
 43
0.0
 10
179.183197
 20
497.354065
 10
179.089645
 20
496.999359
 10
179.049194
 20
496.498413
  0
LWPOLYLINE
  5
310
330
2A5
100
AcDbEntity
  8
0
  6
Continuous
 62
     0
370
    30
100
AcDbPolyline
 90
        3
 70
     0
 43
0.0
 10
179.049194
 20
496.498413
 10
179.076889
 20
496.080414
 10
179.183197
 20
495.642822
  0
LWPOLYLINE
  5
311
330
2A5
100
AcDbEntity
  8
0
  6
Continuous
 62
     0
370
    30
100
AcDbPolyline
 90
        3
 70
     0
 43
0.0
 10
179.183197
 20
502.654053
 10
179.089645
 20
502.299377
 10
179.049194
 20
501.798401
  0
LWPOLYLINE
  5
312
330
2A5
100
AcDbEntity
  8
0
  6
Continuous
 62
     0
370
    30
100
AcDbPolyline
 90
        3
 70
     0
 43
0.0
 10
179.049194
 20
501.798401
 10
179.076889
 20
501.380402
 10
179.183197
 20
500.94281
  0
LWPOLYLINE
  5
313
330
2A5
100
AcDbEntity
  8
0
  6
Continuous
 62
     0
370
    30
100
AcDbPolyline
 90
        3
 70
     0
 43
0.0
 10
179.183197
 20
507.954071
 10
179.089645
 20
507.599365
 10
179.049194
 20
507.098419
  0
LWPOLYLINE
  5
314
330
2A5
100
AcDbEntity
  8
0
  6
Continuous
 62
     0
370
    30
100
AcDbPolyline
 90
        3
 70
     0
 43
0.0
 10
179.049194
 20
507.098419
 10
179.076889
 20
506.68042
 10
179.183197
 20
506.242828
  0
LWPOLYLINE
  5
315
330
2A5
100
AcDbEntity
  8
0
  6
Continuous
 62
     0
370
    30
100
AcDbPolyline
 90
        3
 70
     0
 43
0.0
 10
179.183197
 20
513.254089
 10
179.089645
 20
512.899353
 10
179.049194
 20
512.398438
  0
LWPOLYLINE
  5
316
330
2A5
100
AcDbEntity
  8
0
  6
Continuous
 62
     0
370
    30
100
AcDbPolyline
 90
        3
 70
     0
 43
0.0
 10
179.049194
 20
512.398438
 10
179.076889
 20
511.980408
 10
179.183197
 20
511.542816
  0
LINE
  5
317
330
2A5
100
AcDbEntity
  8
0
  6
Continuous
 62
     0
370
     0
100
AcDbLine
 10
188.980959
 20
525.898415
 30
0.0
 11
188.980959
 21
527.598415
 31
0.0
  0
LINE
  5
318
330
2A5
100
AcDbEntity
  8
0
  6
Continuous
 62
     0
370
    30
100
AcDbLine
 10
188.980959
 20
527.598415
 30
0.0
 11
177.226226
 21
527.598415
 31
0.0
  0
LINE
  5
319
330
2A5
100
AcDbEntity
  8
0
  6
Continuous
 62
     0
370
    30
100
AcDbLine
 10
201.226226
 20
527.598415
 30
0.0
 11
188.980959
 21
527.598415
 31
0.0
  0
LINE
  5
31A
330
2A5
100
AcDbEntity
  8
0
  6
Continuous
 62
     0
370
    30
100
AcDbLine
 10
201.005455
 20
347.898415
 30
0.0
 11
201.226225
 21
347.898415
 31
0.0
  0
LINE
  5
31B
330
2A5
100
AcDbEntity
  8
0
  6
Continuous
 62
     0
370
     0
100
AcDbLine
 10
189.011617
 20
347.898415
 30
0.0
 11
189.011617
 21
339.898415
 31
0.0
  0
LINE
  5
31C
330
2A5
100
AcDbEntity
  8
0
  6
Continuous
 62
     0
370
    30
100
AcDbLine
 10
189.011617
 20
339.898415
 30
0.0
 11
199.726226
 21
339.898415
 31
0.0
  0
LWPOLYLINE
  5
31D
330
2A5
100
AcDbEntity
  8
0
  6
Continuous
 62
     0
370
    30
100
AcDbPolyline
 90
       14
 70
     0
 43
0.0
 10
178.726227
 20
339.898407
 10
178.789948
 20
339.898407
 10
178.990265
 20
339.898407
 10
179.337799
 20
339.898407
 10
179.83783
 20
339.898407
 10
180.489075
 20
339.898407
 10
181.28299
 20
339.898407
 10
182.203964
 20
339.898407
 10
183.230225
 20
339.898407
 10
184.335541
 20
339.898407
 10
185.491409
 20
339.898407
 10
186.66925
 20
339.898407
 10
187.842407
 20
339.898407
 10
189.011612
 20
339.898407
  0
LINE
  5
31E
330
2A5
100
AcDbEntity
  8
0
  6
Continuous
 62
     0
370
    30
100
AcDbLine
 10
178.726226
 20
347.898415
 30
0.0
 11
178.726226
 21
339.898415
 31
0.0
  0
LINE
  5
31F
330
2A5
100
AcDbEntity
  8
0
  6
Continuous
 62
     0
370
    30
100
AcDbLine
 10
199.726226
 20
347.898415
 30
0.0
 11
199.726226
 21
339.898415
 31
0.0
  0
LINE
  5
320
330
2A5
100
AcDbEntity
  8
0
  6
Continuous
 62
     0
370
    30
100
AcDbLine
 10
201.226225
 20
347.898415
 30
0.0
 11
201.226225
 21
350.098415
 31
0.0
  0
LINE
  5
321
330
2A5
100
AcDbEntity
  8
0
  6
Continuous
 62
     0
370
    30
100
AcDbLine
 10
201.226226
 20
527.598415
 30
0.0
 11
201.226226
 21
525.898415
 31
0.0
  0
LINE
  5
322
330
2A5
100
AcDbEntity
  8
0
  6
Continuous
 62
     0
370
    30
100
AcDbLine
 10
177.226226
 20
527.598415
 30
0.0
 11
177.226226
 21
525.898415
 31
0.0
  0
LINE
  5
323
330
2A5
100
AcDbEntity
  8
0
  6
Continuous
 62
     0
370
    30
100
AcDbLine
 10
177.226226
 20
347.898415
 30
0.0
 11
177.226226
 21
458.168909
 31
0.0
  0
LINE
  5
324
330
2A5
100
AcDbEntity
  8
0
  6
Continuous
 62
     0
370
    30
100
AcDbLine
 10
177.226226
 20
460.627859
 30
0.0
 11
177.226226
 21
463.468909
 31
0.0
  0
LINE
  5
325
330
2A5
100
AcDbEntity
  8
0
  6
Continuous
 62
     0
370
    30
100
AcDbLine
 10
177.226226
 20
465.927859
 30
0.0
 11
177.226226
 21
468.768909
 31
0.0
  0
LINE
  5
326
330
2A5
100
AcDbEntity
  8
0
  6
Continuous
 62
     0
370
    30
100
AcDbLine
 10
177.226226
 20
471.227859
 30
0.0
 11
177.226226
 21
474.068909
 31
0.0
  0
LINE
  5
327
330
2A5
100
AcDbEntity
  8
0
  6
Continuous
 62
     0
370
    30
100
AcDbLine
 10
177.226226
 20
476.527859
 30
0.0
 11
177.226226
 21
479.368909
 31
0.0
  0
LINE
  5
328
330
2A5
100
AcDbEntity
  8
0
  6
Continuous
 62
     0
370
    30
100
AcDbLine
 10
177.226226
 20
481.827859
 30
0.0
 11
177.226226
 21
484.668909
 31
0.0
  0
LINE
  5
329
330
2A5
100
AcDbEntity
  8
0
  6
Continuous
 62
     0
370
    30
100
AcDbLine
 10
177.226226
 20
487.127859
 30
0.0
 11
177.226226
 21
489.968909
 31
0.0
  0
LINE
  5
32A
330
2A5
100
AcDbEntity
  8
0
  6
Continuous
 62
     0
370
    30
100
AcDbLine
 10
177.226226
 20
492.427859
 30
0.0
 11
177.226226
 21
495.268909
 31
0.0
  0
LINE
  5
32B
330
2A5
100
AcDbEntity
  8
0
  6
Continuous
 62
     0
370
    30
100
AcDbLine
 10
177.226226
 20
497.727859
 30
0.0
 11
177.226226
 21
500.568909
 31
0.0
  0
LINE
  5
32C
330
2A5
100
AcDbEntity
  8
0
  6
Continuous
 62
     0
370
    30
100
AcDbLine
 10
177.226226
 20
503.027859
 30
0.0
 11
177.226226
 21
505.868909
 31
0.0
  0
LINE
  5
32D
330
2A5
100
AcDbEntity
  8
0
  6
Continuous
 62
     0
370
    30
100
AcDbLine
 10
177.226226
 20
508.327859
 30
0.0
 11
177.226226
 21
511.168909
 31
0.0
  0
LINE
  5
32E
330
2A5
100
AcDbEntity
  8
0
  6
Continuous
 62
     0
370
    30
100
AcDbLine
 10
177.226226
 20
513.627859
 30
0.0
 11
177.226226
 21
525.898415
 31
0.0
  0
LINE
  5
32F
330
2A5
100
AcDbEntity
  8
0
  6
Continuous
 62
     0
370
    30
100
AcDbLine
 10
201.226226
 20
350.098415
 30
0.0
 11
201.226226
 21
525.898415
 31
0.0
  0
ENDBLK
  5
331
330
2A5
100
AcDbEntity
  8
0
100
AcDbBlockEnd
  0
ENDSEC
  0
SECTION
  2
ENTITIES
  0
INSERT
  5
12D
330
1F
100
AcDbEntity
  8
0
  6
Continuous
 62
     7
370
     0
100
AcDbBlockReference
  2
a
 10
292.425201
 20
118.046913
 30
0.0
  0
INSERT
  5
133
330
1F
100
AcDbEntity
  8
0
  6
Continuous
 62
     7
370
     0
100
AcDbBlockReference
  2
b
 10
292.425201
 20
118.046913
 30
0.0
  0
INSERT
  5
1C2
330
1F
100
AcDbEntity
  8
0
  6
Continuous
 62
     7
370
     0
100
AcDbBlockReference
  2
c
 10
292.425201
 20
118.046913
 30
0.0
  0
INSERT
  5
2A4
330
1F
100
AcDbEntity
  8
0
  6
Continuous
 62
     7
370
     0
100
AcDbBlockReference
  2
d
 10
292.425201
 20
118.046913
 30
0.0
  0
INSERT
  5
332
330
1F
100
AcDbEntity
  8
0
  6
Continuous
 62
     7
370
     0
100
AcDbBlockReference
  2
e
 10
234.731079
 20
0.0
 30
0.0
  0
ENDSEC
  0
SECTION
  2
OBJECTS
  0
DICTIONARY
  5
C
330
0
100
AcDbDictionary
281
     1
  3
ACAD_GROUP
350
D
  3
ACAD_LAYOUT
350
1A
  3
ACAD_MLEADERSTYLE
350
334
  3
ACAD_MLINESTYLE
350
17
  3
ACAD_PLOTSETTINGS
350
19
  3
ACAD_PLOTSTYLENAME
350
E
  3
ACAD_TABLESTYLE
350
333
  3
ACAD_VISUALSTYLE
350
2A
  0
DICTIONARY
  5
D
102
{ACAD_REACTORS
330
C
102
}
330
C
100
AcDbDictionary
281
     1
  0
DICTIONARY
  5
1A
102
{ACAD_REACTORS
330
C
102
}
330
C
100
AcDbDictionary
281
     1
  3
Layout1
350
1E
  3
Layout2
350
26
  3
Model
350
22
  0
DICTIONARY
  5
334
102
{ACAD_REACTORS
330
C
102
}
330
C
100
AcDbDictionary
281
     1
  0
DICTIONARY
  5
17
102
{ACAD_REACTORS
330
C
102
}
330
C
100
AcDbDictionary
281
     1
  3
Standard
350
18
  0
DICTIONARY
  5
19
102
{ACAD_REACTORS
330
C
102
}
330
C
100
AcDbDictionary
281
     1
  0
ACDBDICTIONARYWDFLT
  5
E
102
{ACAD_REACTORS
330
C
102
}
330
C
100
AcDbDictionary
281
     1
  3
Normal
350
F
100
AcDbDictionaryWithDefault
340
F
  0
DICTIONARY
  5
333
102
{ACAD_REACTORS
330
C
102
}
330
C
100
AcDbDictionary
281
     1
  0
DICTIONARY
  5
2A
102
{ACAD_REACTORS
330
C
102
}
330
C
100
AcDbDictionary
281
     1
  3
2dWireframe
350
2F
  3
3D Hidden
350
31
  3
3dWireframe
350
30
  3
Basic
350
32
  3
Brighten
350
36
  3
ColorChange
350
3A
  3
Conceptual
350
34
  3
Dim
350
35
  3
Facepattern
350
39
  3
Flat
350
2B
  3
FlatWithEdges
350
2C
  3
Gouraud
350
2D
  3
GouraudWithEdges
350
2E
  3
Linepattern
350
38
  3
Realistic
350
33
  3
Thicken
350
37
  0
LAYOUT
  5
1E
102
{ACAD_REACTORS
330
1A
102
}
330
1A
100
AcDbPlotSettings
  1

  2
none_device
  4

  6

 40
0.0
 41
0.0
 42
0.0
 43
0.0
 44
0.0
 45
0.0
 46
0.0
 47
0.0
 48
0.0
 49
0.0
140
0.0
141
0.0
142
1.0
143
1.0
 70
   688
 72
     0
 73
     0
 74
     5
  7

 75
    16
 76
     0
 77
     2
 78
   300
147
1.0
148
0.0
149
0.0
100
AcDbLayout
  1
Layout1
 70
     1
 71
     1
 10
0.0
 20
0.0
 11
420.0
 21
297.0
 12
0.0
 22
0.0
 32
0.0
 14
1.000000E+20
 24
1.000000E+20
 34
1.000000E+20
 15
-1.000000E+20
 25
-1.000000E+20
 35
-1.000000E+20
146
0.0
 13
0.0
 23
0.0
 33
0.0
 16
1.0
 26
0.0
 36
0.0
 17
0.0
 27
1.0
 37
0.0
 76
     0
330
1B
  0
LAYOUT
  5
26
102
{ACAD_REACTORS
330
1A
102
}
330
1A
100
AcDbPlotSettings
  1

  2
none_device
  4

  6

 40
0.0
 41
0.0
 42
0.0
 43
0.0
 44
0.0
 45
0.0
 46
0.0
 47
0.0
 48
0.0
 49
0.0
140
0.0
141
0.0
142
1.0
143
1.0
 70
   688
 72
     0
 73
     0
 74
     5
  7

 75
    16
 76
     0
 77
     2
 78
   300
147
1.0
148
0.0
149
0.0
100
AcDbLayout
  1
Layout2
 70
     1
 71
     2
 10
0.0
 20
0.0
 11
0.0
 21
0.0
 12
0.0
 22
0.0
 32
0.0
 14
0.0
 24
0.0
 34
0.0
 15
0.0
 25
0.0
 35
0.0
146
0.0
 13
0.0
 23
0.0
 33
0.0
 16
1.0
 26
0.0
 36
0.0
 17
0.0
 27
1.0
 37
0.0
 76
     0
330
23
  0
LAYOUT
  5
22
102
{ACAD_REACTORS
330
1A
102
}
330
1A
100
AcDbPlotSettings
  1

  2
none_device
  4

  6

 40
0.0
 41
0.0
 42
0.0
 43
0.0
 44
0.0
 45
0.0
 46
0.0
 47
0.0
 48
0.0
 49
0.0
140
0.0
141
0.0
142
1.0
143
1.0
 70
  1712
 72
     0
 73
     0
 74
     0
  7

 75
     0
 76
     0
 77
     2
 78
   300
147
1.0
148
0.0
149
0.0
100
AcDbLayout
  1
Model
 70
     1
 71
     0
 10
177.226227
 20
111.031151
 11
520.824707
 21
527.598389
 12
0.0
 22
0.0
 32
0.0
 14
177.226227
 24
111.031151
 34
0.0
 15
520.824707
 25
527.598389
 35
0.0
146
0.0
 13
0.0
 23
0.0
 33
0.0
 16
1.0
 26
0.0
 36
0.0
 17
0.0
 27
1.0
 37
0.0
 76
     0
330
1F
331
29
  0
MLINESTYLE
  5
18
102
{ACAD_REACTORS
330
17
102
}
330
17
100
AcDbMlineStyle
  2
Standard
 70
     0
  3

 62
   256
 51
90.0
 52
90.0
 71
     2
 49
0.5
 62
   256
  6
BYLAYER
 49
-0.5
 62
   256
  6
BYLAYER
  0
ACDBPLACEHOLDER
  5
F
102
{ACAD_REACTORS
330
E
102
}
330
E
  0
VISUALSTYLE
  5
2F
102
{ACAD_REACTORS
330
2A
102
}
330
2A
100
AcDbVisualStyle
  2
2dWireframe
 70
     4
 71
     0
 72
     2
 73
     0
 90
        0
 40
-0.6
 41
-30.0
 62
     5
 63
     7
421
 16777215
 74
     1
 91
        4
 64
     7
 65
   257
 75
     1
175
     1
 42
1.0
 92
        0
 66
   257
 43
1.0
 76
     1
 77
     6
 78
     2
 67
     7
 79
     5
170
     0
171
     0
290
     0
174
     0
 93
        1
 44
0.0
173
     0
291
     0
 45
0.0
1001
ACAD
1000
AcDbSavedByObjectVersion
1070
     0
  0
VISUALSTYLE
  5
31
102
{ACAD_REACTORS
330
2A
102
}
330
2A
100
AcDbVisualStyle
  2
3D Hidden
 70
     6
 71
     1
 72
     2
 73
     2
 90
        0
 40
-0.6
 41
-30.0
 62
     5
 63
     7
421
 16777215
 74
     2
 91
        2
 64
     7
 65
   257
 75
     2
175
     1
 42
40.0
 92
        0
 66
   257
 43
1.0
 76
     1
 77
     6
 78
     2
 67
     7
 79
     3
170
     0
171
     0
290
     0
174
     0
 93
        1
 44
0.0
173
     0
291
     0
 45
0.0
1001
ACAD
1000
AcDbSavedByObjectVersion
1070
     0
  0
VISUALSTYLE
  5
30
102
{ACAD_REACTORS
330
2A
102
}
330
2A
100
AcDbVisualStyle
  2
3dWireframe
 70
     5
 71
     0
 72
     2
 73
     0
 90
        0
 40
-0.6
 41
-30.0
 62
     5
 63
     7
421
 16777215
 74
     1
 91
        4
 64
     7
 65
   257
 75
     1
175
     1
 42
1.0
 92
        0
 66
   257
 43
1.0
 76
     1
 77
     6
 78
     2
 67
     7
 79
     5
170
     0
171
     0
290
     0
174
     0
 93
        1
 44
0.0
173
     0
291
     0
 45
0.0
1001
ACAD
1000
AcDbSavedByObjectVersion
1070
     0
  0
VISUALSTYLE
  5
32
102
{ACAD_REACTORS
330
2A
102
}
330
2A
100
AcDbVisualStyle
  2
Basic
 70
     7
 71
     1
 72
     0
 73
     1
 90
        0
 40
-0.6
 41
-30.0
 62
     5
 63
     7
421
 16777215
 74
     0
 91
        4
 64
     7
 65
   257
 75
     1
175
     1
 42
1.0
 92
        8
 66
     7
 43
1.0
 76
     1
 77
     6
 78
     2
 67
     7
 79
     5
170
     0
171
     0
290
     0
174
     0
 93
        1
 44
0.0
173
     0
291
     1
 45
0.0
1001
ACAD
1000
AcDbSavedByObjectVersion
1070
     0
  0
VISUALSTYLE
  5
36
102
{ACAD_REACTORS
330
2A
102
}
330
2A
100
AcDbVisualStyle
  2
Brighten
 70
    12
 71
     2
 72
     2
 73
     0
 90
        0
 40
-0.6
 41
-30.0
 62
     5
 63
     7
421
 16777215
 74
     1
 91
        4
 64
     7
 65
   257
 75
     1
175
     1
 42
1.0
 92
        8
 66
     7
 43
1.0
 76
     1
 77
     6
 78
     2
 67
     7
 79
     5
170
     0
171
     0
290
     0
174
     0
 93
        1
 44
50.0
173
     0
291
     1
 45
0.0
1001
ACAD
1000
AcDbSavedByObjectVersion
1070
     0
  0
VISUALSTYLE
  5
3A
102
{ACAD_REACTORS
330
2A
102
}
330
2A
100
AcDbVisualStyle
  2
ColorChange
 70
    16
 71
     2
 72
     2
 73
     3
 90
        0
 40
-0.6
 41
-30.0
 62
     5
 63
     8
421
  8421504
 74
     1
 91
        4
 64
     7
 65
   257
 75
     1
175
     1
 42
1.0
 92
        8
 66
     8
424
  8421504
 43
1.0
 76
     1
 77
     6
 78
     2
 67
     7
 79
     5
170
     0
171
     0
290
     0
174
     0
 93
        1
 44
0.0
173
     0
291
     1
 45
0.0
1001
ACAD
1000
AcDbSavedByObjectVersion
1070
     0
  0
VISUALSTYLE
  5
34
102
{ACAD_REACTORS
330
2A
102
}
330
2A
100
AcDbVisualStyle
  2
Conceptual
 70
     9
 71
     3
 72
     2
 73
     0
 90
        0
 40
-0.6
 41
-30.0
 62
     5
 63
     7
421
 16777215
 74
     2
 91
        2
 64
     7
 65
   257
 75
     1
175
     1
 42
40.0
 92
        8
 66
     7
 43
1.0
 76
     1
 77
     6
 78
     2
 67
     7
 79
     3
170
     0
171
     0
290
     0
174
     0
 93
        1
 44
0.0
173
     0
291
     0
 45
0.0
1001
ACAD
1000
AcDbSavedByObjectVersion
1070
     0
  0
VISUALSTYLE
  5
35
102
{ACAD_REACTORS
330
2A
102
}
330
2A
100
AcDbVisualStyle
  2
Dim
 70
    11
 71
     2
 72
     2
 73
     0
 90
        0
 40
-0.6
 41
-30.0
 62
     5
 63
     7
421
 16777215
 74
     1
 91
        4
 64
     7
 65
   257
 75
     1
175
     1
 42
1.0
 92
        8
 66
     7
 43
1.0
 76
     1
 77
     6
 78
     2
 67
     7
 79
     5
170
     0
171
     0
290
     0
174
     0
 93
        1
 44
-50.0
173
     0
291
     1
 45
0.0
1001
ACAD
1000
AcDbSavedByObjectVersion
1070
     0
  0
VISUALSTYLE
  5
39
102
{ACAD_REACTORS
330
2A
102
}
330
2A
100
AcDbVisualStyle
  2
Facepattern
 70
    15
 71
     2
 72
     2
 73
     0
 90
        0
 40
-0.6
 41
-30.0
 62
     5
 63
     7
421
 16777215
 74
     1
 91
        4
 64
     7
 65
   257
 75
     1
175
     1
 42
1.0
 92
        8
 66
     7
 43
1.0
 76
     1
 77
     6
 78
     2
 67
     7
 79
     5
170
     0
171
     0
290
     0
174
     0
 93
        1
 44
0.0
173
     0
291
     1
 45
0.0
1001
ACAD
1000
AcDbSavedByObjectVersion
1070
     0
  0
VISUALSTYLE
  5
2B
102
{ACAD_REACTORS
330
2A
102
}
330
2A
100
AcDbVisualStyle
  2
Flat
 70
     0
 71
     2
 72
     1
 73
     1
 90
        2
 40
-0.6
 41
30.0
 62
     5
 63
     7
421
 16777215
 74
     0
 91
        4
 64
     7
 65
   257
 75
     1
175
     1
 42
1.0
 92
        8
 66
     7
 43
1.0
 76
     1
 77
     6
 78
     2
 67
     7
 79
     5
170
     0
171
     0
290
     0
174
     0
 93
       13
 44
0.0
173
     0
291
     1
 45
0.0
1001
ACAD
1000
AcDbSavedByObjectVersion
1070
     0
  0
VISUALSTYLE
  5
2C
102
{ACAD_REACTORS
330
2A
102
}
330
2A
100
AcDbVisualStyle
  2
FlatWithEdges
 70
     1
 71
     2
 72
     1
 73
     1
 90
        2
 40
-0.6
 41
30.0
 62
     5
 63
     7
421
 16777215
 74
     1
 91
        4
 64
     7
 65
   257
 75
     1
175
     1
 42
1.0
 92
        0
 66
   257
 43
1.0
 76
     1
 77
     6
 78
     2
 67
     7
 79
     5
170
     0
171
     0
290
     0
174
     0
 93
       13
 44
0.0
173
     0
291
     1
 45
0.0
1001
ACAD
1000
AcDbSavedByObjectVersion
1070
     0
  0
VISUALSTYLE
  5
2D
102
{ACAD_REACTORS
330
2A
102
}
330
2A
100
AcDbVisualStyle
  2
Gouraud
 70
     2
 71
     2
 72
     2
 73
     1
 90
        2
 40
-0.6
 41
30.0
 62
     5
 63
     7
421
 16777215
 74
     0
 91
        4
 64
     7
 65
   257
 75
     1
175
     1
 42
1.0
 92
        0
 66
     7
 43
1.0
 76
     1
 77
     6
 78
     2
 67
     7
 79
     5
170
     0
171
     0
290
     0
174
     0
 93
       13
 44
0.0
173
     0
291
     1
 45
0.0
1001
ACAD
1000
AcDbSavedByObjectVersion
1070
     0
  0
VISUALSTYLE
  5
2E
102
{ACAD_REACTORS
330
2A
102
}
330
2A
100
AcDbVisualStyle
  2
GouraudWithEdges
 70
     3
 71
     2
 72
     2
 73
     1
 90
        2
 40
-0.6
 41
30.0
 62
     5
 63
     7
421
 16777215
 74
     1
 91
        4
 64
     7
 65
   257
 75
     1
175
     1
 42
1.0
 92
        0
 66
   257
 43
1.0
 76
     1
 77
     6
 78
     2
 67
     7
 79
     5
170
     0
171
     0
290
     0
174
     0
 93
       13
 44
0.0
173
     0
291
     1
 45
0.0
1001
ACAD
1000
AcDbSavedByObjectVersion
1070
     0
  0
VISUALSTYLE
  5
38
102
{ACAD_REACTORS
330
2A
102
}
330
2A
100
AcDbVisualStyle
  2
Linepattern
 70
    14
 71
     2
 72
     2
 73
     0
 90
        0
 40
-0.6
 41
-30.0
 62
     5
 63
     7
421
 16777215
 74
     1
 91
        4
 64
     7
 65
   257
 75
     7
175
     7
 42
1.0
 92
        8
 66
     7
 43
1.0
 76
     1
 77
     6
 78
     2
 67
     7
 79
     5
170
     0
171
     0
290
     0
174
     0
 93
        1
 44
0.0
173
     0
291
     1
 45
0.0
1001
ACAD
1000
AcDbSavedByObjectVersion
1070
     0
  0
VISUALSTYLE
  5
33
102
{ACAD_REACTORS
330
2A
102
}
330
2A
100
AcDbVisualStyle
  2
Realistic
 70
     8
 71
     2
 72
     2
 73
     0
 90
        0
 40
-0.6
 41
-30.0
 62
     5
 63
     7
421
 16777215
 74
     1
 91
        0
 64
     7
 65
   257
 75
     1
175
     1
 42
1.0
 92
        8
 66
     8
424
  7895160
 43
1.0
 76
     1
 77
     6
 78
     2
 67
     7
 79
     5
170
     0
171
     0
290
     0
174
     0
 93
       13
 44
0.0
173
     0
291
     0
 45
0.0
1001
ACAD
1000
AcDbSavedByObjectVersion
1070
     0
  0
VISUALSTYLE
  5
37
102
{ACAD_REACTORS
330
2A
102
}
330
2A
100
AcDbVisualStyle
  2
Thicken
 70
    13
 71
     2
 72
     2
 73
     0
 90
        0
 40
-0.6
 41
-30.0
 62
     5
 63
     7
421
 16777215
 74
     1
 91
        4
 64
     7
 65
   257
 75
     1
175
     1
 42
1.0
 92
       12
 66
     7
 43
1.0
 76
     1
 77
     6
 78
     2
 67
     7
 79
     5
170
     0
171
     0
290
     0
174
     0
 93
        1
 44
0.0
173
     0
291
     1
 45
0.0
1001
ACAD
1000
AcDbSavedByObjectVersion
1070
     0
  0
ENDSEC
  0
EOF
