  0
SECTION
  2
HEADER
  9
$ACADVER
  1
AC1018
  9
$ACADMAINTVER
 70
     0
  9
$DWGCODEPAGE
  3
ANSI_1252
  9
$LASTSAVEDBY
  1
kevinquigley
  9
$INSBASE
 10
0.0
 20
0.0
 30
0.0
  9
$EXTMIN
 10
483.0052311619904
 20
490.7931824537
 30
0.0
  9
$EXTMAX
 10
1694.6870317138
 20
1272.412882710612
 30
0.0
  9
$LIMMIN
 10
0.0
 20
0.0
  9
$LIMMAX
 10
12.0
 20
9.0
  9
$ORTHOMODE
 70
     0
  9
$REGENMODE
 70
     1
  9
$FILLMODE
 70
     1
  9
$QTEXTMODE
 70
     0
  9
$MIRRTEXT
 70
     1
  9
$LTSCALE
 40
1.0
  9
$ATTMODE
 70
     1
  9
$TEXTSIZE
 40
0.2
  9
$TRACEWID
 40
0.05
  9
$TEXTSTYLE
  7
Standard
  9
$CLAYER
  8
Boundingbox
  9
$CELTYPE
  6
ByLayer
  9
$CECOLOR
 62
   256
  9
$CELTSCALE
 40
1.0
  9
$DISPSILH
 70
     0
  9
$DIMSCALE
 40
1.0
  9
$DIMASZ
 40
0.18
  9
$DIMEXO
 40
0.0625
  9
$DIMDLI
 40
0.38
  9
$DIMRND
 40
0.0
  9
$DIMDLE
 40
0.0
  9
$DIMEXE
 40
0.18
  9
$DIMTP
 40
0.0
  9
$DIMTM
 40
0.0
  9
$DIMTXT
 40
0.18
  9
$DIMCEN
 40
0.09
  9
$DIMTSZ
 40
0.0
  9
$DIMTOL
 70
     0
  9
$DIMLIM
 70
     0
  9
$DIMTIH
 70
     1
  9
$DIMTOH
 70
     1
  9
$DIMSE1
 70
     0
  9
$DIMSE2
 70
     0
  9
$DIMTAD
 70
     0
  9
$DIMZIN
 70
     0
  9
$DIMBLK
  1

  9
$DIMASO
 70
     1
  9
$DIMSHO
 70
     1
  9
$DIMPOST
  1

  9
$DIMAPOST
  1

  9
$DIMALT
 70
     0
  9
$DIMALTD
 70
     2
  9
$DIMALTF
 40
25.4
  9
$DIMLFAC
 40
1.0
  9
$DIMTOFL
 70
     0
  9
$DIMTVP
 40
0.0
  9
$DIMTIX
 70
     0
  9
$DIMSOXD
 70
     0
  9
$DIMSAH
 70
     0
  9
$DIMBLK1
  1

  9
$DIMBLK2
  1

  9
$DIMSTYLE
  2
Standard
  9
$DIMCLRD
 70
     0
  9
$DIMCLRE
 70
     0
  9
$DIMCLRT
 70
     0
  9
$DIMTFAC
 40
1.0
  9
$DIMGAP
 40
0.09
  9
$DIMJUST
 70
     0
  9
$DIMSD1
 70
     0
  9
$DIMSD2
 70
     0
  9
$DIMTOLJ
 70
     1
  9
$DIMTZIN
 70
     0
  9
$DIMALTZ
 70
     0
  9
$DIMALTTZ
 70
     0
  9
$DIMUPT
 70
     0
  9
$DIMDEC
 70
     4
  9
$DIMTDEC
 70
     4
  9
$DIMALTU
 70
     2
  9
$DIMALTTD
 70
     2
  9
$DIMTXSTY
  7
Standard
  9
$DIMAUNIT
 70
     0
  9
$DIMADEC
 70
     0
  9
$DIMALTRND
 40
0.0
  9
$DIMAZIN
 70
     0
  9
$DIMDSEP
 70
    46
  9
$DIMATFIT
 70
     3
  9
$DIMFRAC
 70
     0
  9
$DIMLDRBLK
  1

  9
$DIMLUNIT
 70
     2
  9
$DIMLWD
 70
    -2
  9
$DIMLWE
 70
    -2
  9
$DIMTMOVE
 70
     2
  9
$LUNITS
 70
     2
  9
$LUPREC
 70
     1
  9
$SKETCHINC
 40
0.1
  9
$FILLETRAD
 40
0.5
  9
$AUNITS
 70
     0
  9
$AUPREC
 70
     0
  9
$MENU
  1
.
  9
$ELEVATION
 40
0.0
  9
$PELEVATION
 40
0.0
  9
$THICKNESS
 40
0.0
  9
$LIMCHECK
 70
     0
  9
$CHAMFERA
 40
0.0
  9
$CHAMFERB
 40
0.0
  9
$CHAMFERC
 40
0.0
  9
$CHAMFERD
 40
0.0
  9
$SKPOLY
 70
     0
  9
$TDCREATE
 40
2456729.438562199
  9
$TDUCREATE
 40
2456729.438562199
  9
$TDUPDATE
 40
2456945.701585648
  9
$TDUUPDATE
 40
2456945.701585648
  9
$TDINDWG
 40
0.0000000116
  9
$TDUSRTIMER
 40
2456945.701388889
  9
$USRTIMER
 70
     1
  9
$ANGBASE
 50
0.0
  9
$ANGDIR
 70
     0
  9
$PDMODE
 70
     0
  9
$PDSIZE
 40
0.0
  9
$PLINEWID
 40
0.0
  9
$SPLFRAME
 70
     0
  9
$SPLINETYPE
 70
     6
  9
$SPLINESEGS
 70
     8
  9
$HANDSEED
  5
14B
  9
$SURFTAB1
 70
     6
  9
$SURFTAB2
 70
     6
  9
$SURFTYPE
 70
     6
  9
$SURFU
 70
     6
  9
$SURFV
 70
     6
  9
$UCSBASE
  2

  9
$UCSNAME
  2

  9
$UCSORG
 10
0.0
 20
0.0
 30
0.0
  9
$UCSXDIR
 10
1.0
 20
0.0
 30
0.0
  9
$UCSYDIR
 10
0.0
 20
1.0
 30
0.0
  9
$UCSORTHOREF
  2

  9
$UCSORTHOVIEW
 70
     0
  9
$UCSORGTOP
 10
0.0
 20
0.0
 30
0.0
  9
$UCSORGBOTTOM
 10
0.0
 20
0.0
 30
0.0
  9
$UCSORGLEFT
 10
0.0
 20
0.0
 30
0.0
  9
$UCSORGRIGHT
 10
0.0
 20
0.0
 30
0.0
  9
$UCSORGFRONT
 10
0.0
 20
0.0
 30
0.0
  9
$UCSORGBACK
 10
0.0
 20
0.0
 30
0.0
  9
$PUCSBASE
  2

  9
$PUCSNAME
  2

  9
$PUCSORG
 10
0.0
 20
0.0
 30
0.0
  9
$PUCSXDIR
 10
1.0
 20
0.0
 30
0.0
  9
$PUCSYDIR
 10
0.0
 20
1.0
 30
0.0
  9
$PUCSORTHOREF
  2

  9
$PUCSORTHOVIEW
 70
     0
  9
$PUCSORGTOP
 10
0.0
 20
0.0
 30
0.0
  9
$PUCSORGBOTTOM
 10
0.0
 20
0.0
 30
0.0
  9
$PUCSORGLEFT
 10
0.0
 20
0.0
 30
0.0
  9
$PUCSORGRIGHT
 10
0.0
 20
0.0
 30
0.0
  9
$PUCSORGFRONT
 10
0.0
 20
0.0
 30
0.0
  9
$PUCSORGBACK
 10
0.0
 20
0.0
 30
0.0
  9
$USERI1
 70
     0
  9
$USERI2
 70
     0
  9
$USERI3
 70
     0
  9
$USERI4
 70
     0
  9
$USERI5
 70
     0
  9
$USERR1
 40
0.0
  9
$USERR2
 40
0.0
  9
$USERR3
 40
0.0
  9
$USERR4
 40
0.0
  9
$USERR5
 40
0.0
  9
$WORLDVIEW
 70
     1
  9
$SHADEDGE
 70
     3
  9
$SHADEDIF
 70
    70
  9
$TILEMODE
 70
     1
  9
$MAXACTVP
 70
    64
  9
$PINSBASE
 10
0.0
 20
0.0
 30
0.0
  9
$PLIMCHECK
 70
     0
  9
$PEXTMIN
 10
1.000000000000000E+20
 20
1.000000000000000E+20
 30
1.000000000000000E+20
  9
$PEXTMAX
 10
-1.000000000000000E+20
 20
-1.000000000000000E+20
 30
-1.000000000000000E+20
  9
$PLIMMIN
 10
0.0
 20
0.0
  9
$PLIMMAX
 10
0.0
 20
0.0
  9
$UNITMODE
 70
     0
  9
$VISRETAIN
 70
     1
  9
$PLINEGEN
 70
     0
  9
$PSLTSCALE
 70
     1
  9
$TREEDEPTH
 70
  3020
  9
$CMLSTYLE
  2
Standard
  9
$CMLJUST
 70
     0
  9
$CMLSCALE
 40
1.0
  9
$PROXYGRAPHICS
 70
     1
  9
$MEASUREMENT
 70
     0
  9
$CELWEIGHT
370
    -1
  9
$ENDCAPS
280
     0
  9
$JOINSTYLE
280
     0
  9
$LWDISPLAY
290
     0
  9
$INSUNITS
 70
     4
  9
$HYPERLINKBASE
  1

  9
$STYLESHEET
  1

  9
$XEDIT
290
     1
  9
$CEPSNTYPE
380
     0
  9
$PSTYLEMODE
290
     1
  9
$FINGERPRINTGUID
  2
{67183DCB-BB7E-4920-9850-5833DAB73A51}
  9
$VERSIONGUID
  2
{FAEB1C32-E019-11D5-929B-00C0DF256EC4}
  9
$EXTNAMES
290
     1
  9
$PSVPSCALE
 40
0.0
  9
$OLESTARTUP
290
     0
  9
$SORTENTS
280
   127
  9
$INDEXCTL
280
     0
  9
$HIDETEXT
280
     1
  9
$XCLIPFRAME
290
     0
  9
$HALOGAP
280
     0
  9
$OBSCOLOR
 70
   257
  9
$OBSLTYPE
280
     0
  9
$INTERSECTIONDISPLAY
280
     0
  9
$INTERSECTIONCOLOR
 70
   257
  9
$DIMASSOC
280
     2
  9
$PROJECTNAME
  1

  0
ENDSEC
  0
SECTION
  2
CLASSES
  0
CLASS
  1
ACDBDICTIONARYWDFLT
  2
AcDbDictionaryWithDefault
  3
ObjectDBX Classes
 90
        0
 91
        4
280
     0
281
     0
  0
CLASS
  1
VISUALSTYLE
  2
AcDbVisualStyle
  3
ObjectDBX Classes
 90
     4095
 91
        4
280
     0
281
     0
  0
CLASS
  1
MATERIAL
  2
AcDbMaterial
  3
ObjectDBX Classes
 90
     1153
 91
        4
280
     0
281
     0
  0
CLASS
  1
SCALE
  2
AcDbScale
  3
ObjectDBX Classes
 90
     1153
 91
        4
280
     0
281
     0
  0
CLASS
  1
SUN
  2
AcDbSun
  3
SCENEOE
 90
     1153
 91
        4
280
     0
281
     0
  0
CLASS
  1
DICTIONARYVAR
  2
AcDbDictionaryVar
  3
ObjectDBX Classes
 90
        0
 91
        4
280
     0
281
     0
  0
CLASS
  1
TABLESTYLE
  2
AcDbTableStyle
  3
ObjectDBX Classes
 90
     4095
 91
        4
280
     0
281
     0
  0
CLASS
  1
MLEADERSTYLE
  2
AcDbMLeaderStyle
  3
ACDB_MLEADERSTYLE_CLASS
 90
     4095
 91
        4
280
     0
281
     0
  0
CLASS
  1
RASTERVARIABLES
  2
AcDbRasterVariables
  3
ISM
 90
        0
 91
        4
280
     0
281
     0
  0
CLASS
  1
CELLSTYLEMAP
  2
AcDbCellStyleMap
  3
ObjectDBX Classes
 90
     1152
 91
        4
280
     0
281
     0
  0
ENDSEC
  0
SECTION
  2
TABLES
  0
TABLE
  2
VPORT
  5
8
330
0
100
AcDbSymbolTable
 70
     1
  0
VPORT
  5
29
330
8
100
AcDbSymbolTableRecord
100
AcDbViewportTableRecord
  2
*Active
 70
     0
 10
0.0
 20
0.0
 11
1.0
 21
1.0
 12
1088.846131437895
 22
881.603032582156
 13
0.0
 23
0.0
 14
0.5
 24
0.5
 15
0.5
 25
0.5
 16
0.0
 26
0.0
 36
1.0
 17
0.0
 27
0.0
 37
0.0
 40
797.2520942620503
 41
1.550219115707473
 42
50.0
 43
0.0
 44
0.0
 50
0.0
 51
0.0
 71
     0
 72
   100
 73
     1
 74
     3
 75
     0
 76
     0
 77
     0
 78
     0
281
     0
 65
     1
110
0.0
120
0.0
130
0.0
111
1.0
121
0.0
131
0.0
112
0.0
122
1.0
132
0.0
 79
     0
146
0.0
  0
ENDTAB
  0
TABLE
  2
LTYPE
  5
5
330
0
100
AcDbSymbolTable
 70
     2
  0
LTYPE
  5
14
330
5
100
AcDbSymbolTableRecord
100
AcDbLinetypeTableRecord
  2
ByBlock
 70
     0
  3

 72
    65
 73
     0
 40
0.0
  0
LTYPE
  5
15
330
5
100
AcDbSymbolTableRecord
100
AcDbLinetypeTableRecord
  2
ByLayer
 70
     0
  3

 72
    65
 73
     0
 40
0.0
  0
LTYPE
  5
16
330
5
100
AcDbSymbolTableRecord
100
AcDbLinetypeTableRecord
  2
Continuous
 70
     0
  3
Solid line
 72
    65
 73
     0
 40
0.0
  0
LTYPE
  5
77
330
5
100
AcDbSymbolTableRecord
100
AcDbLinetypeTableRecord
  2
PHANTOM
 70
     0
  3

 72
    65
 73
     6
 40
12.7
 49
6.35
 74
     0
 49
-1.27
 74
     0
 49
1.27
 74
     0
 49
-1.27
 74
     0
 49
1.27
 74
     0
 49
-1.27
 74
     0
  0
ENDTAB
  0
TABLE
  2
LAYER
  5
2
330
0
100
AcDbSymbolTable
 70
     3
  0
LAYER
  5
10
330
2
100
AcDbSymbolTableRecord
100
AcDbLayerTableRecord
  2
0
 70
     0
 62
     7
  6
Continuous
370
    -3
390
F
  0
LAYER
  5
6A
330
2
100
AcDbSymbolTableRecord
100
AcDbLayerTableRecord
  2
Ios54
 70
     0
 62
   178
420
        0
  6
Continuous
370
    -3
390
F
  0
LAYER
  5
AA
330
2
100
AcDbSymbolTableRecord
100
AcDbLayerTableRecord
  2
Boundingbox
 70
     0
 62
     1
420
 16711680
  6
Continuous
370
    -3
390
F
  0
ENDTAB
  0
TABLE
  2
STYLE
  5
3
330
0
100
AcDbSymbolTable
 70
     1
  0
STYLE
  5
11
330
3
100
AcDbSymbolTableRecord
100
AcDbTextStyleTableRecord
  2
Standard
 70
     0
 40
0.0
 41
1.0
 50
0.0
 71
     0
 42
0.2
  3
txt
  4

  0
ENDTAB
  0
TABLE
  2
VIEW
  5
6
330
0
100
AcDbSymbolTable
 70
     0
  0
ENDTAB
  0
TABLE
  2
UCS
  5
7
330
0
100
AcDbSymbolTable
 70
     0
  0
ENDTAB
  0
TABLE
  2
APPID
  5
9
330
0
100
AcDbSymbolTable
 70
     2
  0
APPID
  5
12
330
9
100
AcDbSymbolTableRecord
100
AcDbRegAppTableRecord
  2
ACAD
 70
     0
  0
APPID
  5
149
330
9
100
AcDbSymbolTableRecord
100
AcDbRegAppTableRecord
  2
ACAD_MLEADERVER
 70
     0
  0
ENDTAB
  0
TABLE
  2
DIMSTYLE
  5
A
330
0
100
AcDbSymbolTable
 70
     1
100
AcDbDimStyleTable
  0
DIMSTYLE
105
27
330
A
100
AcDbSymbolTableRecord
100
AcDbDimStyleTableRecord
  2
Standard
 70
     0
178
     0
340
11
  0
ENDTAB
  0
TABLE
  2
BLOCK_RECORD
  5
1
330
0
100
AcDbSymbolTable
 70
     4
  0
BLOCK_RECORD
  5
1F
330
1
100
AcDbSymbolTableRecord
100
AcDbBlockTableRecord
  2
*Model_Space
340
22
  0
BLOCK_RECORD
  5
1B
330
1
100
AcDbSymbolTableRecord
100
AcDbBlockTableRecord
  2
*Paper_Space
340
1E
  0
BLOCK_RECORD
  5
23
330
1
100
AcDbSymbolTableRecord
100
AcDbBlockTableRecord
  2
*Paper_Space0
340
26
  0
BLOCK_RECORD
  5
C4
330
1
100
AcDbSymbolTableRecord
100
AcDbBlockTableRecord
  2
_D2
340
0
  0
BLOCK_RECORD
  5
D5
330
1
100
AcDbSymbolTableRecord
100
AcDbBlockTableRecord
  2
_D3
340
0
  0
BLOCK_RECORD
  5
E6
330
1
100
AcDbSymbolTableRecord
100
AcDbBlockTableRecord
  2
_D6
340
0
  0
ENDTAB
  0
ENDSEC
  0
SECTION
  2
BLOCKS
  0
BLOCK
  5
20
330
1F
100
AcDbEntity
  8
0
100
AcDbBlockBegin
  2
*Model_Space
 70
     0
 10
0.0
 20
0.0
 30
0.0
  3
*Model_Space
  1
*Model_Space
  0
ENDBLK
  5
21
330
1F
100
AcDbEntity
  8
0
100
AcDbBlockEnd
  0
BLOCK
  5
1C
330
1B
100
AcDbEntity
 67
     1
  8
0
100
AcDbBlockBegin
  2
*Paper_Space
 70
     0
 10
0.0
 20
0.0
 30
0.0
  3
*Paper_Space
  1
*Paper_Space
  0
ENDBLK
  5
1D
330
1B
100
AcDbEntity
 67
     1
  8
0
100
AcDbBlockEnd
  0
BLOCK
  5
24
330
23
100
AcDbEntity
  8
0
100
AcDbBlockBegin
  2
*Paper_Space0
 70
     0
 10
0.0
 20
0.0
 30
0.0
  3
*Paper_Space0
  1
*Paper_Space0
  0
ENDBLK
  5
25
330
23
100
AcDbEntity
  8
0
100
AcDbBlockEnd
  0
BLOCK
  5
D3
330
C4
100
AcDbEntity
  8
0
100
AcDbBlockBegin
  2
_D2
 70
     0
 10
0.0
 20
0.0
 30
0.0
  3
_D2
  1
_D2
  0
LINE
  5
C5
330
C4
100
AcDbEntity
  8
0
  6
Continuous
 62
     7
420
 16777215
370
     0
100
AcDbLine
 10
483.005231162
 20
1346.0125820086
 30
0.0
 11
498.005231162
 21
1343.4725820086
 31
0.0
  0
LINE
  5
C6
330
C4
100
AcDbEntity
  8
0
  6
Continuous
 62
     7
420
 16777215
370
     0
100
AcDbLine
 10
498.005231162
 20
1343.4725820086
 30
0.0
 11
498.005231162
 21
1348.5525820086
 31
0.0
  0
LINE
  5
C7
330
C4
100
AcDbEntity
  8
0
  6
Continuous
 62
     7
420
 16777215
370
     0
100
AcDbLine
 10
498.005231162
 20
1348.5525820086
 30
0.0
 11
483.005231162
 21
1346.0125820086
 31
0.0
  0
LINE
  5
C8
330
C4
100
AcDbEntity
  8
0
  6
Continuous
 62
     7
420
 16777215
370
     0
100
AcDbLine
 10
490.505231162
 20
1347.2825820086
 30
0.0
 11
498.005231162
 21
1346.0125820086
 31
0.0
  0
LINE
  5
C9
330
C4
100
AcDbEntity
  8
0
  6
Continuous
 62
     7
420
 16777215
370
     0
100
AcDbLine
 10
490.505231162
 20
1344.7425820086
 30
0.0
 11
490.9480346782921
 21
1347.357563404025
 31
0.0
  0
LINE
  5
CA
330
C4
100
AcDbEntity
  8
0
  6
Continuous
 62
     7
420
 16777215
370
     0
100
AcDbLine
 10
1023.005231162
 20
1346.0125820086
 30
0.0
 11
1008.005231162
 21
1348.5525820086
 31
0.0
  0
LINE
  5
CB
330
C4
100
AcDbEntity
  8
0
  6
Continuous
 62
     7
420
 16777215
370
     0
100
AcDbLine
 10
1008.005231162
 20
1348.5525820086
 30
0.0
 11
1008.005231162
 21
1343.4725820086
 31
0.0
  0
LINE
  5
CC
330
C4
100
AcDbEntity
  8
0
  6
Continuous
 62
     7
420
 16777215
370
     0
100
AcDbLine
 10
1008.005231162
 20
1343.4725820086
 30
0.0
 11
1023.005231162
 21
1346.0125820086
 31
0.0
  0
LINE
  5
CD
330
C4
100
AcDbEntity
  8
0
  6
Continuous
 62
     7
420
 16777215
370
     0
100
AcDbLine
 10
1015.505231162
 20
1344.7425820086
 30
0.0
 11
1008.005231162
 21
1346.0125820086
 31
0.0
  0
LINE
  5
CE
330
C4
100
AcDbEntity
  8
0
  6
Continuous
 62
     7
420
 16777215
370
     0
100
AcDbLine
 10
1015.505231162
 20
1347.2825820086
 30
0.0
 11
1015.062427645708
 21
1344.667600613175
 31
0.0
  0
LINE
  5
CF
330
C4
100
AcDbEntity
  8
0
  6
Continuous
 62
     7
420
 16777215
370
     0
100
AcDbLine
 10
483.005231162
 20
1095.4128827106
 30
0.0
 11
483.005231162
 21
1351.0125820086
 31
0.0
  0
LINE
  5
D0
330
C4
100
AcDbEntity
  8
0
  6
Continuous
 62
     7
420
 16777215
370
     0
100
AcDbLine
 10
1023.005231162
 20
1095.4128827106
 30
0.0
 11
1023.005231162
 21
1351.0125820086
 31
0.0
  0
LINE
  5
D1
330
C4
100
AcDbEntity
  8
0
  6
Continuous
 62
     7
420
 16777215
370
     0
100
AcDbLine
 10
483.005231162
 20
1346.0125820086
 30
0.0
 11
1023.005231162
 21
1346.0125820086
 31
0.0
  0
MTEXT
  5
D2
330
C4
100
AcDbEntity
  8
0
  6
Continuous
 62
     7
420
 16777215
370
     0
100
AcDbMText
 10
732.9009068172
 20
1361.3605450763
 30
0.0
 40
11.90625
 41
38.08565512048193
 71
     1
 72
     1
  1
\fArial;540
 73
     2
 44
0.9638554216867471
1001
ACAD
1000
ACAD_MTEXT_DEFINED_HEIGHT_BEGIN
1070
    46
1040
12.19314759036145
1000
ACAD_MTEXT_DEFINED_HEIGHT_END
  0
ENDBLK
  5
D4
330
C4
100
AcDbEntity
  8
0
100
AcDbBlockEnd
  0
BLOCK
  5
E4
330
D5
100
AcDbEntity
  8
0
100
AcDbBlockBegin
  2
_D3
 70
     0
 10
0.0
 20
0.0
 30
0.0
  3
_D3
  1
_D3
  0
LINE
  5
D6
330
D5
100
AcDbEntity
  8
0
  6
Continuous
 62
     7
420
 16777215
370
     0
100
AcDbLine
 10
1163.9466683301
 20
1270.4128827106
 30
0.0
 11
1161.4066683301
 21
1255.4128827106
 31
0.0
  0
LINE
  5
D7
330
D5
100
AcDbEntity
  8
0
  6
Continuous
 62
     7
420
 16777215
370
     0
100
AcDbLine
 10
1161.4066683301
 20
1255.4128827106
 30
0.0
 11
1166.4866683301
 21
1255.4128827106
 31
0.0
  0
LINE
  5
D8
330
D5
100
AcDbEntity
  8
0
  6
Continuous
 62
     7
420
 16777215
370
     0
100
AcDbLine
 10
1166.4866683301
 20
1255.4128827106
 30
0.0
 11
1163.9466683301
 21
1270.4128827106
 31
0.0
  0
LINE
  5
D9
330
D5
100
AcDbEntity
  8
0
  6
Continuous
 62
     7
420
 16777215
370
     0
100
AcDbLine
 10
1165.2166683301
 20
1262.9128827106
 30
0.0
 11
1163.9466683301
 21
1255.4128827106
 31
0.0
  0
LINE
  5
DA
330
D5
100
AcDbEntity
  8
0
  6
Continuous
 62
     7
420
 16777215
370
     0
100
AcDbLine
 10
1162.6766683301
 20
1262.9128827106
 30
0.0
 11
1165.291649725526
 21
1262.470079194308
 31
0.0
  0
LINE
  5
DB
330
D5
100
AcDbEntity
  8
0
  6
Continuous
 62
     7
420
 16777215
370
     0
100
AcDbLine
 10
1163.9466683301
 20
910.4128827106
 30
0.0
 11
1166.4866683301
 21
925.4128827106
 31
0.0
  0
LINE
  5
DC
330
D5
100
AcDbEntity
  8
0
  6
Continuous
 62
     7
420
 16777215
370
     0
100
AcDbLine
 10
1166.4866683301
 20
925.4128827106
 30
0.0
 11
1161.4066683301
 21
925.4128827106
 31
0.0
  0
LINE
  5
DD
330
D5
100
AcDbEntity
  8
0
  6
Continuous
 62
     7
420
 16777215
370
     0
100
AcDbLine
 10
1161.4066683301
 20
925.4128827106
 30
0.0
 11
1163.9466683301
 21
910.4128827106
 31
0.0
  0
LINE
  5
DE
330
D5
100
AcDbEntity
  8
0
  6
Continuous
 62
     7
420
 16777215
370
     0
100
AcDbLine
 10
1162.6766683301
 20
917.9128827105999
 30
0.0
 11
1163.9466683301
 21
925.4128827106001
 31
0.0
  0
LINE
  5
DF
330
D5
100
AcDbEntity
  8
0
  6
Continuous
 62
     7
420
 16777215
370
     0
100
AcDbLine
 10
1165.2166683301
 20
917.9128827106001
 30
0.0
 11
1162.601686934674
 21
918.3556862268922
 31
0.0
  0
LINE
  5
E0
330
D5
100
AcDbEntity
  8
0
  6
Continuous
 62
     7
420
 16777215
370
     0
100
AcDbLine
 10
758.005231162
 20
1270.4128827106
 30
0.0
 11
1168.9466683301
 21
1270.4128827106
 31
0.0
  0
LINE
  5
E1
330
D5
100
AcDbEntity
  8
0
  6
Continuous
 62
     7
420
 16777215
370
     0
100
AcDbLine
 10
758.005231162
 20
910.4128827106
 30
0.0
 11
1168.9466683301
 21
910.4128827106
 31
0.0
  0
LINE
  5
E2
330
D5
100
AcDbEntity
  8
0
  6
Continuous
 62
     7
420
 16777215
370
     0
100
AcDbLine
 10
1163.9466683301
 20
1270.4128827106
 30
0.0
 11
1163.9466683301
 21
910.4128827106
 31
0.0
  0
MTEXT
  5
E3
330
D5
100
AcDbEntity
  8
0
  6
Continuous
 62
     7
420
 16777215
370
     0
100
AcDbMText
 10
1148.5987052624
 20
1076.2718500767
 30
0.0
 40
11.90625
 41
38.08565512048193
 71
     1
 72
     1
  1
\fArial;360
 11
-2.214322815254576E-14
 21
1.0
 31
0.0
 73
     2
 44
0.9638554216867471
1001
ACAD
1000
ACAD_MTEXT_DEFINED_HEIGHT_BEGIN
1070
    46
1040
12.19314759036145
1000
ACAD_MTEXT_DEFINED_HEIGHT_END
  0
ENDBLK
  5
E5
330
D5
100
AcDbEntity
  8
0
100
AcDbBlockEnd
  0
BLOCK
  5
F5
330
E6
100
AcDbEntity
  8
0
100
AcDbBlockBegin
  2
_D6
 70
     0
 10
0.0
 20
0.0
 30
0.0
  3
_D6
  1
_D6
  0
LINE
  5
E7
330
E6
100
AcDbEntity
  8
0
  6
Continuous
 62
     7
420
 16777215
370
     0
100
AcDbLine
 10
1083.1686279153
 20
490.7931824537
 30
0.0
 11
1085.7086279153
 21
505.7931824537
 31
0.0
  0
LINE
  5
E8
330
E6
100
AcDbEntity
  8
0
  6
Continuous
 62
     7
420
 16777215
370
     0
100
AcDbLine
 10
1085.7086279153
 20
505.7931824537
 30
0.0
 11
1080.6286279153
 21
505.7931824537
 31
0.0
  0
LINE
  5
E9
330
E6
100
AcDbEntity
  8
0
  6
Continuous
 62
     7
420
 16777215
370
     0
100
AcDbLine
 10
1080.6286279153
 20
505.7931824537
 30
0.0
 11
1083.1686279153
 21
490.7931824537
 31
0.0
  0
LINE
  5
EA
330
E6
100
AcDbEntity
  8
0
  6
Continuous
 62
     7
420
 16777215
370
     0
100
AcDbLine
 10
1081.8986279153
 20
498.2931824537
 30
0.0
 11
1083.1686279153
 21
505.7931824537
 31
0.0
  0
LINE
  5
EB
330
E6
100
AcDbEntity
  8
0
  6
Continuous
 62
     7
420
 16777215
370
     0
100
AcDbLine
 10
1084.4386279153
 20
498.2931824537001
 30
0.0
 11
1081.823646519875
 21
498.735985969992
 31
0.0
  0
LINE
  5
EC
330
E6
100
AcDbEntity
  8
0
  6
Continuous
 62
     7
420
 16777215
370
     0
100
AcDbLine
 10
1083.1686279153
 20
615.7931824537
 30
0.0
 11
1080.6286279153
 21
600.7931824537
 31
0.0
  0
LINE
  5
ED
330
E6
100
AcDbEntity
  8
0
  6
Continuous
 62
     7
420
 16777215
370
     0
100
AcDbLine
 10
1080.6286279153
 20
600.7931824537
 30
0.0
 11
1085.7086279153
 21
600.7931824537
 31
0.0
  0
LINE
  5
EE
330
E6
100
AcDbEntity
  8
0
  6
Continuous
 62
     7
420
 16777215
370
     0
100
AcDbLine
 10
1085.7086279153
 20
600.7931824537
 30
0.0
 11
1083.1686279153
 21
615.7931824537
 31
0.0
  0
LINE
  5
EF
330
E6
100
AcDbEntity
  8
0
  6
Continuous
 62
     7
420
 16777215
370
     0
100
AcDbLine
 10
1084.4386279153
 20
608.2931824537
 30
0.0
 11
1083.1686279153
 21
600.7931824537
 31
0.0
  0
LINE
  5
F0
330
E6
100
AcDbEntity
  8
0
  6
Continuous
 62
     7
420
 16777215
370
     0
100
AcDbLine
 10
1081.8986279153
 20
608.2931824537
 30
0.0
 11
1084.513609310726
 21
607.8503789374079
 31
0.0
  0
LINE
  5
F1
330
E6
100
AcDbEntity
  8
0
  6
Continuous
 62
     7
420
 16777215
370
     0
100
AcDbLine
 10
1012.6571610491
 20
490.7931824537
 30
0.0
 11
1088.1686279153
 21
490.7931824537
 31
0.0
  0
LINE
  5
F2
330
E6
100
AcDbEntity
  8
0
  6
Continuous
 62
     7
420
 16777215
370
     0
100
AcDbLine
 10
1028.005231162
 20
615.7931824537
 30
0.0
 11
1088.1686279153
 21
615.7931824537
 31
0.0
  0
LINE
  5
F3
330
E6
100
AcDbEntity
  8
0
  6
Continuous
 62
     7
420
 16777215
370
     0
100
AcDbLine
 10
1083.1686279153
 20
490.7931824537
 30
0.0
 11
1083.1686279153
 21
615.7931824537
 31
0.0
  0
MTEXT
  5
F4
330
E6
100
AcDbEntity
  8
0
  6
Continuous
 62
     7
420
 16777215
370
     0
100
AcDbMText
 10
1067.8206648476
 20
544.5899315489
 30
0.0
 40
11.90625
 41
37.00978915662651
 71
     1
 72
     1
  1
\fArial;125
 11
6.123233995736766E-17
 21
1.0
 31
0.0
 73
     2
 44
0.9638554216867471
1001
ACAD
1000
ACAD_MTEXT_DEFINED_HEIGHT_BEGIN
1070
    46
1040
12.19314759036145
1000
ACAD_MTEXT_DEFINED_HEIGHT_END
  0
ENDBLK
  5
F6
330
E6
100
AcDbEntity
  8
0
100
AcDbBlockEnd
  0
ENDSEC
  0
SECTION
  2
ENTITIES
  0
SPLINE
  5
6B
330
1F
100
AcDbEntity
  8
Ios54
  6
Continuous
 62
     7
420
 16777215
370
    15
100
AcDbSpline
210
0.0
220
0.0
230
1.0
 70
    24
 71
     3
 72
   133
 73
   129
 74
     0
 42
0.000000001
 43
0.0000000001
 40
0.0
 40
0.0
 40
0.0
 40
0.0
 40
0.0080802355173396
 40
0.016115907458894
 40
0.0241071315566256
 40
0.0320540254844011
 40
0.0399567088963661
 40
0.0478153034660996
 40
0.0556299329265676
 40
0.0634007231108836
 40
0.0711278019938887
 40
0.0788112997345646
 40
0.0864513487192922
 40
0.094048083605964
 40
0.1016016413689648
 40
0.1091121613450296
 40
0.1165797852799924
 40
0.1240046573764301
 40
0.1313869243422181
 40
0.1387267354400011
 40
0.1460242425375922
 40
0.1532796001593028
 40
0.1604929655382164
 40
0.1676644986694079
 40
0.1747943623641162
 40
0.1818827223048738
 40
0.1889297471015967
 40
0.1959356083486372
 40
0.2029004806828026
 40
0.209824541842334
 40
0.2167079727268502
 40
0.2235509574582495
 40
0.2303536834425659
 40
0.2371163414327714
 40
0.24383912559252
 40
0.2505222335608169
 40
0.2571658665176059
 40
0.2637702292502566
 40
0.2703355302209354
 40
0.2768619816348378
 40
0.2833497995092653
 40
0.289799203743513
 40
0.2962104181895431
 40
0.3025836707234161
 40
0.3089191933174351
 40
0.3152172221129712
 40
0.3214779974939245
 40
0.3277017641607732
 40
0.3338887712051585
 40
0.3400392721849524
 40
0.3461535251997437
 40
0.3522317929666823
 40
0.3582743428966038
 40
0.3642814471703662
 40
0.3702533828153138
 40
0.3761904317817785
 40
0.3820928810195344
 40
0.3879610225540953
 40
0.3937951535627603
 40
0.3995955764502892
 40
0.4053625989240918
 40
0.4110965340688061
 40
0.4167977004201337
 40
0.4224664220377921
 40
0.4281030285774375
 40
0.4337078553614079
 40
0.439281243448122
 40
0.4448235396999669
 40
0.4503350968495002
 40
0.4558162735637838
 40
0.4612674345066574
 40
0.466688950398757
 40
0.4720811980750737
 40
0.4774445605398405
 40
0.4827794270185316
 40
0.4880861930067524
 40
0.4933652603157834
 40
0.4986170371145535
 40
0.5038419379677936
 40
0.5090403838701334
 40
0.5142128022758883
 40
0.5193596271242875
 40
0.5244812988598913
 40
0.5295782644479385
 40
0.5346509773843731
 40
0.5396998977002893
 40
0.544725491960548
 40
0.5497282332563076
 40
0.5547086011912211
 40
0.5596670818610645
 40
0.564604167826549
 40
0.5695203580790944
 40
0.5744161579993461
 40
0.5792920793082192
 40
0.5841486400102783
 40
0.5889863643292653
 40
0.5938057826356093
 40
0.6354852008029122
 40
0.6761498759837223
 40
0.7162149415500573
 40
0.7561142512256216
 40
0.7962870294319697
 40
0.8035887835057112
 40
0.810915291627145
 40
0.8182689843284301
 40
0.8256522652947683
 40
0.8330675094379045
 40
0.840517061100132
 40
0.8480032323929588
 40
0.8555283016733273
 40
0.8630945121590736
 40
0.8707040706841357
 40
0.8783591465929388
 40
0.8860618707723567
 40
0.8938143348187295
 40
0.9016185903365789
 40
0.9094766483649291
 40
0.9173904789265103
 40
0.9253620106945821
 40
0.9333931307716825
 40
0.9414856845742647
 40
0.9496414758169359
 40
0.9578622665898386
 40
0.9661497775226286
 40
0.9745056880284827
 40
0.9829316366216108
 40
0.9914292213018415
 40
0.9999999999999999
 40
0.9999999999999999
 40
0.9999999999999999
 40
0.9999999999999999
 10
1332.687031713828
 20
615.793182453735
 30
0.0
 10
1332.695949618466
 20
615.793182453735
 30
0.0
 10
1332.707352270784
 20
615.7931824537351
 30
0.0
 10
1332.734761152578
 20
615.793182453735
 30
0.0
 10
1332.773415791814
 20
615.7931824537351
 30
0.0
 10
1332.823053586979
 20
615.793182453735
 30
0.0
 10
1332.883744321633
 20
615.793182453735
 30
0.0
 10
1332.95546945676
 20
615.793182453735
 30
0.0
 10
1333.03823392255
 20
615.7931824537351
 30
0.0
 10
1333.132036413457
 20
615.793182453735
 30
0.0
 10
1333.236877281132
 20
615.7931824537351
 30
0.0
 10
1333.352756437247
 20
615.793182453735
 30
0.0
 10
1333.479673910726
 20
615.7931824537351
 30
0.0
 10
1333.617629699711
 20
615.793182453735
 30
0.0
 10
1333.766623810903
 20
615.7931824537351
 30
0.0
 10
1333.926656249133
 20
615.7931824537351
 30
0.0
 10
1334.097727020139
 20
615.793182453735
 30
0.0
 10
1334.279836129856
 20
615.7931824537351
 30
0.0
 10
1334.472983584616
 20
615.793182453735
 30
0.0
 10
1334.677169391116
 20
615.793182453735
 30
0.0
 10
1334.89239355644
 20
615.793182453735
 30
0.0
 10
1335.118656088081
 20
615.793182453735
 30
0.0
 10
1335.355956993946
 20
615.793182453735
 30
0.0
 10
1335.604296282379
 20
615.793182453735
 30
0.0
 10
1335.863673962176
 20
615.7931824537351
 30
0.0
 10
1336.134090042601
 20
615.793182453735
 30
0.0
 10
1336.415544533404
 20
615.7931824537351
 30
0.0
 10
1336.708037444838
 20
615.793182453735
 30
0.0
 10
1337.011568787676
 20
615.793182453735
 30
0.0
 10
1337.326138573233
 20
615.7931824537351
 30
0.0
 10
1337.65174681338
 20
615.793182453735
 30
0.0
 10
1337.988393520566
 20
615.7931824537351
 30
0.0
 10
1338.336078707835
 20
615.793182453735
 30
0.0
 10
1338.694802388851
 20
615.7931824537351
 30
0.0
 10
1339.064564577908
 20
615.793182453735
 30
0.0
 10
1339.445365289958
 20
615.7931824537351
 30
0.0
 10
1339.837204540631
 20
615.793182453735
 30
0.0
 10
1340.24008234625
 20
615.7931824537351
 30
0.0
 10
1340.653998723855
 20
615.793182453735
 30
0.0
 10
1341.078953691222
 20
615.793182453735
 30
0.0
 10
1341.514947266886
 20
615.7931824537351
 30
0.0
 10
1341.961979470156
 20
615.793182453735
 30
0.0
 10
1342.420050321141
 20
615.793182453735
 30
0.0
 10
1342.889159840766
 20
615.7931824537351
 30
0.0
 10
1343.36930805079
 20
615.793182453735
 30
0.0
 10
1343.860494973831
 20
615.7931824537351
 30
0.0
 10
1344.362720633379
 20
615.793182453735
 30
0.0
 10
1344.875985053814
 20
615.7931824537351
 30
0.0
 10
1345.400288260429
 20
615.793182453735
 30
0.0
 10
1345.93563027944
 20
615.793182453735
 30
0.0
 10
1346.482011138004
 20
615.793182453735
 30
0.0
 10
1347.039430864231
 20
615.793182453735
 30
0.0
 10
1347.607889487204
 20
615.793182453735
 30
0.0
 10
1348.187387036981
 20
615.793182453735
 30
0.0
 10
1348.777923544611
 20
615.7931824537351
 30
0.0
 10
1349.379499042141
 20
615.793182453735
 30
0.0
 10
1349.992113562624
 20
615.793182453735
 30
0.0
 10
1350.615767140118
 20
615.793182453735
 30
0.0
 10
1351.250459809697
 20
615.7931824537351
 30
0.0
 10
1351.89619160744
 20
615.793182453735
 30
0.0
 10
1352.552962570436
 20
615.793182453735
 30
0.0
 10
1353.220772736776
 20
615.793182453735
 30
0.0
 10
1353.899622145541
 20
615.7931824537351
 30
0.0
 10
1354.589510836792
 20
615.793182453735
 30
0.0
 10
1355.290438851551
 20
615.7931824537351
 30
0.0
 10
1356.002406231787
 20
615.793182453735
 30
0.0
 10
1356.725413020385
 20
615.7931824537351
 30
0.0
 10
1357.459459261121
 20
615.793182453735
 30
0.0
 10
1358.204544998631
 20
615.7931824537351
 30
0.0
 10
1358.960670278368
 20
615.793182453735
 30
0.0
 10
1359.727835146562
 20
615.7931824537351
 30
0.0
 10
1360.506039650173
 20
615.793182453735
 30
0.0
 10
1361.295283836836
 20
615.7931824537351
 30
0.0
 10
1362.095567754804
 20
615.793182453735
 30
0.0
 10
1362.906891452876
 20
615.7931824537351
 30
0.0
 10
1363.729254980336
 20
615.793182453735
 30
0.0
 10
1364.562658386869
 20
615.793182453735
 30
0.0
 10
1365.407101722478
 20
615.793182453735
 30
0.0
 10
1366.262585037396
 20
615.7931824537351
 30
0.0
 10
1367.129108381985
 20
615.793182453735
 30
0.0
 10
1368.006671806641
 20
615.793182453735
 30
0.0
 10
1368.895275361675
 20
615.793182453735
 30
0.0
 10
1369.794919097201
 20
615.793182453735
 30
0.0
 10
1370.705603063017
 20
615.7931824537351
 30
0.0
 10
1371.627327308457
 20
615.7931824537351
 30
0.0
 10
1372.560091882322
 20
615.793182453735
 30
0.0
 10
1373.503896832496
 20
615.793182453735
 30
0.0
 10
1374.458742206703
 20
615.793182453735
 30
0.0
 10
1375.424628048993
 20
615.793182453735
 30
0.0
 10
1376.401554412056
 20
615.793182453735
 30
0.0
 10
1377.38952131082
 20
615.793182453735
 30
0.0
 10
1378.38852889375
 20
615.7931824537351
 30
0.0
 10
1379.398576806802
 20
615.7931824537351
 30
0.0
 10
1380.419666551699
 20
615.793182453735
 30
0.0
 10
1381.451792737166
 20
615.7931824537351
 30
0.0
 10
1382.494975535888
 20
615.7931824537351
 30
0.0
 10
1386.237832715754
 20
615.793182453735
 30
0.0
 10
1393.035672328067
 20
615.793182453735
 30
0.0
 10
1403.680652827159
 20
615.793182453735
 30
0.0
 10
1415.191564206554
 20
615.793182453735
 30
0.0
 10
1427.563047713332
 20
615.793182453735
 30
0.0
 10
1437.122783362553
 20
615.793182453735
 30
0.0
 10
1443.276978748062
 20
615.793182453735
 30
0.0
 10
1445.764795389123
 20
615.7931824537351
 30
0.0
 10
1448.27999343084
 20
615.7931824537351
 30
0.0
 10
1450.822621062923
 20
615.7931824537351
 30
0.0
 10
1453.39266419764
 20
615.793182453735
 30
0.0
 10
1455.990125578245
 20
615.7931824537351
 30
0.0
 10
1458.6150034614
 20
615.793182453735
 30
0.0
 10
1461.267297369818
 20
615.7931824537351
 30
0.0
 10
1463.947006543711
 20
615.793182453735
 30
0.0
 10
1466.654130361363
 20
615.7931824537351
 30
0.0
 10
1469.388668227447
 20
615.793182453735
 30
0.0
 10
1472.150619604365
 20
615.7931824537351
 30
0.0
 10
1474.939984004262
 20
615.793182453735
 30
0.0
 10
1477.756760991041
 20
615.7931824537351
 30
0.0
 10
1480.600950179116
 20
615.7931824537351
 30
0.0
 10
1483.472551232509
 20
615.793182453735
 30
0.0
 10
1486.371563863433
 20
615.793182453735
 30
0.0
 10
1489.29798783055
 20
615.793182453735
 30
0.0
 10
1492.251822937232
 20
615.7931824537351
 30
0.0
 10
1495.233069028638
 20
615.793182453735
 30
0.0
 10
1498.241725992331
 20
615.793182453735
 30
0.0
 10
1501.277793744835
 20
615.7931824537351
 30
0.0
 10
1504.341272270787
 20
615.793182453735
 30
0.0
 10
1507.432161463015
 20
615.793182453735
 30
0.0
 10
1510.550461714763
 20
615.7931824537351
 30
0.0
 10
1512.638523645451
 20
615.793182453735
 30
0.0
 10
1513.687031713814
 20
615.793182453735
 30
0.0
  0
LINE
  5
6C
330
1F
100
AcDbEntity
  8
Ios54
  6
Continuous
 62
     7
420
 16777215
370
    15
100
AcDbLine
 10
1348.120368882881
 20
490.7931824537
 30
0.0
 11
1332.6870317138
 21
615.7931824537
 31
0.0
  0
SPLINE
  5
6D
330
1F
100
AcDbEntity
  8
Ios54
  6
Continuous
 62
     7
420
 16777215
370
    15
100
AcDbSpline
210
0.0
220
0.0
230
1.0
 70
    24
 71
     3
 72
    17
 73
    13
 74
     0
 42
0.000000001
 43
0.0000000001
 40
0.0
 40
0.0
 40
0.0
 40
0.0
 40
0.0933333333333333
 40
0.1866666666666578
 40
0.28
 40
0.3733333333333334
 40
0.4666666666666666
 40
0.5599999999999998
 40
0.6699999999999997
 40
0.78
 40
0.89
 40
1.0
 40
1.0
 40
1.0
 40
1.0
 10
1348.120368882871
 20
490.793182453735
 30
0.0
 10
1348.120368882871
 20
490.793182453735
 30
0.0
 10
1349.407998911931
 20
490.793182453735
 30
0.0
 10
1354.929634572864
 20
490.793182453735
 30
0.0
 10
1363.739224408171
 20
490.793182453735
 30
0.0
 10
1375.498964583337
 20
490.793182453735
 30
0.0
 10
1389.84727409194
 20
490.793182453735
 30
0.0
 10
1407.449374833295
 20
490.793182453735
 30
0.0
 10
1428.562582166293
 20
490.793182453735
 30
0.0
 10
1453.733427303843
 20
490.793182453735
 30
0.0
 10
1481.925611528618
 20
490.793182453735
 30
0.0
 10
1502.896428874918
 20
490.793182453735
 30
0.0
 10
1513.687031713814
 20
490.793182453735
 30
0.0
  0
SPLINE
  5
6E
330
1F
100
AcDbEntity
  8
Ios54
  6
Continuous
 62
     7
420
 16777215
370
    15
100
AcDbSpline
210
0.0
220
0.0
230
1.0
 70
    24
 71
     3
 72
   116
 73
   112
 74
     0
 42
0.000000001
 43
0.0000000001
 40
0.0
 40
0.0
 40
0.0
 40
0.0
 40
0.0043433070164254
 40
0.0086675542721744
 40
0.0129729426950066
 40
0.0172596758645365
 40
0.0215279600297157
 40
0.0257780041254136
 40
0.03001001978804
 40
0.0342242213701596
 40
0.03842082595404
 40
0.0426000533640807
 40
0.0467621261780654
 40
0.0509072697371797
 40
0.0550357121547396
 40
0.0591476843235696
 40
0.0632434199219744
 40
0.0673231554182451
 40
0.0713871300736417
 40
0.0754355859437933
 40
0.0794687678784581
 40
0.0834869235195864
 40
0.0874903032976291
 40
0.0914791604260349
 40
0.095453750893883
 40
0.0994143334565963
 40
0.1033611696246823
 40
0.1072945236504519
 40
0.111214662512667
 40
0.1151218558990687
 40
0.1190163761867446
 40
0.1228984984202889
 40
0.1267685002877204
 40
0.1306266620941188
 40
0.134473266732948
 40
0.1383085996550366
 40
0.1421329488351894
 40
0.1459466047364076
 40
0.1497498602717012
 40
0.1535430107634786
 40
0.1573263539005046
 40
0.161100189692425
 40
0.1648648204218534
 40
0.168620550594033
 40
0.1723676868840773
 40
0.1761065380818113
 40
0.1798374150342328
 40
0.1835606305856219
 40
0.1872764995153324
 40
0.1909853384733015
 40
0.1946874659133282
 40
0.1983832020241631
 40
0.2020728686584734
 40
0.2419208874282201
 40
0.281498141933267
 40
0.3212403391278628
 40
0.3615778414174787
 40
0.4029224255064393
 40
0.4115947443127426
 40
0.4203280408596889
 40
0.429125397477659
 40
0.4379898296725986
 40
0.4469242850338228
 40
0.4559316424072619
 40
0.4650147113210198
 40
0.4741762316489677
 40
0.4834188734972076
 40
0.4927452372976582
 40
0.502157854092683
 40
0.511659185994564
 40
0.5212516268037388
 40
0.5309375027699813
 40
0.5407190734811427
 40
0.5505985328646094
 40
0.5605780102872892
 40
0.57065957174066
 40
0.5808452210981873
 40
0.5911369014332443
 40
0.6015364963864915
 40
0.6120458315725206
 40
0.622666676016401
 40
0.6334007436115863
 40
0.6442496945914278
 40
0.6552151370073129
 40
0.6662986282071691
 40
0.6775016763087608
 40
0.6888257416628626
 40
0.7002722383019854
 40
0.7118425353709048
 40
0.7235379585357465
 40
0.7353597913688779
 40
0.7473092767072672
 40
0.7593876179823911
 40
0.7715959805201119
 40
0.7839354928092837
 40
0.7964072477381167
 40
0.8090123037976212
 40
0.8217516862516379
 40
0.8346263882732106
 40
0.847637372047197
 40
0.8607855698392032
 40
0.8740718850310297
 40
0.8874971931229705
 40
0.9010623427033686
 40
0.9147681563859538
 40
0.9286154317155264
 40
0.942604942042637
 40
0.9567374373679428
 40
0.9710136451569646
 40
0.9854342711260056
 40
1.0
 40
1.0
 40
1.0
 40
1.0
 10
1513.687031713814
 20
615.793182453735
 30
0.0
 10
1514.222684698966
 20
615.793182453735
 30
0.0
 10
1515.29164006001
 20
615.7931824537351
 30
0.0
 10
1516.891498916412
 20
615.793182453735
 30
0.0
 10
1518.484233137149
 20
615.7931824537351
 30
0.0
 10
1520.069842746365
 20
615.793182453735
 30
0.0
 10
1521.648327739552
 20
615.7931824537351
 30
0.0
 10
1523.219688119223
 20
615.793182453735
 30
0.0
 10
1524.783923885382
 20
615.7931824537351
 30
0.0
 10
1526.341035038038
 20
615.793182453735
 30
0.0
 10
1527.891021576499
 20
615.7931824537351
 30
0.0
 10
1529.43388349954
 20
615.793182453735
 30
0.0
 10
1530.969620805324
 20
615.7931824537351
 30
0.0
 10
1532.498233491393
 20
615.793182453735
 30
0.0
 10
1534.019721554647
 20
615.793182453735
 30
0.0
 10
1535.534084991318
 20
615.7931824537351
 30
0.0
 10
1537.041323796951
 20
615.793182453735
 30
0.0
 10
1538.541437966378
 20
615.793182453735
 30
0.0
 10
1540.034427493707
 20
615.793182453735
 30
0.0
 10
1541.520292372289
 20
615.793182453735
 30
0.0
 10
1542.999032594707
 20
615.7931824537351
 30
0.0
 10
1544.470648152757
 20
615.793182453735
 30
0.0
 10
1545.935139037429
 20
615.793182453735
 30
0.0
 10
1547.392505238889
 20
615.7931824537351
 30
0.0
 10
1548.842746746467
 20
615.793182453735
 30
0.0
 10
1550.285863548639
 20
615.7931824537351
 30
0.0
 10
1551.721855633019
 20
615.793182453735
 30
0.0
 10
1553.150722986345
 20
615.793182453735
 30
0.0
 10
1554.572465594468
 20
615.793182453735
 30
0.0
 10
1555.987083442351
 20
615.793182453735
 30
0.0
 10
1557.394576514053
 20
615.793182453735
 30
0.0
 10
1558.794944792736
 20
615.793182453735
 30
0.0
 10
1560.188188260654
 20
615.7931824537351
 30
0.0
 10
1561.574306899159
 20
615.7931824537351
 30
0.0
 10
1562.953300688702
 20
615.7931824537351
 30
0.0
 10
1564.325169608838
 20
615.793182453735
 30
0.0
 10
1565.689913638234
 20
615.7931824537351
 30
0.0
 10
1567.047532754676
 20
615.793182453735
 30
0.0
 10
1568.398026935085
 20
615.7931824537351
 30
0.0
 10
1569.741396155536
 20
615.7931824537351
 30
0.0
 10
1571.077640391257
 20
615.793182453735
 30
0.0
 10
1572.406759616703
 20
615.793182453735
 30
0.0
 10
1573.72875380541
 20
615.7931824537351
 30
0.0
 10
1575.043622930631
 20
615.793182453735
 30
0.0
 10
1576.351366963093
 20
615.793182453735
 30
0.0
 10
1577.651985879503
 20
615.793182453735
 30
0.0
 10
1578.945479631033
 20
615.793182453735
 30
0.0
 10
1580.231848260751
 20
615.7931824537351
 30
0.0
 10
1581.511091466866
 20
615.7931824537351
 30
0.0
 10
1582.783210228137
 20
615.7931824537351
 30
0.0
 10
1584.048200754993
 20
615.793182453735
 30
0.0
 10
1585.306077003932
 20
615.793182453735
 30
0.0
 10
1590.642925909479
 20
615.7931824537351
 30
0.0
 10
1599.810856146906
 20
615.7931824537351
 30
0.0
 10
1612.182096705633
 20
615.793182453735
 30
0.0
 10
1623.693007507922
 20
615.793182453735
 30
0.0
 10
1634.338201946444
 20
615.793182453735
 30
0.0
 10
1641.44194305323
 20
615.7931824537351
 30
0.0
 10
1645.735044739373
 20
615.793182453735
 30
0.0
 10
1647.600365361087
 20
615.793182453735
 30
0.0
 10
1649.429399277996
 20
615.7931824537351
 30
0.0
 10
1651.222206690993
 20
615.793182453735
 30
0.0
 10
1652.978772309228
 20
615.7931824537351
 30
0.0
 10
1654.699101366139
 20
615.793182453735
 30
0.0
 10
1656.383193587025
 20
615.7931824537351
 30
0.0
 10
1658.031050233678
 20
615.793182453735
 30
0.0
 10
1659.642672181865
 20
615.7931824537351
 30
0.0
 10
1661.218060431769
 20
615.793182453735
 30
0.0
 10
1662.757215959225
 20
615.7931824537351
 30
0.0
 10
1664.260139746809
 20
615.793182453735
 30
0.0
 10
1665.726832767076
 20
615.7931824537351
 30
0.0
 10
1667.157295979748
 20
615.793182453735
 30
0.0
 10
1668.551530326052
 20
615.793182453735
 30
0.0
 10
1669.909536724748
 20
615.7931824537351
 30
0.0
 10
1671.231316068561
 20
615.793182453735
 30
0.0
 10
1672.516869221313
 20
615.793182453735
 30
0.0
 10
1673.766197015618
 20
615.7931824537351
 30
0.0
 10
1674.979300251122
 20
615.793182453735
 30
0.0
 10
1676.156179693218
 20
615.793182453735
 30
0.0
 10
1677.296836072201
 20
615.7931824537351
 30
0.0
 10
1678.401270082804
 20
615.793182453735
 30
0.0
 10
1679.469482384065
 20
615.793182453735
 30
0.0
 10
1680.501473599505
 20
615.793182453735
 30
0.0
 10
1681.497244317536
 20
615.793182453735
 30
0.0
 10
1682.456795092093
 20
615.793182453735
 30
0.0
 10
1683.380126443436
 20
615.793182453735
 30
0.0
 10
1684.267238859097
 20
615.793182453735
 30
0.0
 10
1685.118132794946
 20
615.7931824537351
 30
0.0
 10
1685.932808676336
 20
615.793182453735
 30
0.0
 10
1686.711266899318
 20
615.793182453735
 30
0.0
 10
1687.453507831905
 20
615.793182453735
 30
0.0
 10
1688.15953181535
 20
615.793182453735
 30
0.0
 10
1688.829339165453
 20
615.7931824537351
 30
0.0
 10
1689.462930173857
 20
615.793182453735
 30
0.0
 10
1690.060305109325
 20
615.7931824537351
 30
0.0
 10
1690.621464219045
 20
615.7931824537351
 30
0.0
 10
1691.146407729716
 20
615.793182453735
 30
0.0
 10
1691.635135849333
 20
615.793182453735
 30
0.0
 10
1692.08764876615
 20
615.793182453735
 30
0.0
 10
1692.503946658155
 20
615.793182453735
 30
0.0
 10
1692.884029662493
 20
615.793182453735
 30
0.0
 10
1693.227897996501
 20
615.7931824537351
 30
0.0
 10
1693.535551503781
 20
615.793182453735
 30
0.0
 10
1693.806991379594
 20
615.793182453735
 30
0.0
 10
1694.042213635214
 20
615.793182453735
 30
0.0
 10
1694.241233873749
 20
615.793182453735
 30
0.0
 10
1694.403993394798
 20
615.793182453735
 30
0.0
 10
1694.530715031366
 20
615.7931824537351
 30
0.0
 10
1694.620554748415
 20
615.793182453735
 30
0.0
 10
1694.676710869353
 20
615.7931824537351
 30
0.0
 10
1694.683579970298
 20
615.7931824537351
 30
0.0
 10
1694.6870317138
 20
615.793182453735
 30
0.0
  0
SPLINE
  5
6F
330
1F
100
AcDbEntity
  8
Ios54
  6
Continuous
 62
     7
420
 16777215
370
    15
100
AcDbSpline
210
0.0
220
0.0
230
1.0
 70
    24
 71
     3
 72
    16
 73
    12
 74
     0
 42
0.000000001
 43
0.0000000001
 40
0.0
 40
0.0
 40
0.0
 40
0.0
 40
0.112
 40
0.2239999999999999
 40
0.3360000000000026
 40
0.448000000000001
 40
0.5599999999999999
 40
0.6700000000000199
 40
0.78
 40
0.89
 40
1.0
 40
1.0
 40
1.0
 40
1.0
 10
1513.687031713814
 20
490.793182453735
 30
0.0
 10
1524.672238637225
 20
490.793182453735
 30
0.0
 10
1546.009727673821
 20
490.793182453735
 30
0.0
 10
1574.627444902751
 20
490.793182453735
 30
0.0
 10
1600.116018113786
 20
490.793182453735
 30
0.0
 10
1622.571527723354
 20
490.7931824537351
 30
0.0
 10
1641.925105794026
 20
490.793182453735
 30
0.0
 10
1657.857816901713
 20
490.793182453735
 30
0.0
 10
1669.864718551807
 20
490.793182453735
 30
0.0
 10
1677.464775887035
 20
490.7931824537351
 30
0.0
 10
1679.253694544755
 20
490.793182453735
 30
0.0
 10
1679.253694544755
 20
490.793182453735
 30
0.0
  0
LINE
  5
70
330
1F
100
AcDbEntity
  8
Ios54
  6
Continuous
 62
     7
420
 16777215
370
    15
100
AcDbLine
 10
1679.253694544791
 20
490.7931824537
 30
0.0
 11
1694.687031713772
 21
615.7931824537
 31
0.0
  0
LINE
  5
71
330
1F
100
AcDbEntity
  8
Ios54
  6
Continuous
 62
     7
420
 16777215
370
    15
100
AcDbLine
 10
1333.221532915614
 20
611.4640484446
 30
0.0
 11
1348.120291595479
 21
490.7931824537
 31
0.0
  0
SPLINE
  5
72
330
1F
100
AcDbEntity
  8
Ios54
  6
Continuous
 62
     7
420
 16777215
370
    15
100
AcDbSpline
210
0.0
220
0.0
230
1.0
 70
     8
 71
     3
 72
   134
 73
   130
 74
     0
 42
0.000000001
 43
0.0000000001
 40
0.0
 40
0.0
 40
0.0
 40
0.0
 40
0.0080594307477687
 40
0.0160745441665306
 40
0.0240454531665603
 40
0.0319722725470863
 40
0.0398551190335911
 40
0.0476941113158758
 40
0.0554893700868997
 40
0.0632410180824116
 40
0.0709491801213817
 40
0.0786139831472466
 40
0.0862355562699809
 40
0.0938140308090066
 40
0.1013495403369501
 40
0.1088422207242607
 40
0.1162922101846987
 40
0.1236996493217073
 40
0.1310646811756727
 40
0.1383874512720884
 40
0.1456681076706271
 40
0.1529068010151338
 40
0.1601036845845419
 40
0.1672589143447258
 40
0.1743726490012911
 40
0.1814450500533109
 40
0.1884762818480107
 40
0.1954665116364066
 40
0.2024159096298982
 40
0.2093246490578193
 40
0.2161929062259421
 40
0.2230208605759375
 40
0.229808694745786
 40
0.2365565946311358
 40
0.2432647494475984
 40
0.2499333517939793
 40
0.2565625977164259
 40
0.263152686773486
 40
0.2697038221020598
 40
0.2762162104842271
 40
0.2826900624149305
 40
0.2891255921704949
 40
0.2955230178779523
 40
0.3018825615851456
 40
0.3082044493315838
 40
0.3144889112200054
 40
0.3207361814886164
 40
0.3269464985839595
 40
0.3331201052343666
 40
0.3392572485239416
 40
0.3453581799670248
 40
0.3514231555830691
 40
0.3574524359718736
 40
0.363446286389095
 40
0.3694049768219684
 40
0.3753287820651554
 40
0.3812179817966288
 40
0.3870728606535107
 40
0.3928937083077557
 40
0.398680819541583
 40
0.4044344943225421
 40
0.4101550378780962
 40
0.4158427607695996
 40
0.4214979789655371
 40
0.4271210139138896
 40
0.4327121926134763
 40
0.438271847684128
 40
0.4438003174355269
 40
0.4492979459345464
 40
0.4547650830709206
 40
0.4602020846210592
 40
0.4656093123098188
 40
0.4709871338700381
 40
0.4763359230996327
 40
0.4816560599160395
 40
0.486947930407797
 40
0.4922119268830411
 40
0.4974484479146822
 40
0.5026578983820399
 40
0.5078406895086893
 40
0.5129972388962832
 40
0.5181279705540983
 40
0.523233314924061
 40
0.5283137089009988
 40
0.5333695958478656
 40
0.5384014256056856
 40
0.5434096544979646
 40
0.5483947453293164
 40
0.5533571673780538
 40
0.5582973963824975
 40
0.5632159145207682
 40
0.568113210383818
 40
0.5729897789414802
 40
0.5778461215013196
 40
0.5826827456600725
 40
0.5875001652474809
 40
0.5922989002623422
 40
0.5970794768006018
 40
0.6384229825835779
 40
0.6787599236308879
 40
0.7185020875758861
 40
0.7580798315282364
 40
0.797928840010685
 40
0.8051717461031319
 40
0.8124392067397381
 40
0.8197336328639568
 40
0.8270574087886555
 40
0.8344128902851423
 40
0.8418024028016462
 40
0.8492282398153724
 40
0.8566926613210036
 40
0.864197892457317
 40
0.8717461222724253
 40
0.8793395026270725
 40
0.8869801472343972
 40
0.8946701308336638
 40
0.902411488494629
 40
0.9102062150484879
 40
0.9180562646407084
 40
0.9259635504005419
 40
0.9339299442215538
 40
0.9419572766471915
 40
0.9500473368551492
 40
0.9582018727341258
 40
0.9664225910464815
 40
0.9747111576702792
 40
0.9830691979142366
 40
0.9914982968992138
 40
0.9999999999999999
 40
0.9999999999999999
 40
0.9999999999999999
 40
0.9999999999999999
 10
753.0052311619892
 20
910.4128827106117
 30
0.0
 10
753.9936956639001
 20
910.4139410512056
 30
0.0
 10
755.9651892830261
 20
910.4160519127728
 30
0.0
 10
758.9142498493835
 20
910.4332032675675
 30
0.0
 10
761.8469638054931
 20
910.4606121493624
 30
0.0
 10
764.7633311770069
 20
910.4992667885983
 30
0.0
 10
767.6633519697115
 20
910.5489045837628
 30
0.0
 10
770.5470261949035
 20
910.609595318417
 30
0.0
 10
773.4143538626464
 20
910.681320453544
 30
0.0
 10
776.2653349835643
 20
910.7640849193333
 30
0.0
 10
779.0999695683652
 20
910.8578874102408
 30
0.0
 10
781.918257627968
 20
910.9627282779156
 30
0.0
 10
784.7201991734687
 20
911.0786074340307
 30
0.0
 10
787.5057942161487
 20
911.2055249075104
 30
0.0
 10
790.2750427674721
 20
911.3434806964952
 30
0.0
 10
793.0279448390851
 20
911.4924748076879
 30
0.0
 10
795.7645004428139
 20
911.6525072459165
 30
0.0
 10
798.4847095906638
 20
911.8235780169229
 30
0.0
 10
801.1885722948163
 20
912.0056871266398
 30
0.0
 10
803.8760885676267
 20
912.1988345814004
 30
0.0
 10
806.5472584216205
 20
912.4030203878998
 30
0.0
 10
809.2020818694912
 20
912.6182445532249
 30
0.0
 10
811.8405589240938
 20
912.8445070848654
 30
0.0
 10
814.4626895984418
 20
913.0818079907303
 30
0.0
 10
817.0684739057015
 20
913.3301472791633
 30
0.0
 10
819.6579118591851
 20
913.5895249589604
 30
0.0
 10
822.2310034723455
 20
913.8599410393856
 30
0.0
 10
824.7877487587672
 20
914.1413955301886
 30
0.0
 10
827.3281477321591
 20
914.4338884416222
 30
0.0
 10
829.8522004063451
 20
914.7374197844606
 30
0.0
 10
832.3599067952543
 20
915.0519895700173
 30
0.0
 10
834.8512669129096
 20
915.3775978101642
 30
0.0
 10
837.326280773417
 20
915.71424451735
 30
0.0
 10
839.7849483909515
 20
916.06192970462
 30
0.0
 10
842.2272697797442
 20
916.420653385635
 30
0.0
 10
844.6532449540662
 20
916.790415574692
 30
0.0
 10
847.0628739282135
 20
917.1712162867428
 30
0.0
 10
849.4561567164886
 20
917.5630555374156
 30
0.0
 10
851.8330933331823
 20
917.9659333430345
 30
0.0
 10
854.1936837925532
 20
918.3798497206393
 30
0.0
 10
856.5379281088063
 20
918.8048046880067
 30
0.0
 10
858.8658262960699
 20
919.2407982636703
 30
0.0
 10
861.1773783683713
 20
919.6878304669409
 30
0.0
 10
863.4725843396097
 20
920.145901317926
 30
0.0
 10
865.7514442235298
 20
920.6150108375504
 30
0.0
 10
868.0139580336912
 20
921.095159047575
 30
0.0
 10
870.2601257834372
 20
921.5863459706158
 30
0.0
 10
872.4899474858619
 20
922.0885716301631
 30
0.0
 10
874.7034231537752
 20
922.6018360505988
 30
0.0
 10
876.9005527996654
 20
923.1261392572143
 30
0.0
 10
879.0813364356609
 20
923.6614812762251
 30
0.0
 10
881.2457740734886
 20
924.2078621347887
 30
0.0
 10
883.3938657244313
 20
924.7652818610169
 30
0.0
 10
885.5256113992822
 20
925.3337404839896
 30
0.0
 10
887.6410111082982
 20
925.9132380337664
 30
0.0
 10
889.7400648611501
 20
926.5037745413962
 30
0.0
 10
891.822772666871
 20
927.1053500389268
 30
0.0
 10
893.8891345338023
 20
927.7179645594092
 30
0.0
 10
895.9391504695395
 20
928.3416181369041
 30
0.0
 10
897.9728204808721
 20
928.9763108064823
 30
0.0
 10
899.9901445737245
 20
929.6220426042256
 30
0.0
 10
901.9911227530944
 20
930.2788135672222
 30
0.0
 10
903.9757550229876
 20
930.9466237335622
 30
0.0
 10
905.9440413863529
 20
931.6254731423267
 30
0.0
 10
907.8959818450135
 20
932.3153618335767
 30
0.0
 10
909.8315763995978
 20
933.0162898483362
 30
0.0
 10
911.7508250494684
 20
933.728257228572
 30
0.0
 10
913.6537277926491
 20
934.4512640171703
 30
0.0
 10
915.540284625751
 20
935.1853102579074
 30
0.0
 10
917.410495543898
 20
935.9303959954173
 30
0.0
 10
919.2643605406505
 20
936.6865212751541
 30
0.0
 10
921.101879607929
 20
937.4536861433479
 30
0.0
 10
922.9230527359376
 20
938.2318906469594
 30
0.0
 10
924.7278799130873
 20
939.0211348336228
 30
0.0
 10
926.5163611259185
 20
939.8214187515897
 30
0.0
 10
928.2884963590266
 20
940.6327424496623
 30
0.0
 10
930.0442855949854
 20
941.4551059771227
 30
0.0
 10
931.7837288142755
 20
942.2885093836558
 30
0.0
 10
933.506825995211
 20
943.1329527192645
 30
0.0
 10
935.2135771138713
 20
943.988436034182
 30
0.0
 10
936.9039821440339
 20
944.854959378772
 30
0.0
 10
938.578041057112
 20
945.732522803428
 30
0.0
 10
940.2357538220946
 20
946.6211263584618
 30
0.0
 10
941.8771204054914
 20
947.520770093988
 30
0.0
 10
943.5021407712863
 20
948.4314540598039
 30
0.0
 10
945.1108148808794
 20
949.3531783052437
 30
0.0
 10
946.7031426931015
 20
950.2859428791093
 30
0.0
 10
948.2791241639852
 20
951.2297478292833
 30
0.0
 10
949.8387592474777
 20
952.18459320349
 30
0.0
 10
951.3820478926943
 20
953.15047904578
 30
0.0
 10
952.9089900540322
 20
954.1274054088434
 30
0.0
 10
954.4195856536525
 20
955.1153723076081
 30
0.0
 10
955.9138347206188
 20
956.1143798905373
 30
0.0
 10
957.3917368749668
 20
957.1244278035898
 30
0.0
 10
958.853293241402
 20
958.1455175484872
 30
0.0
 10
960.2984993506483
 20
959.1776437339544
 30
0.0
 10
961.7273714755565
 20
960.2208265326757
 30
0.0
 10
966.7424333821821
 20
963.9636837125428
 30
0.0
 10
974.9368436917333
 20
970.7615233248548
 30
0.0
 10
985.4459592996991
 20
981.406503823949
 30
0.0
 10
994.6726335213122
 20
992.9174152033444
 30
0.0
 10
1002.6108646046
 20
1005.288898710124
 30
0.0
 10
1007.414581814788
 20
1014.848634359346
 30
0.0
 10
1010.05893014372
 20
1021.002829744855
 30
0.0
 10
1011.074697013944
 20
1023.490646385916
 30
0.0
 10
1012.048962355873
 20
1026.005844427633
 30
0.0
 10
1012.981764652573
 20
1028.548472059716
 30
0.0
 10
1013.873093892009
 20
1031.118515194433
 30
0.0
 10
1014.722953202035
 20
1033.715976575039
 30
0.0
 10
1015.531342231766
 20
1036.340854458194
 30
0.0
 10
1016.298261626785
 20
1038.993148366613
 30
0.0
 10
1017.023711815464
 20
1041.672857540506
 30
0.0
 10
1017.707693330035
 20
1044.379981358157
 30
0.0
 10
1018.350206713444
 20
1047.114519224241
 30
0.0
 10
1018.951252537897
 20
1049.87647060116
 30
0.0
 10
1019.51083139421
 20
1052.665835001056
 30
0.0
 10
1020.028943886139
 20
1055.482611987836
 30
0.0
 10
1020.50559063538
 20
1058.326801175911
 30
0.0
 10
1020.940772239733
 20
1061.198402229305
 30
0.0
 10
1021.334489411244
 20
1064.097414860229
 30
0.0
 10
1021.686742436148
 20
1067.023838827347
 30
0.0
 10
1021.997533195964
 20
1069.977673934029
 30
0.0
 10
1022.266857521752
 20
1072.958920025434
 30
0.0
 10
1022.494734051251
 20
1075.967576989128
 30
0.0
 10
1022.681095223369
 20
1079.003644741634
 30
0.0
 10
1022.826199067696
 20
1082.067123267585
 30
0.0
 10
1022.929073225301
 20
1085.158012459813
 30
0.0
 10
1022.993395402557
 20
1088.276312711561
 30
0.0
 10
1023.00127464603
 20
1090.36437464225
 30
0.0
 10
1023.005231161991
 20
1091.412882710612
 30
0.0
  0
SPLINE
  5
73
330
1F
100
AcDbEntity
  8
Ios54
  6
Continuous
 62
     7
420
 16777215
370
    15
100
AcDbSpline
210
0.0
220
0.0
230
1.0
 70
     8
 71
     3
 72
   116
 73
   112
 74
     0
 42
0.000000001
 43
0.0000000001
 40
0.0
 40
0.0
 40
0.0
 40
0.0
 40
0.0043433070161441
 40
0.008667554271623
 40
0.0129729426941965
 40
0.0172596758634789
 40
0.021527960028422
 40
0.025778004123895
 40
0.030010019786308
 40
0.0342242213682255
 40
0.0384208259519151
 40
0.0426000533617764
 40
0.0467621261755929
 40
0.0509072697345504
 40
0.0550357121519649
 40
0.0591476843206608
 40
0.0632434199189428
 40
0.067323155415102
 40
0.0713871300703985
 40
0.0754355859404611
 40
0.0794687678750483
 40
0.0834869235161103
 40
0.0874903032940978
 40
0.0914791604224596
 40
0.095453750890275
 40
0.0994143334529667
 40
0.1033611696210422
 40
0.1072945236468124
 40
0.1112146625090391
 40
0.1151218558954635
 40
0.119016376183173
 40
0.1228984984167619
 40
0.126768500284249
 40
0.1306266620907136
 40
0.1344732667296199
 40
0.1383085996517964
 40
0.1421329488320476
 40
0.145946604733375
 40
0.1497498602687883
 40
0.1535430107606957
 40
0.1573263538978624
 40
0.1611001896899336
 40
0.1648648204195233
 40
0.1686205505918743
 40
0.1723676868821
 40
0.1761065380800254
 40
0.1798374150326483
 40
0.1835606305842487
 40
0.18727649951418
 40
0.1909853384723799
 40
0.1946874659126468
 40
0.1983832020237312
 40
0.2020728686583006
 40
0.2419208874272686
 40
0.2814981419318803
 40
0.3212403391264824
 40
0.3615778414166276
 40
0.4029224255067037
 40
0.4115947443131872
 40
0.4203280408603091
 40
0.4291253974784501
 40
0.4379898296735553
 40
0.4469242850349404
 40
0.4559316424085343
 40
0.4650147113224414
 40
0.4741762316505327
 40
0.4834188734989094
 40
0.4927452372994908
 40
0.5021578540946394
 40
0.5116591859966376
 40
0.5212516268059226
 40
0.5309375027722685
 40
0.5407190734835261
 40
0.5505985328670815
 40
0.5605780102898427
 40
0.570659571743287
 40
0.5808452211008802
 40
0.5911369014359956
 40
0.6015364963892932
 40
0.6120458315753646
 40
0.6226666760192795
 40
0.6334007436144911
 40
0.6442496945943508
 40
0.6552151370102459
 40
0.6662986282101038
 40
0.6775016763116888
 40
0.6888257416657758
 40
0.7002722383048753
 40
0.7118425353737629
 40
0.7235379585385645
 40
0.7353597913716473
 40
0.7473092767099794
 40
0.7593876179850376
 40
0.7715959805226844
 40
0.7839354928117731
 40
0.7964072477405149
 40
0.8090123037999195
 40
0.8217516862538278
 40
0.8346263882752833
 40
0.8476373720491444
 40
0.8607855698410162
 40
0.8740718850327001
 40
0.8874971931244894
 40
0.9010623427047275
 40
0.9147681563871443
 40
0.9286154317165397
 40
0.9426049420434647
 40
0.9567374373685762
 40
0.9710136451573955
 40
0.9854342711262252
 40
1.0
 40
1.0
 40
1.0
 40
1.0
 10
483.0052311619907
 20
1091.412882710612
 30
0.0
 10
483.0062653240097
 20
1090.877229725493
 30
0.0
 10
483.0083291098283
 20
1089.808274364519
 30
0.0
 10
483.0250775733167
 20
1088.208415508217
 30
0.0
 10
483.0518360586796
 20
1086.615681287574
 30
0.0
 10
483.0895724312695
 20
1085.030071678451
 30
0.0
 10
483.1380290666674
 20
1083.451586685351
 30
0.0
 10
483.1972745707509
 20
1081.880226305763
 30
0.0
 10
483.2672907023593
 20
1080.315990539683
 30
0.0
 10
483.3480823417862
 20
1078.758879387103
 30
0.0
 10
483.4396482138746
 20
1077.208892848712
 30
0.0
 10
483.5419886827506
 20
1075.666030925738
 30
0.0
 10
483.6551036764164
 20
1074.130293620017
 30
0.0
 10
483.7789932393442
 20
1072.601680934006
 30
0.0
 10
483.913657385309
 20
1071.080192870807
 30
0.0
 10
484.0590961365543
 20
1069.565829434185
 30
0.0
 10
484.2153095133357
 20
1068.058590628598
 30
0.0
 10
484.3822975366776
 20
1066.558476459212
 30
0.0
 10
484.5600602276104
 20
1065.065486931921
 30
0.0
 10
484.7485976073405
 20
1063.579622053373
 30
0.0
 10
484.9479096971719
 20
1062.100881830983
 30
0.0
 10
485.1579965184928
 20
1060.629266272957
 30
0.0
 10
485.3788580927401
 20
1059.164775388307
 30
0.0
 10
485.6104944413703
 20
1057.707409186864
 30
0.0
 10
485.8529055858268
 20
1056.257167679299
 30
0.0
 10
486.1060915475043
 20
1054.814050877134
 30
0.0
 10
486.3700523477149
 20
1053.378058792759
 30
0.0
 10
486.6447880076495
 20
1051.949191439433
 30
0.0
 10
486.9302985483415
 20
1050.527448831304
 30
0.0
 10
487.2265839906255
 20
1049.112830983414
 30
0.0
 10
487.5336443550974
 20
1047.705337911699
 30
0.0
 10
487.8514796620736
 20
1046.304969632999
 30
0.0
 10
488.1800899315472
 20
1044.91172616506
 30
0.0
 10
488.5194751831452
 20
1043.52560752653
 30
0.0
 10
488.869635436084
 20
1042.146613736957
 30
0.0
 10
489.2305707091251
 20
1040.774744816787
 30
0.0
 10
489.6022810205285
 20
1039.410000787354
 30
0.0
 10
489.9847663880091
 20
1038.052381670871
 30
0.0
 10
490.3780268286883
 20
1036.701887490416
 30
0.0
 10
490.782062359052
 20
1035.358518269915
 30
0.0
 10
491.1968729948944
 20
1034.022274034139
 30
0.0
 10
491.6224587513083
 20
1032.693154808634
 30
0.0
 10
492.0588196425084
 20
1031.371160619865
 30
0.0
 10
492.5059556822757
 20
1030.056291494577
 30
0.0
 10
492.963866882097
 20
1028.748547462044
 30
0.0
 10
493.4325532578792
 20
1027.44792854556
 30
0.0
 10
493.9120148047745
 20
1026.154434793949
 30
0.0
 10
494.4022515906433
 20
1024.868066164148
 30
0.0
 10
494.9032634081208
 20
1023.588822957946
 30
0.0
 10
495.4150510691433
 20
1022.316704196583
 30
0.0
 10
495.9376115870917
 20
1021.051713669631
 30
0.0
 10
496.4709561089029
 20
1019.793837420591
 30
0.0
 10
498.7926059816548
 20
1014.456988515002
 30
0.0
 10
503.3994169263373
 20
1005.289058277561
 30
0.0
 10
511.337468495348
 20
992.9178177188709
 30
0.0
 10
520.564148966846
 20
981.4069069165739
 30
0.0
 10
531.0734713098702
 20
970.761712478004
 30
0.0
 10
539.636628174942
 20
963.6579713712039
 30
0.0
 10
545.4411674490331
 20
959.3648696850422
 30
0.0
 10
548.0657357175709
 20
957.4995490633287
 30
0.0
 10
550.7438964036679
 20
955.6705151464191
 30
0.0
 10
553.4756969236088
 20
953.8777077334223
 30
0.0
 10
556.2611229761984
 20
952.1211421151872
 30
0.0
 10
559.1001771030991
 20
950.4008130582756
 30
0.0
 10
561.9928574008109
 20
948.7167208373901
 30
0.0
 10
564.939163291235
 20
947.0688641907363
 30
0.0
 10
567.9390939548347
 20
945.4572422425495
 30
0.0
 10
570.9926487528223
 20
943.8818539926444
 30
0.0
 10
574.0998271087676
 20
942.3426984651895
 30
0.0
 10
577.2606285361802
 20
940.8397746776053
 30
0.0
 10
580.4750526258658
 20
939.3730816573377
 30
0.0
 10
583.7430990437566
 20
937.942618444666
 30
0.0
 10
587.0647675255736
 20
936.5483840983619
 30
0.0
 10
590.4400578721499
 20
935.1903776996651
 30
0.0
 10
593.8689699444758
 20
933.8685983558516
 30
0.0
 10
597.3515036588133
 20
932.5830452031
 30
0.0
 10
600.8876589818661
 20
931.3337174087953
 30
0.0
 10
604.4774359260693
 20
930.1206141732916
 30
0.0
 10
608.1208345450399
 20
928.943734731195
 30
0.0
 10
611.8178549292147
 20
927.8030783522115
 30
0.0
 10
615.5684972017056
 20
926.6986443416098
 30
0.0
 10
619.3727615143821
 20
925.630432040348
 30
0.0
 10
623.2306480441986
 20
924.5984408249075
 30
0.0
 10
627.1421569897688
 20
923.6026701068758
 30
0.0
 10
631.1072885681884
 20
922.643119332319
 30
0.0
 10
635.1260430121064
 20
921.7197879809767
 30
0.0
 10
639.1984205670367
 20
920.8326755653153
 30
0.0
 10
643.3244214889079
 20
919.9817816294661
 30
0.0
 10
647.504046041833
 20
919.1671057480764
 30
0.0
 10
651.7372944960995
 20
918.3886475250937
 30
0.0
 10
656.0241671263587
 20
917.6464065925078
 30
0.0
 10
660.3646642100089
 20
916.9403826090623
 30
0.0
 10
664.758786025754
 20
916.270575258959
 30
0.0
 10
669.2065328523316
 20
915.6369842505544
 30
0.0
 10
673.7079049673919
 20
915.0396093150866
 30
0.0
 10
678.26290264652
 20
914.4784502053668
 30
0.0
 10
682.8715261623857
 20
913.953506694696
 30
0.0
 10
687.5337757840143
 20
913.4647785750792
 30
0.0
 10
692.2496517761622
 20
913.0122656582615
 30
0.0
 10
697.0191543987928
 20
912.5959677662569
 30
0.0
 10
701.8422839066366
 20
912.215884761919
 30
0.0
 10
706.7190405488398
 20
911.8720164279109
 30
0.0
 10
711.6494245686501
 20
911.5643629206304
 30
0.0
 10
716.6334362032923
 20
911.2929230448177
 30
0.0
 10
721.6710756834191
 20
911.0577007891976
 30
0.0
 10
726.7623432344353
 20
910.8586805506625
 30
0.0
 10
731.9072390709554
 20
910.6959210296125
 30
0.0
 10
737.1057634174833
 20
910.5691993930451
 30
0.0
 10
742.3579164299075
 20
910.479359675996
 30
0.0
 10
747.663698492977
 20
910.4232035550584
 30
0.0
 10
751.2187881267068
 20
910.4163344541136
 30
0.0
 10
753.0052311619921
 20
910.4128827106117
 30
0.0
  0
SPLINE
  5
74
330
1F
100
AcDbEntity
  8
Ios54
  6
Continuous
 62
     7
420
 16777215
370
    15
100
AcDbSpline
210
0.0
220
0.0
230
1.0
 70
     8
 71
     3
 72
   134
 73
   130
 74
     0
 42
0.000000001
 43
0.0000000001
 40
0.0
 40
0.0
 40
0.0
 40
0.0
 40
0.0080594307477685
 40
0.0160745441665306
 40
0.0240454531665601
 40
0.0319722725470859
 40
0.0398551190335908
 40
0.0476941113158753
 40
0.0554893700868991
 40
0.0632410180824111
 40
0.070949180121381
 40
0.0786139831472458
 40
0.0862355562699801
 40
0.0938140308090057
 40
0.1013495403369489
 40
0.1088422207242593
 40
0.1162922101846974
 40
0.1236996493217059
 40
0.1310646811756713
 40
0.1383874512720868
 40
0.1456681076706256
 40
0.152906801015132
 40
0.16010368458454
 40
0.1672589143447238
 40
0.1743726490012891
 40
0.1814450500533089
 40
0.1884762818480085
 40
0.1954665116364042
 40
0.202415909629896
 40
0.2093246490578169
 40
0.2161929062259395
 40
0.2230208605759348
 40
0.2298086947457834
 40
0.2365565946311328
 40
0.2432647494475956
 40
0.2499333517939764
 40
0.2565625977164228
 40
0.2631526867734829
 40
0.2697038221020566
 40
0.2762162104842235
 40
0.2826900624149271
 40
0.2891255921704915
 40
0.2955230178779486
 40
0.301882561585142
 40
0.30820444933158
 40
0.3144889112200014
 40
0.3207361814886124
 40
0.3269464985839555
 40
0.3331201052343624
 40
0.3392572485239374
 40
0.3453581799670203
 40
0.3514231555830647
 40
0.3574524359718692
 40
0.3634462863890904
 40
0.3694049768219638
 40
0.3753287820651505
 40
0.3812179817966239
 40
0.3870728606535057
 40
0.3928937083077506
 40
0.3986808195415777
 40
0.4044344943225368
 40
0.4101550378780907
 40
0.415842760769594
 40
0.4214979789655316
 40
0.4271210139138839
 40
0.4327121926134705
 40
0.4382718476841222
 40
0.4438003174355209
 40
0.4492979459345402
 40
0.4547650830709143
 40
0.4602020846210529
 40
0.4656093123098123
 40
0.4709871338700316
 40
0.4763359230996262
 40
0.4816560599160326
 40
0.4869479304077902
 40
0.4922119268830342
 40
0.4974484479146753
 40
0.5026578983820327
 40
0.5078406895086821
 40
0.5129972388962758
 40
0.5181279705540907
 40
0.5232333149240533
 40
0.5283137089009912
 40
0.5333695958478577
 40
0.5384014256056776
 40
0.5434096544979565
 40
0.5483947453293083
 40
0.5533571673780454
 40
0.5582973963824892
 40
0.5632159145207599
 40
0.5681132103838094
 40
0.5729897789414714
 40
0.5778461215013108
 40
0.5826827456600634
 40
0.5875001652474717
 40
0.5922989002623329
 40
0.5970794768005925
 40
0.638422982584086
 40
0.6787599236316519
 40
0.7185020875766496
 40
0.7580798315287559
 40
0.7979288400107386
 40
0.8051717461033095
 40
0.8124392067400308
 40
0.8197336328643553
 40
0.8270574087891502
 40
0.8344128902857239
 40
0.8418024028023046
 40
0.8492282398160979
 40
0.8566926613217861
 40
0.8641978924581463
 40
0.8717461222732911
 40
0.8793395026279646
 40
0.886980147235305
 40
0.8946701308345767
 40
0.9024114884955365
 40
0.9102062150493793
 40
0.9180562646415731
 40
0.9259635504013689
 40
0.9339299442223324
 40
0.9419572766479108
 40
0.9500473368557985
 40
0.9582018727346939
 40
0.9664225910469578
 40
0.9747111576706526
 40
0.9830691979144965
 40
0.9914982968993492
 40
1.0
 40
1.0
 40
1.0
 40
1.0
 10
753.005231161992
 20
1272.412882710612
 30
0.0
 10
752.0167666600812
 20
1272.411824370017
 30
0.0
 10
750.0452730409552
 20
1272.40971350845
 30
0.0
 10
747.0962124745977
 20
1272.392562153655
 30
0.0
 10
744.163498518488
 20
1272.365153271861
 30
0.0
 10
741.2471311469743
 20
1272.326498632624
 30
0.0
 10
738.3471103542696
 20
1272.27686083746
 30
0.0
 10
735.4634361290776
 20
1272.216170102806
 30
0.0
 10
732.5961084613347
 20
1272.144444967679
 30
0.0
 10
729.7451273404168
 20
1272.06168050189
 30
0.0
 10
726.9104927556158
 20
1271.967878010982
 30
0.0
 10
724.092204696013
 20
1271.863037143308
 30
0.0
 10
721.2902631505125
 20
1271.747157987193
 30
0.0
 10
718.5046681078323
 20
1271.620240513713
 30
0.0
 10
715.735419556509
 20
1271.482284724728
 30
0.0
 10
712.9825174848961
 20
1271.333290613536
 30
0.0
 10
710.2459618811671
 20
1271.173258175307
 30
0.0
 10
707.5257527333173
 20
1271.002187404301
 30
0.0
 10
704.8218900291647
 20
1270.820078294584
 30
0.0
 10
702.1343737563544
 20
1270.626930839823
 30
0.0
 10
699.4632039023604
 20
1270.422745033324
 30
0.0
 10
696.8083804544899
 20
1270.207520867998
 30
0.0
 10
694.1699033998872
 20
1269.981258336358
 30
0.0
 10
691.5477727255393
 20
1269.743957430493
 30
0.0
 10
688.9419884182796
 20
1269.49561814206
 30
0.0
 10
686.3525504647957
 20
1269.236240462264
 30
0.0
 10
683.7794588516355
 20
1268.965824381837
 30
0.0
 10
681.2227135652137
 20
1268.684369891035
 30
0.0
 10
678.6823145918218
 20
1268.391876979601
 30
0.0
 10
676.1582619176359
 20
1268.088345636762
 30
0.0
 10
673.6505555287267
 20
1267.773775851206
 30
0.0
 10
671.1591954110713
 20
1267.448167611059
 30
0.0
 10
668.6841815505638
 20
1267.111520903874
 30
0.0
 10
666.2255139330293
 20
1266.763835716603
 30
0.0
 10
663.7831925442368
 20
1266.405112035588
 30
0.0
 10
661.3572173699147
 20
1266.035349846532
 30
0.0
 10
658.9475883957674
 20
1265.65454913448
 30
0.0
 10
656.5543056074922
 20
1265.262709883807
 30
0.0
 10
654.1773689907985
 20
1264.859832078188
 30
0.0
 10
651.8167785314275
 20
1264.445915700584
 30
0.0
 10
649.4725342151744
 20
1264.020960733217
 30
0.0
 10
647.1446360279109
 20
1263.584967157552
 30
0.0
 10
644.8330839556096
 20
1263.137934954282
 30
0.0
 10
642.5378779843711
 20
1262.679864103297
 30
0.0
 10
640.2590181004509
 20
1262.210754583673
 30
0.0
 10
637.9965042902896
 20
1261.730606373649
 30
0.0
 10
635.7503365405437
 20
1261.239419450607
 30
0.0
 10
633.520514838119
 20
1260.73719379106
 30
0.0
 10
631.3070391702057
 20
1260.223929370624
 30
0.0
 10
629.1099095243155
 20
1259.699626164009
 30
0.0
 10
626.92912588832
 20
1259.164284144998
 30
0.0
 10
624.7646882504923
 20
1258.617903286434
 30
0.0
 10
622.6165965995496
 20
1258.060483560207
 30
0.0
 10
620.4848509246987
 20
1257.492024937234
 30
0.0
 10
618.3694512156825
 20
1256.912527387457
 30
0.0
 10
616.2703974628307
 20
1256.321990879826
 30
0.0
 10
614.18768965711
 20
1255.720415382296
 30
0.0
 10
612.1213277901785
 20
1255.107800861814
 30
0.0
 10
610.0713118544413
 20
1254.484147284319
 30
0.0
 10
608.037641843109
 20
1253.84945461474
 30
0.0
 10
606.0203177502564
 20
1253.203722816997
 30
0.0
 10
604.0193395708865
 20
1252.546951854001
 30
0.0
 10
602.0347073009933
 20
1251.879141687661
 30
0.0
 10
600.0664209376281
 20
1251.200292278897
 30
0.0
 10
598.1144804789675
 20
1250.510403587647
 30
0.0
 10
596.1788859243832
 20
1249.809475572886
 30
0.0
 10
594.2596372745126
 20
1249.097508192652
 30
0.0
 10
592.3567345313319
 20
1248.374501404052
 30
0.0
 10
590.4701776982299
 20
1247.640455163316
 30
0.0
 10
588.5999667800828
 20
1246.895369425806
 30
0.0
 10
586.7461017833305
 20
1246.139244146069
 30
0.0
 10
584.9085827160519
 20
1245.372079277875
 30
0.0
 10
583.0874095880432
 20
1244.593874774264
 30
0.0
 10
581.2825824108936
 20
1243.8046305876
 30
0.0
 10
579.4941011980626
 20
1243.004346669634
 30
0.0
 10
577.7219659649545
 20
1242.193022971561
 30
0.0
 10
575.9661767289956
 20
1241.3706594441
 30
0.0
 10
574.2267335097055
 20
1240.537256037568
 30
0.0
 10
572.50363632877
 20
1239.692812701959
 30
0.0
 10
570.7968852101097
 20
1238.837329387041
 30
0.0
 10
569.1064801799471
 20
1237.970806042451
 30
0.0
 10
567.432421266869
 20
1237.093242617795
 30
0.0
 10
565.7747085018865
 20
1236.204639062761
 30
0.0
 10
564.1333419184896
 20
1235.304995327235
 30
0.0
 10
562.5083215526946
 20
1234.39431136142
 30
0.0
 10
560.8996474431017
 20
1233.472587115979
 30
0.0
 10
559.3073196308795
 20
1232.539822542114
 30
0.0
 10
557.7313381599957
 20
1231.596017591941
 30
0.0
 10
556.1717030765033
 20
1230.641172217733
 30
0.0
 10
554.6284144312867
 20
1229.675286375443
 30
0.0
 10
553.1014722699489
 20
1228.69836001238
 30
0.0
 10
551.5908766703285
 20
1227.710393113615
 30
0.0
 10
550.0966276033624
 20
1226.711385530686
 30
0.0
 10
548.6187254490145
 20
1225.701337617633
 30
0.0
 10
547.1571690825793
 20
1224.680247872736
 30
0.0
 10
545.7119629733329
 20
1223.648121687269
 30
0.0
 10
544.2830908484248
 20
1222.604938888547
 30
0.0
 10
539.2680289417481
 20
1218.862081708643
 30
0.0
 10
531.0736186321186
 20
1212.064242096275
 30
0.0
 10
520.5645030240721
 20
1201.419261597127
 30
0.0
 10
511.3378288024539
 20
1189.908350217733
 30
0.0
 10
503.3995977192347
 20
1177.536866711011
 30
0.0
 10
498.5958805091353
 20
1167.977131061823
 30
0.0
 10
495.9515321802625
 20
1161.822935676319
 30
0.0
 10
494.9357653100375
 20
1159.335119035212
 30
0.0
 10
493.9614999681095
 20
1156.819920993453
 30
0.0
 10
493.0286976714086
 20
1154.277293361331
 30
0.0
 10
492.1373684319731
 20
1151.707250226581
 30
0.0
 10
491.2875091219474
 20
1149.109788845946
 30
0.0
 10
490.4791200922166
 20
1146.484910962764
 30
0.0
 10
489.712200697197
 20
1143.832617054323
 30
0.0
 10
488.986750508518
 20
1141.152907880412
 30
0.0
 10
488.3027689939466
 20
1138.445784062747
 30
0.0
 10
487.6602556105378
 20
1135.711246196653
 30
0.0
 10
487.0592097860846
 20
1132.949294819728
 30
0.0
 10
486.499630929772
 20
1130.15993041983
 30
0.0
 10
485.9815184378425
 20
1127.343153433052
 30
0.0
 10
485.5048716886015
 20
1124.498964244982
 30
0.0
 10
485.0696900842484
 20
1121.6273631916
 30
0.0
 10
484.6759729127376
 20
1118.728350560689
 30
0.0
 10
484.3237198878335
 20
1115.80192659359
 30
0.0
 10
484.012929128017
 20
1112.84809148693
 30
0.0
 10
483.7436048022292
 20
1109.86684539555
 30
0.0
 10
483.5157282727301
 20
1106.858188431886
 30
0.0
 10
483.3293671006123
 20
1103.822120679416
 30
0.0
 10
483.1842632562853
 20
1100.758642153502
 30
0.0
 10
483.0813890986806
 20
1097.667752961316
 30
0.0
 10
483.0170669214245
 20
1094.549452709613
 30
0.0
 10
483.0091876779508
 20
1092.461390778957
 30
0.0
 10
483.0052311619907
 20
1091.412882710612
 30
0.0
  0
SPLINE
  5
75
330
1F
100
AcDbEntity
  8
Ios54
  6
Continuous
 62
     7
420
 16777215
370
    15
100
AcDbSpline
210
0.0
220
0.0
230
1.0
 70
     8
 71
     3
 72
   116
 73
   112
 74
     0
 42
0.000000001
 43
0.0000000001
 40
0.0
 40
0.0
 40
0.0
 40
0.0
 40
0.0043433070164254
 40
0.0086675542721744
 40
0.0129729426950066
 40
0.0172596758645365
 40
0.0215279600297157
 40
0.0257780041254136
 40
0.03001001978804
 40
0.0342242213701596
 40
0.03842082595404
 40
0.0426000533640807
 40
0.0467621261780654
 40
0.0509072697371797
 40
0.0550357121547396
 40
0.0591476843235696
 40
0.0632434199219744
 40
0.0673231554182451
 40
0.0713871300736417
 40
0.0754355859437933
 40
0.0794687678784581
 40
0.0834869235195864
 40
0.0874903032976291
 40
0.0914791604260349
 40
0.095453750893883
 40
0.0994143334565963
 40
0.1033611696246823
 40
0.1072945236504519
 40
0.111214662512667
 40
0.1151218558990687
 40
0.1190163761867446
 40
0.1228984984202889
 40
0.1267685002877204
 40
0.1306266620941188
 40
0.134473266732948
 40
0.1383085996550366
 40
0.1421329488351894
 40
0.1459466047364076
 40
0.1497498602717012
 40
0.1535430107634786
 40
0.1573263539005046
 40
0.161100189692425
 40
0.1648648204218534
 40
0.168620550594033
 40
0.1723676868840773
 40
0.1761065380818113
 40
0.1798374150342328
 40
0.1835606305856219
 40
0.1872764995153324
 40
0.1909853384733015
 40
0.1946874659133282
 40
0.1983832020241631
 40
0.2020728686584734
 40
0.2419208874282201
 40
0.281498141933267
 40
0.3212403391278628
 40
0.3615778414174787
 40
0.4029224255064393
 40
0.4115947443127426
 40
0.4203280408596889
 40
0.429125397477659
 40
0.4379898296725986
 40
0.4469242850338228
 40
0.4559316424072619
 40
0.4650147113210198
 40
0.4741762316489677
 40
0.4834188734972076
 40
0.4927452372976582
 40
0.502157854092683
 40
0.511659185994564
 40
0.5212516268037388
 40
0.5309375027699813
 40
0.5407190734811427
 40
0.5505985328646094
 40
0.5605780102872892
 40
0.57065957174066
 40
0.5808452210981873
 40
0.5911369014332443
 40
0.6015364963864915
 40
0.6120458315725206
 40
0.622666676016401
 40
0.6334007436115863
 40
0.6442496945914278
 40
0.6552151370073129
 40
0.6662986282071691
 40
0.6775016763087608
 40
0.6888257416628626
 40
0.7002722383019854
 40
0.7118425353709048
 40
0.7235379585357465
 40
0.7353597913688779
 40
0.7473092767072672
 40
0.7593876179823911
 40
0.7715959805201119
 40
0.7839354928092837
 40
0.7964072477381167
 40
0.8090123037976212
 40
0.8217516862516379
 40
0.8346263882732106
 40
0.847637372047197
 40
0.8607855698392032
 40
0.8740718850310297
 40
0.8874971931229705
 40
0.9010623427033686
 40
0.9147681563859538
 40
0.9286154317155264
 40
0.942604942042637
 40
0.9567374373679428
 40
0.9710136451569646
 40
0.9854342711260056
 40
1.0
 40
1.0
 40
1.0
 40
1.0
 10
1023.005231161991
 20
1091.412882710612
 30
0.0
 10
1023.004196999971
 20
1091.948535695765
 30
0.0
 10
1023.002133214153
 20
1093.017491056808
 30
0.0
 10
1022.985384750664
 20
1094.61734991321
 30
0.0
 10
1022.958626265302
 20
1096.210084133948
 30
0.0
 10
1022.920889892712
 20
1097.795693743163
 30
0.0
 10
1022.872433257314
 20
1099.374178736351
 30
0.0
 10
1022.81318775323
 20
1100.945539116022
 30
0.0
 10
1022.743171621622
 20
1102.509774882182
 30
0.0
 10
1022.662379982195
 20
1104.066886034837
 30
0.0
 10
1022.570814110107
 20
1105.616872573298
 30
0.0
 10
1022.468473641231
 20
1107.15973449634
 30
0.0
 10
1022.355358647565
 20
1108.695471802122
 30
0.0
 10
1022.231469084637
 20
1110.224084488192
 30
0.0
 10
1022.096804938672
 20
1111.745572551446
 30
0.0
 10
1021.951366187427
 20
1113.259935988117
 30
0.0
 10
1021.795152810646
 20
1114.76717479375
 30
0.0
 10
1021.628164787304
 20
1116.267288963179
 30
0.0
 10
1021.450402096371
 20
1117.760278490507
 30
0.0
 10
1021.261864716641
 20
1119.246143369089
 30
0.0
 10
1021.062552626809
 20
1120.724883591508
 30
0.0
 10
1020.852465805489
 20
1122.196499149558
 30
0.0
 10
1020.631604231241
 20
1123.660990034231
 30
0.0
 10
1020.399967882611
 20
1125.11835623569
 30
0.0
 10
1020.157556738155
 20
1126.568597743268
 30
0.0
 10
1019.904370776477
 20
1128.01171454544
 30
0.0
 10
1019.640409976267
 20
1129.447706629821
 30
0.0
 10
1019.365674316332
 20
1130.876573983146
 30
0.0
 10
1019.08016377564
 20
1132.29831659127
 30
0.0
 10
1018.783878333356
 20
1133.712934439152
 30
0.0
 10
1018.476817968884
 20
1135.120427510854
 30
0.0
 10
1018.158982661908
 20
1136.520795789537
 30
0.0
 10
1017.830372392434
 20
1137.914039257455
 30
0.0
 10
1017.490987140837
 20
1139.300157895961
 30
0.0
 10
1017.140826887898
 20
1140.679151685505
 30
0.0
 10
1016.779891614857
 20
1142.051020605641
 30
0.0
 10
1016.408181303453
 20
1143.415764635036
 30
0.0
 10
1016.025695935973
 20
1144.773383751477
 30
0.0
 10
1015.632435495294
 20
1146.123877931887
 30
0.0
 10
1015.22839996493
 20
1147.467247152338
 30
0.0
 10
1014.813589329087
 20
1148.803491388059
 30
0.0
 10
1014.388003572673
 20
1150.132610613507
 30
0.0
 10
1013.951642681473
 20
1151.454604802213
 30
0.0
 10
1013.504506641706
 20
1152.769473927434
 30
0.0
 10
1013.046595441885
 20
1154.077217959895
 30
0.0
 10
1012.577909066103
 20
1155.377836876306
 30
0.0
 10
1012.098447519207
 20
1156.671330627836
 30
0.0
 10
1011.608210733339
 20
1157.957699257554
 30
0.0
 10
1011.107198915861
 20
1159.236942463669
 30
0.0
 10
1010.595411254839
 20
1160.509061224941
 30
0.0
 10
1010.07285073689
 20
1161.774051751796
 30
0.0
 10
1009.539506215079
 20
1163.031928000736
 30
0.0
 10
1007.217856342147
 20
1168.368776906282
 30
0.0
 10
1002.611045397185
 20
1177.53670714371
 30
0.0
 10
994.6729938279672
 20
1189.907947702438
 30
0.0
 10
985.4463133564861
 20
1201.418858504729
 30
0.0
 10
974.9369910137036
 20
1212.064052943251
 30
0.0
 10
966.3738341489109
 20
1219.167794050037
 30
0.0
 10
960.5692948750296
 20
1223.460895736182
 30
0.0
 10
957.9447266065704
 20
1225.326216357895
 30
0.0
 10
955.2665659205488
 20
1227.155250274805
 30
0.0
 10
952.5347654006799
 20
1228.948057687802
 30
0.0
 10
949.7493393481594
 20
1230.704623306037
 30
0.0
 10
946.9102852213247
 20
1232.424952362948
 30
0.0
 10
944.0176049236758
 20
1234.109044583834
 30
0.0
 10
941.0712990333111
 20
1235.756901230488
 30
0.0
 10
938.0713683697682
 20
1237.368523178674
 30
0.0
 10
935.0178135718337
 20
1238.94391142858
 30
0.0
 10
931.9106352159387
 20
1240.483066956034
 30
0.0
 10
928.7498337885733
 20
1241.985990743618
 30
0.0
 10
925.5354096989315
 20
1243.452683763885
 30
0.0
 10
922.2673632810815
 20
1244.883146976558
 30
0.0
 10
918.9456947993021
 20
1246.277381322862
 30
0.0
 10
915.5704044527605
 20
1247.635387721559
 30
0.0
 10
912.141492380466
 20
1248.957167065373
 30
0.0
 10
908.6589586661566
 20
1250.242720218124
 30
0.0
 10
905.1228033431291
 20
1251.492048012428
 30
0.0
 10
901.5330263989476
 20
1252.705151247932
 30
0.0
 10
897.8896277799961
 20
1253.882030690028
 30
0.0
 10
894.1926073958368
 20
1255.022687069012
 30
0.0
 10
890.4419651233586
 20
1256.127121079614
 30
0.0
 10
886.6377008106915
 20
1257.195333380876
 30
0.0
 10
882.7798142808813
 20
1258.227324596317
 30
0.0
 10
878.8683053353142
 20
1259.223095314347
 30
0.0
 10
874.9031737568945
 20
1260.182646088905
 30
0.0
 10
870.8844193129735
 20
1261.105977440247
 30
0.0
 10
866.8120417580368
 20
1261.993089855909
 30
0.0
 10
862.6860408361563
 20
1262.843983791757
 30
0.0
 10
858.5064162832185
 20
1263.658659673147
 30
0.0
 10
854.2731678289364
 20
1264.43711789613
 30
0.0
 10
849.9862951986582
 20
1265.179358828716
 30
0.0
 10
845.6457981149861
 20
1265.885382812161
 30
0.0
 10
841.2516762992159
 20
1266.555190162265
 30
0.0
 10
836.8039294726099
 20
1267.18878117067
 30
0.0
 10
832.3025573575183
 20
1267.786156106137
 30
0.0
 10
827.7475596783555
 20
1268.347315215857
 30
0.0
 10
823.1389361624522
 20
1268.872258726527
 30
0.0
 10
818.4766865407828
 20
1269.360986846144
 30
0.0
 10
813.760810548591
 20
1269.813499762962
 30
0.0
 10
808.9913079259132
 20
1270.229797654967
 30
0.0
 10
804.1681784180191
 20
1270.609880659305
 30
0.0
 10
799.2914217757624
 20
1270.953748993313
 30
0.0
 10
794.3610377558956
 20
1271.261402500593
 30
0.0
 10
789.3770261211938
 20
1271.532842376406
 30
0.0
 10
784.3393866410041
 20
1271.768064632026
 30
0.0
 10
779.2481190899219
 20
1271.967084870561
 30
0.0
 10
774.1032232533327
 20
1272.129844391611
 30
0.0
 10
768.9046989067325
 20
1272.256566028178
 30
0.0
 10
763.6525458942328
 20
1272.346405745227
 30
0.0
 10
758.3467638310849
 20
1272.402561866165
 30
0.0
 10
754.7916741973016
 20
1272.40943096711
 30
0.0
 10
753.0052311619892
 20
1272.412882710612
 30
0.0
  0
SPLINE
  5
76
330
1F
100
AcDbEntity
  8
Ios54
  6
Continuous
 62
     7
420
 16777215
370
    15
100
AcDbSpline
210
0.0
220
0.0
230
1.0
 70
    15
 71
     2
 72
    12
 73
     9
 74
     0
 42
0.000000001
 43
0.0000000001
 40
0.0
 40
0.0
 40
0.0
 40
36.91371367968024
 40
36.91371367968024
 40
73.82742735936048
 40
73.82742735936048
 40
110.7411410390407
 40
110.7411410390407
 40
147.654854718721
 40
147.654854718721
 40
147.654854718721
 10
776.5052311620001
 20
1091.4128827106
 30
0.0
 41
1.0
 10
776.5052311620002
 20
1115.043438266155
 30
0.0
 41
0.7071067811865476
 10
753.005231162
 20
1115.043438266155
 30
0.0
 41
1.0
 10
729.505231162
 20
1115.043438266155
 30
0.0
 41
0.7071067811865476
 10
729.5052311619999
 20
1091.4128827106
 30
0.0
 41
1.0
 10
729.505231162
 20
1067.782327155044
 30
0.0
 41
0.7071067811865476
 10
753.005231162
 20
1067.782327155044
 30
0.0
 41
1.0
 10
776.5052311620002
 20
1067.782327155044
 30
0.0
 41
0.7071067811865476
 10
776.5052311620001
 20
1091.4128827106
 30
0.0
 41
1.0
  0
SPLINE
  5
78
330
1F
100
AcDbEntity
  8
Ios54
  6
PHANTOM
 62
     7
420
 16777215
370
     0
100
AcDbSpline
210
0.0
220
0.0
230
1.0
 70
     8
 71
     3
 72
    52
 73
    48
 74
     0
 42
0.000000001
 43
0.0000000001
 40
0.0
 40
0.0
 40
0.0
 40
0.0
 40
0.1250000000000003
 40
0.1250000000000003
 40
0.2500000000000006
 40
0.2500000000000006
 40
0.3750000000000009
 40
0.3750000000000009
 40
0.3906250000000008
 40
0.3906250000000008
 40
0.4062500000000007
 40
0.4062500000000007
 40
0.4375000000000004
 40
0.4375000000000004
 40
0.4999999999999999
 40
0.4999999999999999
 40
0.5624999999999994
 40
0.5624999999999994
 40
0.5781249999999993
 40
0.5781249999999993
 40
0.5937499999999991
 40
0.5937499999999991
 40
0.6249999999999988
 40
0.6249999999999988
 40
0.687499999999998
 40
0.687499999999998
 40
0.7031249999999978
 40
0.7031249999999978
 40
0.7109374999999978
 40
0.7109374999999978
 40
0.7187499999999977
 40
0.7187499999999977
 40
0.7499999999999978
 40
0.7499999999999978
 40
0.8124999999999983
 40
0.8124999999999983
 40
0.8281249999999984
 40
0.8281249999999984
 40
0.8437499999999987
 40
0.8437499999999987
 40
0.8749999999999989
 40
0.8749999999999989
 40
0.9374999999999994
 40
0.9374999999999994
 40
0.9687499999999997
 40
0.9687499999999997
 40
1.0
 40
1.0
 40
1.0
 40
1.0
 10
753.0052306692227
 20
1260.149985002137
 30
0.0
 10
738.4876101173738
 20
1260.149948121286
 30
0.0
 10
724.0158701342991
 20
1259.752962455934
 30
0.0
 10
695.1904020128095
 20
1257.937978100647
 30
0.0
 10
680.8363128535959
 20
1256.523102884785
 30
0.0
 10
652.2873223435738
 20
1252.316093871889
 30
0.0
 10
638.0914586275231
 20
1249.532286251344
 30
0.0
 10
622.251685615233
 20
1245.270807465406
 30
0.0
 10
620.4921847719957
 20
1244.781008359573
 30
0.0
 10
616.9837616273828
 20
1243.769495327736
 30
0.0
 10
615.2363227704499
 20
1243.248271605053
 30
0.0
 10
610.0151768005884
 20
1241.636252020757
 30
0.0
 10
606.5626155834123
 20
1240.497164163426
 30
0.0
 10
596.297171089224
 20
1236.869249170308
 30
0.0
 10
589.5759494346534
 20
1234.171089560256
 30
0.0
 10
576.4298496851316
 20
1228.097994946976
 30
0.0
 10
570.0045822149142
 20
1224.723949180547
 30
0.0
 10
562.202831328803
 20
1219.981509215439
 30
0.0
 10
560.6540566396181
 20
1219.006585670797
 30
0.0
 10
557.5810233404424
 20
1217.00074992039
 30
0.0
 10
556.0574749512814
 20
1215.970058894268
 30
0.0
 10
551.5585402929515
 20
1212.812279126144
 30
0.0
 10
548.6440374246973
 20
1210.612536031354
 30
0.0
 10
540.1704042476388
 20
1203.712334580207
 30
0.0
 10
534.8811846919957
 20
1198.710864661199
 30
0.0
 10
528.7827156752332
 20
1191.886854371072
 30
0.0
 10
527.5889252709696
 20
1190.493164161885
 30
0.0
 10
525.8377929313513
 20
1188.358518005904
 30
0.0
 10
525.2599992632071
 20
1187.638735860779
 30
0.0
 10
524.1220527293684
 20
1186.189533605078
 30
0.0
 10
523.5618319518355
 20
1185.460078328771
 30
0.0
 10
520.8048408167808
 20
1181.788336924703
 30
0.0
 10
518.739290966492
 20
1178.773275636117
 30
0.0
 10
512.953216715441
 20
1169.50038587205
 30
0.0
 10
509.6437374069855
 20
1163.01459095039
 30
0.0
 10
506.1605297762885
 20
1154.544836387151
 30
0.0
 10
505.4965674923445
 20
1152.832761500159
 30
0.0
 10
504.233232367081
 20
1149.37279028962
 30
0.0
 10
503.633830989567
 20
1147.624444406656
 30
0.0
 10
501.9394594023131
 20
1142.353814045903
 30
0.0
 10
500.9443730412352
 20
1138.793245894793
 30
0.0
 10
498.3509692213013
 20
1128.060575353565
 30
0.0
 10
497.1293158113376
 20
1120.817746353149
 30
0.0
 10
495.9468417476584
 20
1109.841108903889
 30
0.0
 10
495.6609154425713
 20
1106.159034108189
 30
0.0
 10
495.287935594274
 20
1098.790995641725
 30
0.0
 10
495.2003950967087
 20
1095.103483502638
 30
0.0
 10
495.2003780544777
 20
1091.412881793446
 30
0.0
  0
POLYLINE
  5
79
330
1F
100
AcDbEntity
  8
Ios54
  6
PHANTOM
 62
     7
420
 16777215
370
     0
100
AcDb2dPolyline
 66
     1
 10
0.0
 20
0.0
 30
0.0
  0
VERTEX
  5
7A
330
79
100
AcDbEntity
  8
Ios54
  6
PHANTOM
 62
     7
420
 16777215
370
     0
100
AcDbVertex
100
AcDb2dVertex
 10
495.2003780545
 20
1091.412881793432
 30
0.0
  0
VERTEX
  5
7B
330
79
100
AcDbEntity
  8
Ios54
  6
PHANTOM
 62
     7
420
 16777215
370
     0
100
AcDbVertex
100
AcDb2dVertex
 10
495.1088237204
 20
1091.412876991
 30
0.0
  0
VERTEX
  5
7C
330
79
100
AcDbEntity
  8
Ios54
  6
PHANTOM
 62
     7
420
 16777215
370
     0
100
AcDbVertex
100
AcDb2dVertex
 10
494.9154417567
 20
1091.412872847608
 30
0.0
  0
VERTEX
  5
7D
330
79
100
AcDbEntity
  8
Ios54
  6
PHANTOM
 62
     7
420
 16777215
370
     0
100
AcDbVertex
100
AcDb2dVertex
 10
494.6270197164
 20
1091.412869508661
 30
0.0
  0
VERTEX
  5
7E
330
79
100
AcDbEntity
  8
Ios54
  6
PHANTOM
 62
     7
420
 16777215
370
     0
100
AcDbVertex
100
AcDb2dVertex
 10
494.2536809838
 20
1091.412867091306
 30
0.0
  0
VERTEX
  5
7F
330
79
100
AcDbEntity
  8
Ios54
  6
PHANTOM
 62
     7
420
 16777215
370
     0
100
AcDbVertex
100
AcDb2dVertex
 10
493.8085294514
 20
1091.412865680511
 30
0.0
  0
VERTEX
  5
80
330
79
100
AcDbEntity
  8
Ios54
  6
PHANTOM
 62
     7
420
 16777215
370
     0
100
AcDbVertex
100
AcDb2dVertex
 10
493.3071895838
 20
1091.412865325751
 30
0.0
  0
VERTEX
  5
81
330
79
100
AcDbEntity
  8
Ios54
  6
PHANTOM
 62
     7
420
 16777215
370
     0
100
AcDbVertex
100
AcDb2dVertex
 10
492.7672580116
 20
1091.412866039394
 30
0.0
  0
VERTEX
  5
82
330
79
100
AcDbEntity
  8
Ios54
  6
PHANTOM
 62
     7
420
 16777215
370
     0
100
AcDbVertex
100
AcDb2dVertex
 10
492.2076859036
 20
1091.412867796401
 30
0.0
  0
SEQEND
  5
83
330
79
100
AcDbEntity
  8
Ios54
  6
PHANTOM
 62
     7
420
 16777215
370
     0
  0
SPLINE
  5
84
330
1F
100
AcDbEntity
  8
Ios54
  6
PHANTOM
 62
     7
420
 16777215
370
     0
100
AcDbSpline
210
0.0
220
0.0
230
1.0
 70
     8
 71
     3
 72
    56
 73
    52
 74
     0
 42
0.000000001
 43
0.0000000001
 40
0.0
 40
0.0
 40
0.0
 40
0.0
 40
0.0312500000000001
 40
0.0312500000000001
 40
0.0625000000000003
 40
0.0625000000000003
 40
0.1250000000000006
 40
0.1250000000000006
 40
0.1562500000000007
 40
0.1562500000000007
 40
0.1640625000000007
 40
0.1640625000000007
 40
0.1718750000000008
 40
0.1718750000000008
 40
0.187500000000001
 40
0.187500000000001
 40
0.2500000000000014
 40
0.2500000000000014
 40
0.2812500000000016
 40
0.2812500000000016
 40
0.2968750000000016
 40
0.2968750000000016
 40
0.3125000000000016
 40
0.3125000000000016
 40
0.375000000000002
 40
0.375000000000002
 40
0.4062500000000022
 40
0.4062500000000022
 40
0.4218750000000022
 40
0.4218750000000022
 40
0.4375000000000022
 40
0.4375000000000022
 40
0.5000000000000019
 40
0.5000000000000019
 40
0.5625000000000016
 40
0.5625000000000016
 40
0.5937500000000013
 40
0.5937500000000013
 40
0.6093750000000011
 40
0.6093750000000011
 40
0.625000000000001
 40
0.625000000000001
 40
0.6875000000000006
 40
0.6875000000000006
 40
0.7187500000000004
 40
0.7187500000000004
 40
0.7500000000000002
 40
0.7500000000000002
 40
0.8750000000000001
 40
0.8750000000000001
 40
1.0
 40
1.0
 40
1.0
 40
1.0
 10
492.2076859036013
 20
1091.412867796412
 30
0.0
 10
492.2077031107172
 20
1095.13917643231
 30
0.0
 10
492.2961959143758
 20
1098.868789259738
 30
0.0
 10
492.6700035953182
 20
1106.288045818774
 30
0.0
 10
492.9551133006353
 20
1109.980591988537
 30
0.0
 10
494.1323383315627
 20
1121.002239327053
 30
0.0
 10
495.3465660024797
 20
1128.275311678741
 30
0.0
 10
497.9171304499359
 20
1139.054598982272
 30
0.0
 10
498.9005709449105
 20
1142.625676202973
 30
0.0
 10
500.3041288454694
 20
1147.05921209497
 30
0.0
 10
500.5936126106858
 20
1147.944393423269
 30
0.0
 10
501.1904432454368
 20
1149.711648938465
 30
0.0
 10
501.4980979554829
 20
1150.594482237258
 30
0.0
 10
502.444667009465
 20
1153.227493303552
 30
0.0
 10
503.1080395602515
 20
1154.964903232663
 30
0.0
 10
506.5883605289288
 20
1163.561286328093
 30
0.0
 10
509.8956019054668
 20
1170.148305153178
 30
0.0
 10
515.6769628388554
 20
1179.573721349416
 30
0.0
 10
517.7408293908261
 20
1182.639676721789
 30
0.0
 10
521.046072953476
 20
1187.122436109301
 30
0.0
 10
522.1845851136839
 20
1188.599168559903
 30
0.0
 10
524.5246453144177
 20
1191.504967209251
 30
0.0
 10
525.7212247246988
 20
1192.9282661052
 30
0.0
 10
531.8342291151348
 20
1199.899700957107
 30
0.0
 10
537.1391436662193
 20
1205.014701065398
 30
0.0
 10
545.6428788199127
 20
1212.078048343148
 30
0.0
 10
548.5684571362484
 20
1214.33103954462
 30
0.0
 10
553.0857581692088
 20
1217.566775393614
 30
0.0
 10
554.6132062460948
 20
1218.621521847399
 30
0.0
 10
557.7090321964725
 20
1220.684006733113
 30
0.0
 10
559.2695319176281
 20
1221.686520657815
 30
0.0
 10
567.131145597303
 20
1226.564163551405
 30
0.0
 10
573.608864701603
 20
1230.036201510905
 30
0.0
 10
586.8677678157874
 20
1236.287636371425
 30
0.0
 10
593.6490819451772
 20
1239.066736282216
 30
0.0
 10
604.0099350851754
 20
1242.804274054261
 30
0.0
 10
607.4950625902359
 20
1243.978200704934
 30
0.0
 10
612.7662533039221
 20
1245.639805693588
 30
0.0
 10
614.530565480237
 20
1246.177129502152
 30
0.0
 10
618.0731038408572
 20
1247.220019202484
 30
0.0
 10
619.8520922778899
 20
1247.725780242343
 30
0.0
 10
628.7619571377137
 20
1250.173344031601
 30
0.0
 10
635.9484430423963
 20
1251.879343944438
 30
0.0
 10
646.8031392718424
 20
1254.115860203599
 30
0.0
 10
650.4358118386162
 20
1254.807811077631
 30
0.0
 10
657.7056903978447
 20
1256.090341285553
 30
0.0
 10
661.3447678889639
 20
1256.681369349884
 30
0.0
 10
679.5586074461062
 20
1259.412504940157
 30
0.0
 10
694.1890558369047
 20
1260.876591895104
 30
0.0
 10
723.5367507486583
 20
1262.751054292407
 30
0.0
 10
738.2541755253578
 20
1263.159265746559
 30
0.0
 10
753.0052231085323
 20
1263.159303220411
 30
0.0
  0
POLYLINE
  5
85
330
1F
100
AcDbEntity
  8
Ios54
  6
PHANTOM
 62
     7
420
 16777215
370
     0
100
AcDb2dPolyline
 66
     1
 10
0.0
 20
0.0
 30
0.0
  0
VERTEX
  5
86
330
85
100
AcDbEntity
  8
Ios54
  6
PHANTOM
 62
     7
420
 16777215
370
     0
100
AcDbVertex
100
AcDb2dVertex
 10
753.0052306692
 20
1260.149985002131
 30
0.0
  0
VERTEX
  5
87
330
85
100
AcDbEntity
  8
Ios54
  6
PHANTOM
 62
     7
420
 16777215
370
     0
100
AcDbVertex
100
AcDb2dVertex
 10
753.0052280737
 20
1260.24204797142
 30
0.0
  0
VERTEX
  5
88
330
85
100
AcDbEntity
  8
Ios54
  6
PHANTOM
 62
     7
420
 16777215
370
     0
100
AcDbVertex
100
AcDb2dVertex
 10
753.0052258346
 20
1260.436504279363
 30
0.0
  0
VERTEX
  5
89
330
85
100
AcDbEntity
  8
Ios54
  6
PHANTOM
 62
     7
420
 16777215
370
     0
100
AcDbVertex
100
AcDb2dVertex
 10
753.0052240304
 20
1260.726528664231
 30
0.0
  0
VERTEX
  5
8A
330
85
100
AcDbEntity
  8
Ios54
  6
PHANTOM
 62
     7
420
 16777215
370
     0
100
AcDbVertex
100
AcDb2dVertex
 10
753.0052227244
 20
1261.101941500901
 30
0.0
  0
VERTEX
  5
8B
330
85
100
AcDbEntity
  8
Ios54
  6
PHANTOM
 62
     7
420
 16777215
370
     0
100
AcDbVertex
100
AcDb2dVertex
 10
753.0052219625
 20
1261.54956609747
 30
0.0
  0
VERTEX
  5
8C
330
85
100
AcDbEntity
  8
Ios54
  6
PHANTOM
 62
     7
420
 16777215
370
     0
100
AcDbVertex
100
AcDb2dVertex
 10
753.0052217715
 20
1262.053691186456
 30
0.0
  0
VERTEX
  5
8D
330
85
100
AcDbEntity
  8
Ios54
  6
PHANTOM
 62
     7
420
 16777215
370
     0
100
AcDbVertex
100
AcDb2dVertex
 10
753.005222158
 20
1262.596622378502
 30
0.0
  0
VERTEX
  5
8E
330
85
100
AcDbEntity
  8
Ios54
  6
PHANTOM
 62
     7
420
 16777215
370
     0
100
AcDbVertex
100
AcDb2dVertex
 10
753.0052231085
 20
1263.159303220435
 30
0.0
  0
SEQEND
  5
8F
330
85
100
AcDbEntity
  8
Ios54
  6
PHANTOM
 62
     7
420
 16777215
370
     0
  0
SPLINE
  5
90
330
1F
100
AcDbEntity
  8
Ios54
  6
PHANTOM
 62
     7
420
 16777215
370
     0
100
AcDbSpline
210
0.0
220
0.0
230
1.0
 70
     8
 71
     3
 72
    56
 73
    52
 74
     0
 42
0.000000001
 43
0.0000000001
 40
0.0
 40
0.0
 40
0.0
 40
0.0
 40
0.0312500000000001
 40
0.0312500000000001
 40
0.0625000000000002
 40
0.0625000000000002
 40
0.1250000000000004
 40
0.1250000000000004
 40
0.1562500000000004
 40
0.1562500000000004
 40
0.1640625000000004
 40
0.1640625000000004
 40
0.1718750000000004
 40
0.1718750000000004
 40
0.1875000000000004
 40
0.1875000000000004
 40
0.2500000000000006
 40
0.2500000000000006
 40
0.2812500000000005
 40
0.2812500000000005
 40
0.2968750000000004
 40
0.2968750000000004
 40
0.3125000000000003
 40
0.3125000000000003
 40
0.3750000000000003
 40
0.3750000000000003
 40
0.4062500000000004
 40
0.4062500000000004
 40
0.4218750000000004
 40
0.4218750000000004
 40
0.4375000000000003
 40
0.4375000000000003
 40
0.4999999999999999
 40
0.4999999999999999
 40
0.5624999999999996
 40
0.5624999999999996
 40
0.5937499999999993
 40
0.5937499999999993
 40
0.6093749999999994
 40
0.6093749999999994
 40
0.6249999999999994
 40
0.6249999999999994
 40
0.6874999999999998
 40
0.6874999999999998
 40
0.7187499999999999
 40
0.7187499999999999
 40
0.7499999999999999
 40
0.7499999999999999
 40
0.875
 40
0.875
 40
1.0
 40
1.0
 40
1.0
 40
1.0
 10
1013.80277642038
 20
1091.412897624812
 30
0.0
 10
1013.802759213263
 20
1087.686588828416
 30
0.0
 10
1013.714266401994
 20
1083.956975840454
 30
0.0
 10
1013.340458688114
 20
1076.537718964818
 30
0.0
 10
1013.055348957478
 20
1072.845172638306
 30
0.0
 10
1011.878123820512
 20
1061.823524834815
 30
0.0
 10
1010.663896038749
 20
1054.550452180177
 30
0.0
 10
1008.093331351405
 20
1043.771164435117
 30
0.0
 10
1007.10989076262
 20
1040.200087069662
 30
0.0
 10
1005.706332726185
 20
1035.766550999982
 30
0.0
 10
1005.41684893303
 20
1034.88136963628
 30
0.0
 10
1004.820018240261
 20
1033.114114050653
 30
0.0
 10
1004.512363500974
 20
1032.231280719162
 30
0.0
 10
1003.565794360199
 20
1029.59826956483
 30
0.0
 10
1002.90242174855
 20
1027.860859578706
 30
0.0
 10
999.422100460775
 20
1019.264476206468
 30
0.0
 10
996.1148587810321
 20
1012.677457186717
 30
0.0
 10
990.3334973159374
 20
1003.252040741442
 30
0.0
 10
988.2696305739391
 20
1000.186085293205
 30
0.0
 10
984.9643867067952
 20
995.7033258027644
 30
0.0
 10
983.8258744323063
 20
994.2265933090614
 30
0.0
 10
981.4858140435031
 20
991.3207946315995
 30
0.0
 10
980.2892345377337
 20
989.8974957232293
 30
0.0
 10
974.1762296589499
 20
982.9260608214516
 30
0.0
 10
968.8713146952407
 20
977.8110606979693
 30
0.0
 10
960.3675788927272
 20
970.7477134310628
 30
0.0
 10
957.4420003551448
 20
968.4947222388023
 30
0.0
 10
952.9246989833506
 20
965.2589864114634
 30
0.0
 10
951.3972507739561
 20
964.204239953913
 30
0.0
 10
948.3014246315506
 20
962.1417551129521
 30
0.0
 10
946.7409248142194
 20
961.139241211011
 30
0.0
 10
938.8793106530246
 20
956.2615984327688
 30
0.0
 10
932.4015911600108
 20
952.7895605737782
 30
0.0
 10
919.1426872643167
 20
946.538125923988
 30
0.0
 10
912.3613727411356
 20
943.7590261256906
 30
0.0
 10
902.000519008519
 20
940.0214885270402
 30
0.0
 10
898.515391305067
 20
938.8475619361521
 30
0.0
 10
893.2442002932358
 20
937.185957038504
 30
0.0
 10
891.4798880174167
 20
936.6486332605643
 30
0.0
 10
887.937349457552
 20
935.605743622038
 30
0.0
 10
886.1583609256046
 20
935.0999826148058
 30
0.0
 10
877.2484956178497
 20
932.6524189959277
 30
0.0
 10
870.0620093552878
 20
930.9464192175483
 30
0.0
 10
859.2073125871882
 20
928.7099031681662
 30
0.0
 10
855.5746398473837
 20
928.0179523657832
 30
0.0
 10
848.3047609597278
 20
926.7354223019512
 30
0.0
 10
844.6656833050786
 20
926.1443943086748
 30
0.0
 10
826.4518429336836
 20
923.4132590650428
 30
0.0
 10
811.8213938987731
 20
921.9491724038171
 30
0.0
 10
782.4736977140806
 20
920.074710561764
 30
0.0
 10
767.756272284918
 20
919.6664996563939
 30
0.0
 10
753.0052240978773
 20
919.6664622007743
 30
0.0
  0
LINE
  5
91
330
1F
100
AcDbEntity
  8
Ios54
  6
PHANTOM
 62
     7
420
 16777215
370
     0
100
AcDbLine
 10
753.0052240979
 20
919.6664622007644
 30
0.0
 11
753.0052316548
 21
922.6757804190688
 31
0.0
  0
SPLINE
  5
92
330
1F
100
AcDbEntity
  8
Ios54
  6
PHANTOM
 62
     7
420
 16777215
370
     0
100
AcDbSpline
210
0.0
220
0.0
230
1.0
 70
     8
 71
     3
 72
    52
 73
    48
 74
     0
 42
0.000000001
 43
0.0000000001
 40
0.0
 40
0.0
 40
0.0
 40
0.0
 40
0.1250000000000008
 40
0.1250000000000008
 40
0.2500000000000016
 40
0.2500000000000016
 40
0.3750000000000023
 40
0.3750000000000023
 40
0.3906250000000023
 40
0.3906250000000023
 40
0.4062500000000023
 40
0.4062500000000023
 40
0.4375000000000021
 40
0.4375000000000021
 40
0.5000000000000016
 40
0.5000000000000016
 40
0.5625000000000011
 40
0.5625000000000011
 40
0.5781250000000012
 40
0.5781250000000012
 40
0.5937500000000012
 40
0.5937500000000012
 40
0.6250000000000013
 40
0.6250000000000013
 40
0.6875000000000011
 40
0.6875000000000011
 40
0.7031250000000011
 40
0.7031250000000011
 40
0.7109375000000011
 40
0.7109375000000011
 40
0.718750000000001
 40
0.718750000000001
 40
0.7500000000000009
 40
0.7500000000000009
 40
0.8125000000000004
 40
0.8125000000000004
 40
0.8281250000000003
 40
0.8281250000000003
 40
0.8437500000000002
 40
0.8437500000000002
 40
0.8750000000000001
 40
0.8750000000000001
 40
0.9375
 40
0.9375
 40
0.96875
 40
0.96875
 40
1.0
 40
1.0
 40
1.0
 40
1.0
 10
753.0052316547626
 20
922.6757804190868
 30
0.0
 10
767.5228522066153
 20
922.6758172999553
 30
0.0
 10
781.9945921897248
 20
923.0728029652896
 30
0.0
 10
810.82006031135
 20
924.8877873205889
 30
0.0
 10
825.1741494706638
 20
926.302662536479
 30
0.0
 10
853.7231399809826
 20
930.5096715494202
 30
0.0
 10
867.9190036972684
 20
933.2934791696422
 30
0.0
 10
883.7587767097938
 20
937.5549579561456
 30
0.0
 10
885.5182775530976
 20
938.0447570620422
 30
0.0
 10
889.0267006975719
 20
939.0562700938917
 30
0.0
 10
890.7741395544451
 20
939.5774938165672
 30
0.0
 10
895.9952855241509
 20
941.189513400817
 30
0.0
 10
899.4478467412539
 20
942.328601258084
 30
0.0
 10
909.7132912352699
 20
945.9565162510232
 30
0.0
 10
916.4345128897213
 20
948.6546758611254
 30
0.0
 10
929.5806126392062
 20
954.7277704744346
 30
0.0
 10
936.0058801094654
 20
958.1018162409333
 30
0.0
 10
943.8076309957559
 20
962.8442562061372
 30
0.0
 10
945.3564056849814
 20
963.819179750802
 30
0.0
 10
948.4294389842394
 20
965.8250155012869
 30
0.0
 10
949.9529873733205
 20
966.8557065273769
 30
0.0
 10
954.4519220314728
 20
970.0134862954361
 30
0.0
 10
957.3664248996364
 20
972.2132293902018
 30
0.0
 10
965.8400580766323
 20
979.1134308411947
 30
0.0
 10
971.12927763225
 20
984.1149007602885
 30
0.0
 10
977.2277466491126
 20
990.9389110506679
 30
0.0
 10
978.421537053418
 20
992.3326012598967
 30
0.0
 10
980.1726693931015
 20
994.4672474159598
 30
0.0
 10
980.7504630612651
 20
995.1870295611142
 30
0.0
 10
981.8884095950278
 20
996.6362318167489
 30
0.0
 10
982.4486303725199
 20
997.3656870930286
 30
0.0
 10
985.2056215073318
 20
1001.037428496993
 30
0.0
 10
987.2711713575715
 20
1004.05248978547
 30
0.0
 10
993.0572456085928
 20
1013.325379549298
 30
0.0
 10
996.3667249170232
 20
1019.811174471008
 30
0.0
 10
999.8499325478898
 20
1028.280929034445
 30
0.0
 10
1000.513894831918
 20
1029.993003921461
 30
0.0
 10
1001.7772299573
 20
1033.452975132101
 30
0.0
 10
1002.376631334814
 20
1035.201321015065
 30
0.0
 10
1004.071002921663
 20
1040.471951375926
 30
0.0
 10
1005.066089282859
 20
1044.032519526957
 30
0.0
 10
1007.659493102988
 20
1054.765190067915
 30
0.0
 10
1008.881146512921
 20
1062.008019068226
 30
0.0
 10
1010.063620576485
 20
1072.984656517397
 30
0.0
 10
1010.349546881523
 20
1076.666731313083
 30
0.0
 10
1010.722526729739
 20
1084.034769779525
 30
0.0
 10
1010.810067227272
 20
1087.7222819186
 30
0.0
 10
1010.810084269503
 20
1091.412883627777
 30
0.0
  0
LINE
  5
93
330
1F
100
AcDbEntity
  8
Ios54
  6
PHANTOM
 62
     7
420
 16777215
370
     0
100
AcDbLine
 10
1013.8027764204
 20
1091.412897624799
 30
0.0
 11
1010.8100842695
 21
1091.412883627767
 31
0.0
  0
SPLINE
  5
94
330
1F
100
AcDbEntity
  8
Ios54
  6
PHANTOM
 62
     7
420
 16777215
370
     0
100
AcDbSpline
210
0.0
220
0.0
230
1.0
 70
     8
 71
     3
 72
    56
 73
    52
 74
     0
 42
0.000000001
 43
0.0000000001
 40
0.0
 40
0.0
 40
0.0
 40
0.0
 40
0.0624999999999994
 40
0.0624999999999994
 40
0.0781249999999992
 40
0.0781249999999992
 40
0.093749999999999
 40
0.093749999999999
 40
0.1249999999999987
 40
0.1249999999999987
 40
0.1874999999999981
 40
0.1874999999999981
 40
0.2031249999999979
 40
0.2031249999999979
 40
0.2187499999999977
 40
0.2187499999999977
 40
0.2499999999999973
 40
0.2499999999999973
 40
0.3124999999999966
 40
0.3124999999999966
 40
0.3437499999999962
 40
0.3437499999999962
 40
0.3515624999999962
 40
0.3515624999999962
 40
0.3593749999999961
 40
0.3593749999999961
 40
0.3749999999999962
 40
0.3749999999999962
 40
0.4374999999999964
 40
0.4374999999999964
 40
0.4687499999999966
 40
0.4687499999999966
 40
0.4843749999999966
 40
0.4843749999999966
 40
0.4999999999999967
 40
0.4999999999999967
 40
0.562499999999997
 40
0.562499999999997
 40
0.6249999999999973
 40
0.6249999999999973
 40
0.6874999999999976
 40
0.6874999999999976
 40
0.7499999999999978
 40
0.7499999999999978
 40
0.7812499999999981
 40
0.7812499999999981
 40
0.8124999999999983
 40
0.8124999999999983
 40
0.8749999999999989
 40
0.8749999999999989
 40
1.0
 40
1.0
 40
1.0
 40
1.0
 10
1010.810084269495
 20
1091.4128836278
 30
0.0
 10
1010.810050198007
 20
1098.778853937465
 30
0.0
 10
1010.460467235151
 20
1106.11846812979
 30
0.0
 10
1009.480161390782
 20
1115.252018800272
 30
0.0
 10
1009.25688892504
 20
1117.076677192393
 30
0.0
 10
1008.753070447106
 20
1120.721675529779
 30
0.0
 10
1008.472121125266
 20
1122.544177939308
 30
0.0
 10
1007.542939545369
 20
1127.982754934562
 30
0.0
 10
1006.808369964003
 20
1131.572614296999
 30
0.0
 10
1004.240548289333
 20
1142.228770411804
 30
0.0
 10
1002.037930333964
 20
1149.180008892031
 30
0.0
 10
998.5774886542112
 20
1157.648772232116
 30
0.0
 10
997.8498944837469
 20
1159.331464755194
 30
0.0
 10
996.3211816399792
 20
1162.673946758254
 30
0.0
 10
995.5179166319281
 20
1164.337773764689
 30
0.0
 10
993.0143741472261
 20
1169.254008341456
 30
0.0
 10
991.2195649561677
 20
1172.435149103529
 30
0.0
 10
985.4621153972511
 20
1181.692834143696
 30
0.0
 10
981.127254278294
 20
1187.484254926642
 30
0.0
 10
973.9064809612919
 20
1195.621024533675
 30
0.0
 10
971.3798775773655
 20
1198.241606225938
 30
0.0
 10
968.0750099256509
 20
1201.405026514904
 30
0.0
 10
967.4067063734276
 20
1202.032095728679
 30
0.0
 10
966.0555165976984
 20
1203.275063736008
 30
0.0
 10
965.3720689250015
 20
1203.891437728075
 30
0.0
 10
963.3088852609061
 20
1205.716137645436
 30
0.0
 10
961.9139089950753
 20
1206.902328577674
 30
0.0
 10
954.8463299660057
 20
1212.689511956923
 30
0.0
 10
948.8967361430483
 20
1216.860899788314
 30
0.0
 10
939.6050834219755
 20
1222.548369488134
 30
0.0
 10
936.4465951900423
 20
1224.349163814663
 30
0.0
 10
931.6237104962039
 20
1226.918286634503
 30
0.0
 10
930.0018956888707
 20
1227.752657964588
 30
0.0
 10
926.7310862350286
 20
1229.379245530028
 30
0.0
 10
925.0801545428656
 20
1230.172338311244
 30
0.0
 10
916.7848604982837
 20
1234.026209324083
 30
0.0
 10
910.0466307934099
 20
1236.74529043758
 30
0.0
 10
896.4035635227999
 20
1241.58883339717
 30
0.0
 10
889.4987091896134
 20
1243.713235400656
 30
0.0
 10
875.5567488742694
 20
1247.490036596853
 30
0.0
 10
868.51831566621
 20
1249.137698953684
 30
0.0
 10
854.3281667733919
 20
1252.028721355583
 30
0.0
 10
847.1757111546656
 20
1253.271912631135
 30
0.0
 10
836.3762133254961
 20
1254.876473450288
 30
0.0
 10
832.7706992807921
 20
1255.367446232632
 30
0.0
 10
825.5490555775214
 20
1256.267401616046
 30
0.0
 10
821.9321864757201
 20
1256.676433830577
 30
0.0
 10
811.0780255986074
 20
1257.788078455817
 30
0.0
 10
803.8340057545357
 20
1258.375735593334
 30
0.0
 10
782.0819870305191
 20
1259.75166269108
 30
0.0
 10
767.553877333957
 20
1260.14994806107
 30
0.0
 10
753.0052306692187
 20
1260.149985002139
 30
0.0
  0
SPLINE
  5
95
330
1F
100
AcDbEntity
  8
Ios54
  6
PHANTOM
 62
     7
420
 16777215
370
     0
100
AcDbSpline
210
0.0
220
0.0
230
1.0
 70
     8
 71
     3
 72
    52
 73
    48
 74
     0
 42
0.000000001
 43
0.0000000001
 40
0.0
 40
0.0
 40
0.0
 40
0.0
 40
0.0625
 40
0.0625
 40
0.1250000000000001
 40
0.1250000000000001
 40
0.1875000000000001
 40
0.1875000000000001
 40
0.2500000000000002
 40
0.2500000000000002
 40
0.3125000000000002
 40
0.3125000000000002
 40
0.3750000000000002
 40
0.3750000000000002
 40
0.4375000000000002
 40
0.4375000000000002
 40
0.5000000000000001
 40
0.5000000000000001
 40
0.5625
 40
0.5625
 40
0.625
 40
0.625
 40
0.640625
 40
0.640625
 40
0.65625
 40
0.65625
 40
0.6875
 40
0.6875
 40
0.7499999999999999
 40
0.7499999999999999
 40
0.7812499999999999
 40
0.7812499999999999
 40
0.7890624999999999
 40
0.7890624999999999
 40
0.7968749999999999
 40
0.7968749999999999
 40
0.8124999999999999
 40
0.8124999999999999
 40
0.8749999999999999
 40
0.8749999999999999
 40
0.9062499999999999
 40
0.9062499999999999
 40
0.921875
 40
0.921875
 40
0.9375
 40
0.9375
 40
1.0
 40
1.0
 40
1.0
 40
1.0
 10
753.0052231085323
 20
1263.159303220451
 30
0.0
 10
760.3768207484528
 20
1263.159284502924
 30
0.0
 10
767.747214845807
 20
1263.057259101158
 30
0.0
 10
782.4668849114544
 20
1262.618679158438
 30
0.0
 10
789.8183996725494
 20
1262.282115441904
 30
0.0
 10
804.5026223423022
 20
1261.343906519661
 30
0.0
 10
811.8353719096126
 20
1260.742848490233
 30
0.0
 10
826.4786599734849
 20
1259.227668683472
 30
0.0
 10
833.7904669947361
 20
1258.313475116752
 30
0.0
 10
848.3832015577533
 20
1256.122623301077
 30
0.0
 10
855.629729064536
 20
1254.849443025015
 30
0.0
 10
870.0063319649814
 20
1251.887754114967
 30
0.0
 10
877.1364119446871
 20
1250.19926183718
 30
0.0
 10
891.2584938914803
 20
1246.329819800934
 30
0.0
 10
898.2514665922606
 20
1244.152332179998
 30
0.0
 10
912.0663729814856
 20
1239.187343515179
 30
0.0
 10
918.8884451389133
 20
1236.400336323178
 30
0.0
 10
932.3234336594433
 20
1230.080364392507
 30
0.0
 10
938.8323028850897
 20
1226.588847797616
 30
0.0
 10
951.3467370347673
 20
1218.833519078958
 30
0.0
 10
957.3544572187492
 20
1214.569037215849
 30
0.0
 10
964.4892337366018
 20
1208.657234403626
 30
0.0
 10
965.897360652276
 20
1207.445682495426
 30
0.0
 10
968.6740311686829
 20
1204.961209100331
 30
0.0
 10
970.0368844216976
 20
1203.693236770752
 30
0.0
 10
974.03173326541
 20
1199.826044279271
 30
0.0
 10
976.5768611264108
 20
1197.157457756682
 30
0.0
 10
983.851142851818
 20
1188.87512476027
 30
0.0
 10
988.2190554662513
 20
1182.984698095053
 30
0.0
 10
994.0228431092007
 20
1173.57609121876
 30
0.0
 10
995.8325522683427
 20
1170.344236278732
 30
0.0
 10
997.9367509938465
 20
1166.183450688792
 30
0.0
 10
998.3501696037195
 20
1165.344217899748
 30
0.0
 10
999.1579029146897
 20
1163.660456200509
 30
0.0
 10
999.5523882274936
 20
1162.815651574415
 30
0.0
 10
1000.708197228751
 20
1160.27262128938
 30
0.0
 10
1001.441881719875
 20
1158.565781635868
 30
0.0
 10
1004.932167414581
 20
1149.976065508176
 30
0.0
 10
1007.156790303252
 20
1142.927393397391
 30
0.0
 10
1009.7522584088
 20
1132.123300877291
 30
0.0
 10
1010.495152686884
 20
1128.483832771333
 30
0.0
 10
1011.435192738969
 20
1122.97030808652
 30
0.0
 10
1011.719479401836
 20
1121.122830506196
 30
0.0
 10
1012.229393730648
 20
1117.427916278537
 30
0.0
 10
1012.455429420518
 20
1115.578276756454
 30
0.0
 10
1013.448072992064
 20
1106.31970079371
 30
0.0
 10
1013.802741882448
 20
1098.879679525282
 30
0.0
 10
1013.802776420242
 20
1091.412897624812
 30
0.0
  0
SPLINE
  5
96
330
1F
100
AcDbEntity
  8
Ios54
  6
PHANTOM
 62
     7
420
 16777215
370
     0
100
AcDbSpline
210
0.0
220
0.0
230
1.0
 70
     8
 71
     3
 72
    56
 73
    52
 74
     0
 42
0.000000001
 43
0.0000000001
 40
0.0
 40
0.0
 40
0.0
 40
0.0
 40
0.0625000000000009
 40
0.0625000000000009
 40
0.0781250000000011
 40
0.0781250000000011
 40
0.0937500000000013
 40
0.0937500000000013
 40
0.1250000000000017
 40
0.1250000000000017
 40
0.1875000000000027
 40
0.1875000000000027
 40
0.2031250000000029
 40
0.2031250000000029
 40
0.2187500000000031
 40
0.2187500000000031
 40
0.2500000000000035
 40
0.2500000000000035
 40
0.3125000000000043
 40
0.3125000000000043
 40
0.3437500000000047
 40
0.3437500000000047
 40
0.3515625000000047
 40
0.3515625000000047
 40
0.3593750000000047
 40
0.3593750000000047
 40
0.3750000000000045
 40
0.3750000000000045
 40
0.4375000000000041
 40
0.4375000000000041
 40
0.4687500000000041
 40
0.4687500000000041
 40
0.4843750000000041
 40
0.4843750000000041
 40
0.500000000000004
 40
0.500000000000004
 40
0.5625000000000036
 40
0.5625000000000036
 40
0.6250000000000031
 40
0.6250000000000031
 40
0.6875000000000026
 40
0.6875000000000026
 40
0.750000000000002
 40
0.750000000000002
 40
0.7812500000000019
 40
0.7812500000000019
 40
0.8125000000000017
 40
0.8125000000000017
 40
0.8750000000000011
 40
0.8750000000000011
 40
1.0
 40
1.0
 40
1.0
 40
1.0
 10
495.2003780544864
 20
1091.412881793424
 30
0.0
 10
495.200412125974
 20
1084.046911483801
 30
0.0
 10
495.549995088915
 20
1076.70729729154
 30
0.0
 10
496.5303009333766
 20
1067.573746621154
 30
0.0
 10
496.7535733991356
 20
1065.749088229054
 30
0.0
 10
497.2573918770993
 20
1062.104089891709
 30
0.0
 10
497.5383411989509
 20
1060.281587482199
 30
0.0
 10
498.4675227788815
 20
1054.843010486935
 30
0.0
 10
499.2020923602453
 20
1051.253151124489
 30
0.0
 10
501.7699140348496
 20
1040.596995009657
 30
0.0
 10
503.97253199037
 20
1033.645756529496
 30
0.0
 10
507.4329736696945
 20
1025.176993189336
 30
0.0
 10
508.1605678400887
 20
1023.49430066625
 30
0.0
 10
509.6892806837361
 20
1020.151818663181
 30
0.0
 10
510.492545691738
 20
1018.487991656744
 30
0.0
 10
512.9960881763405
 20
1013.571757079912
 30
0.0
 10
514.7908973673428
 20
1010.390616317808
 30
0.0
 10
520.5483469260574
 20
1001.132931277532
 30
0.0
 10
524.8832080450741
 20
995.3415104946756
 30
0.0
 10
532.1039813620096
 20
987.2047408876789
 30
0.0
 10
534.630584745893
 20
984.5841591954162
 30
0.0
 10
537.9354523975978
 20
981.4207389064857
 30
0.0
 10
538.6037559498217
 20
980.7936696927206
 30
0.0
 10
539.954945725557
 20
979.5507016854159
 30
0.0
 10
540.6383933982609
 20
978.9343276933616
 30
0.0
 10
542.7015770623847
 20
977.1096277760532
 30
0.0
 10
544.0965533282459
 20
975.9234368438689
 30
0.0
 10
551.1641323575165
 20
970.1362534649577
 30
0.0
 10
557.1137261805599
 20
965.9648656337164
 30
0.0
 10
566.4053789013838
 20
960.277395933529
 30
0.0
 10
569.5638671332936
 20
958.4766016069689
 30
0.0
 10
574.3867518271494
 20
955.9074787871625
 30
0.0
 10
576.0085666344969
 20
955.0731074571016
 30
0.0
 10
579.2793760883776
 20
953.4465198917248
 30
0.0
 10
580.930307780569
 20
952.653427110545
 30
0.0
 10
589.2256018252122
 20
948.7995560979336
 30
0.0
 10
595.9638315300971
 20
946.0804749844586
 30
0.0
 10
609.6068988006956
 20
941.2369320247545
 30
0.0
 10
616.5117531338598
 20
939.1125300211331
 30
0.0
 10
630.4537134491719
 20
935.3357288246802
 30
0.0
 10
637.4921466572683
 20
933.6880664678946
 30
0.0
 10
651.6822955501224
 20
930.7970440659242
 30
0.0
 10
658.8347511688391
 20
929.5538527902024
 30
0.0
 10
669.6342489980897
 20
927.9492919711888
 30
0.0
 10
673.2397630428161
 20
927.4583191888518
 30
0.0
 10
680.4614067461251
 20
926.5583638053984
 30
0.0
 10
684.0782758479411
 20
926.1493315908247
 30
0.0
 10
694.9324367250946
 20
925.0376869654551
 30
0.0
 10
702.1764565691946
 20
924.4500298278493
 30
0.0
 10
723.928475293327
 20
923.0741027303771
 30
0.0
 10
738.4565849899491
 20
922.6758173601534
 30
0.0
 10
753.0052316547626
 20
922.6757804190843
 30
0.0
  0
SPLINE
  5
97
330
1F
100
AcDbEntity
  8
Ios54
  6
PHANTOM
 62
     7
420
 16777215
370
     0
100
AcDbSpline
210
0.0
220
0.0
230
1.0
 70
     8
 71
     3
 72
    52
 73
    48
 74
     0
 42
0.000000001
 43
0.0000000001
 40
0.0
 40
0.0
 40
0.0
 40
0.0
 40
0.1249999999999997
 40
0.1249999999999997
 40
0.1874999999999995
 40
0.1874999999999995
 40
0.2499999999999993
 40
0.2499999999999993
 40
0.3124999999999992
 40
0.3124999999999992
 40
0.3749999999999989
 40
0.3749999999999989
 40
0.4374999999999986
 40
0.4374999999999986
 40
0.4999999999999981
 40
0.4999999999999981
 40
0.5312499999999979
 40
0.5312499999999979
 40
0.5624999999999978
 40
0.5624999999999978
 40
0.6249999999999977
 40
0.6249999999999977
 40
0.6406249999999976
 40
0.6406249999999976
 40
0.6562499999999976
 40
0.6562499999999976
 40
0.6874999999999978
 40
0.6874999999999978
 40
0.7499999999999982
 40
0.7499999999999982
 40
0.7812499999999983
 40
0.7812499999999983
 40
0.7890624999999984
 40
0.7890624999999984
 40
0.7968749999999986
 40
0.7968749999999986
 40
0.8124999999999988
 40
0.8124999999999988
 40
0.8749999999999992
 40
0.8749999999999992
 40
0.9062499999999996
 40
0.9062499999999996
 40
0.9218749999999997
 40
0.9218749999999997
 40
0.9374999999999997
 40
0.9374999999999997
 40
1.0
 40
1.0
 40
1.0
 40
1.0
 10
753.0052240978771
 20
919.6664622008102
 30
0.0
 10
738.2631532319913
 20
919.6664996330105
 30
0.0
 10
723.5481242220778
 20
920.0740949602409
 30
0.0
 10
701.5283192680428
 20
921.4803304671602
 30
0.0
 10
694.1971352718325
 20
922.0809650465035
 30
0.0
 10
679.5555403156351
 20
923.5953123801812
 30
0.0
 10
672.2439084935216
 20
924.5090925560831
 30
0.0
 10
657.6496762064982
 20
926.6993856576373
 30
0.0
 10
650.4024002375638
 20
927.972288002705
 30
0.0
 10
636.02430230852
 20
930.9334278117989
 30
0.0
 10
628.8934743190275
 20
932.6216437719321
 30
0.0
 10
614.7699065321069
 20
936.4905694779998
 30
0.0
 10
607.776188033457
 20
938.6677886700875
 30
0.0
 10
593.9597915095136
 20
943.6322456879284
 30
0.0
 10
587.1369770820559
 20
946.418997033142
 30
0.0
 10
577.0596224418736
 20
951.1585927646637
 30
0.0
 10
573.7514510202249
 20
952.8217500192194
 30
0.0
 10
567.2529626340759
 20
956.3265472110079
 30
0.0
 10
564.0615694398099
 20
958.1686374213875
 30
0.0
 10
554.6744529834824
 20
963.9849288675405
 30
0.0
 10
548.6658880780581
 20
968.2492985622335
 30
0.0
 10
541.5300837223734
 20
974.1610046740321
 30
0.0
 10
540.12175259434
 20
975.3725393432477
 30
0.0
 10
537.3446765816046
 20
977.8569828005186
 30
0.0
 10
535.9815607468765
 20
979.1250001476329
 30
0.0
 10
531.9860158790967
 20
982.9922704101414
 30
0.0
 10
529.4404427508671
 20
985.6609231400901
 30
0.0
 10
522.1648822226372
 20
993.9434984148905
 30
0.0
 10
517.7961948009553
 20
999.8341461320848
 30
0.0
 10
511.9913673782178
 20
1009.243178358202
 30
0.0
 10
510.1813322155409
 20
1012.475190851495
 30
0.0
 10
508.076752813794
 20
1016.636193931131
 30
0.0
 10
507.6632580733682
 20
1017.475473543018
 30
0.0
 10
506.8553641636125
 20
1019.15935587699
 30
0.0
 10
506.4608006108512
 20
1020.004221462292
 30
0.0
 10
505.3047628764106
 20
1022.547436490755
 30
0.0
 10
504.5709338750386
 20
1024.254401793135
 30
0.0
 10
501.0799632057769
 20
1032.844757876274
 30
0.0
 10
498.8549141407288
 20
1039.893979912484
 30
0.0
 10
496.2589562512345
 20
1050.698943907685
 30
0.0
 10
495.5159238292221
 20
1054.338710333399
 30
0.0
 10
494.5757086237509
 20
1059.852692490412
 30
0.0
 10
494.291368194308
 20
1061.700330080352
 30
0.0
 10
493.7813578761854
 20
1065.395566303073
 30
0.0
 10
493.5552799249901
 20
1067.245367255324
 30
0.0
 10
492.5624517627026
 20
1076.504752384887
 30
0.0
 10
492.2077204445789
 20
1083.945427419344
 30
0.0
 10
492.2076859037393
 20
1091.412867796412
 30
0.0
  0
SPLINE
  5
98
330
1F
100
AcDbEntity
  8
Ios54
  6
PHANTOM
 62
     7
420
 16777215
370
     0
100
AcDbSpline
210
0.0
220
0.0
230
1.0
 70
     8
 71
     3
 72
    58
 73
    54
 74
     0
 42
0.000000001
 43
0.0000000001
 40
0.0
 40
0.0
 40
0.0
 40
0.0
 40
0.0082757696013009
 40
0.0165869908118487
 40
0.0249336614238183
 40
0.033315786950833
 40
0.0417333810849656
 40
0.0501864661693856
 40
0.0586750736869379
 40
0.067199244764927
 40
0.0757590306963755
 40
0.0843544934780084
 40
0.0929857063652056
 40
0.1016527544441495
 40
0.1103557352213757
 40
0.1190947592309211
 40
0.1474964453656968
 40
0.1768864574965391
 40
0.2072696462763816
 40
0.2386553129155082
 40
0.2950410159091501
 40
0.3594952730218284
 40
0.3856621257927981
 40
0.4209479305314878
 40
0.4588510336801773
 40
0.4828124738161291
 40
0.5541509448374885
 40
0.6098686065583319
 40
0.6443552507910716
 40
0.6778670136115514
 40
0.7104610437972334
 40
0.7417724357101375
 40
0.7731650502099316
 40
0.8056696859867168
 40
0.8392502900204064
 40
0.8734443124947853
 40
0.8793626776937046
 40
0.8854635797355696
 40
0.8917480743812611
 40
0.898217431344449
 40
0.9048730832083618
 40
0.9117166246438715
 40
0.9187498101446379
 40
0.9259745502293244
 40
0.9333929060741092
 40
0.9410070825527442
 40
0.948819419676071
 40
0.9568323824378927
 40
0.9650485490891619
 40
0.9734705978773036
 40
0.9821012923018934
 40
0.9909434649515904
 40
1.0
 40
1.0
 40
1.0
 40
1.0
 10
753.0052186488421
 20
1255.363245510593
 30
0.0
 10
753.947410604423
 20
1255.362281879386
 30
0.0
 10
755.8358306623912
 20
1255.360350488983
 30
0.0
 10
758.6744780252815
 20
1255.344504556332
 30
0.0
 10
761.5251570646702
 20
1255.318764589608
 30
0.0
 10
764.3878263082164
 20
1255.281867983122
 30
0.0
 10
767.2624435842748
 20
1255.233710175987
 30
0.0
 10
770.1489660481299
 20
1255.173866347528
 30
0.0
 10
773.0473501687609
 20
1255.101989974959
 30
0.0
 10
775.9575517194403
 20
1255.01770526434
 30
0.0
 10
778.8795257927925
 20
1254.920636116012
 30
0.0
 10
781.8132267134375
 20
1254.810398059247
 30
0.0
 10
784.7586083380053
 20
1254.686600976733
 30
0.0
 10
787.7156228996063
 20
1254.548845895069
 30
0.0
 10
790.684225318484
 20
1254.396734731706
 30
0.0
 10
795.8953178366653
 20
1254.104890016332
 30
0.0
 10
803.4535438166982
 20
1253.604007115375
 30
0.0
 10
813.4579005549243
 20
1252.768974174728
 30
0.0
 10
823.7826229437652
 20
1251.7074329068
 30
0.0
 10
837.1326207452279
 20
1250.045696211428
 30
0.0
 10
854.2581369352102
 20
1247.346382031591
 30
0.0
 10
870.6454155923528
 20
1243.875134305565
 30
0.0
 10
884.51704136853
 20
1240.242791989794
 30
0.0
 10
895.3611689776852
 20
1237.000520289104
 30
0.0
 10
905.809508900407
 20
1233.338144951202
 30
0.0
 10
919.8923940384809
 20
1227.683743111155
 30
0.0
 10
935.3967934231165
 20
1220.102900360071
 30
0.0
 10
950.8594022829813
 20
1210.011137152968
 30
0.0
 10
961.832021471536
 20
1201.108091569946
 30
0.0
 10
970.1125727463393
 20
1193.132659102361
 30
0.0
 10
977.4242943038672
 20
1184.727922706952
 30
0.0
 10
983.8239585071213
 20
1175.901174970854
 30
0.0
 10
989.4197957163844
 20
1166.550147711305
 30
0.0
 10
994.2833289780586
 20
1156.503147872394
 30
0.0
 10
998.363496173762
 20
1145.766192196293
 30
0.0
 10
1000.685821870372
 20
1137.648131758342
 30
0.0
 10
1001.906746328798
 20
1132.501998166057
 30
0.0
 10
1002.363203541091
 20
1130.457356195976
 30
0.0
 10
1002.804799969789
 20
1128.344936314159
 30
0.0
 10
1003.229458415425
 20
1126.16424489551
 30
0.0
 10
1003.635064905612
 20
1123.91481159892
 30
0.0
 10
1004.01952358087
 20
1121.596156541571
 30
0.0
 10
1004.380748100811
 20
1119.207802435516
 30
0.0
 10
1004.716671507606
 20
1116.749272557738
 30
0.0
 10
1005.025250609707
 20
1114.220092713033
 30
0.0
 10
1005.304474105069
 20
1111.619792112986
 30
0.0
 10
1005.552362052282
 20
1108.947904590289
 30
0.0
 10
1005.766998227421
 20
1106.203969746943
 30
0.0
 10
1005.946436126086
 20
1103.38753416918
 30
0.0
 10
1006.089095245898
 20
1100.498152592132
 30
0.0
 10
1006.192259054332
 20
1097.535389357785
 30
0.0
 10
1006.257923666028
 20
1094.498818868525
 30
0.0
 10
1006.266008712884
 20
1092.449723115586
 30
0.0
 10
1006.27009965126
 20
1091.41290482585
 30
0.0
  0
LINE
  5
99
330
1F
100
AcDbEntity
  8
Ios54
  6
PHANTOM
 62
     7
420
 16777215
370
     0
100
AcDbLine
 10
753.0052186489
 20
1255.363245510592
 30
0.0
 11
753.0052306692
 21
1260.149985002131
 31
0.0
  0
LINE
  5
9A
330
1F
100
AcDbEntity
  8
Ios54
  6
PHANTOM
 62
     7
420
 16777215
370
     0
100
AcDbLine
 10
1006.2700996515
 20
1091.412904825884
 30
0.0
 11
1010.8100842695
 21
1091.412883627767
 31
0.0
  0
SPLINE
  5
9B
330
1F
100
AcDbEntity
  8
Ios54
  6
PHANTOM
 62
     7
420
 16777215
370
     0
100
AcDbSpline
210
0.0
220
0.0
230
1.0
 70
     8
 71
     3
 72
    58
 73
    54
 74
     0
 42
0.000000001
 43
0.0000000001
 40
0.0
 40
0.0
 40
0.0
 40
0.0
 40
0.0082757695886853
 40
0.0165869907885481
 40
0.0249336613917625
 40
0.0333157869119507
 40
0.0417333810411849
 40
0.0501864661226338
 40
0.0586750736391416
 40
0.0671992447180122
 40
0.0757590306522677
 40
0.0843544934386328
 40
0.0929857063324872
 40
0.1016527544200132
 40
0.1103557352077467
 40
0.1190947592297249
 40
0.1474964455751036
 40
0.1768864577755823
 40
0.2072696464850801
 40
0.2386553129147594
 40
0.295041016411788
 40
0.3594952730206253
 40
0.3856621285450865
 40
0.4209479305304972
 40
0.458851028384191
 40
0.4828124738146776
 40
0.5541509441199636
 40
0.6098686065553999
 40
0.6443552506641747
 40
0.677867013442388
 40
0.7104610436709063
 40
0.7417724357095343
 40
0.7731650504902234
 40
0.8056696863649329
 40
0.8392502903022856
 40
0.8734443124943138
 40
0.8793626779121066
 40
0.8854635801454305
 40
0.8917480749552472
 40
0.8982174320553211
 40
0.9048730840289496
 40
0.911716625547046
 40
0.9187498111032799
 40
0.9259745512162927
 40
0.9333929070622062
 40
0.9410070835146821
 40
0.9488194205844362
 40
0.9568323832651114
 40
0.965048549807466
 40
0.9734705984586989
 40
0.982101292718129
 40
0.9909434651741302
 40
1.0
 40
1.0
 40
1.0
 40
1.0
 10
753.0052436751392
 20
927.4625199106301
 30
0.0
 10
752.063051720993
 20
927.463483541839
 30
0.0
 10
750.1746316656747
 20
927.465414932245
 30
0.0
 10
747.3359843064296
 20
927.4812608648695
 30
0.0
 10
744.4853052700265
 20
927.5070008315506
 30
0.0
 10
741.6226360288069
 20
927.5438974379804
 30
0.0
 10
738.7480187544164
 20
927.5920552450514
 30
0.0
 10
735.8614962915707
 20
927.6518990734459
 30
0.0
 10
732.9631121712908
 20
927.7237754459561
 30
0.0
 10
730.0529106203045
 20
927.808060156529
 30
0.0
 10
727.1309365459879
 20
927.9051293048317
 30
0.0
 10
724.1972356237212
 20
928.0153673615968
 30
0.0
 10
721.2518539968753
 20
928.1391644441472
 30
0.0
 10
718.2948394323396
 20
928.2769195258888
 30
0.0
 10
715.3262370098714
 20
928.4290306893839
 30
0.0
 10
710.1151444651324
 20
928.7208754061597
 30
0.0
 10
702.5569184518552
 20
929.2217583096464
 30
0.0
 10
692.5525616899293
 20
930.0567912538944
 30
0.0
 10
682.2278393250632
 20
931.1183325212394
 30
0.0
 10
668.8778414984785
 20
932.7800692208016
 30
0.0
 10
651.7523253323677
 20
935.4793834000391
 30
0.0
 10
635.365046369528
 20
938.9506311952745
 30
0.0
 10
621.4934206535999
 20
942.5829735167571
 30
0.0
 10
610.6492936283374
 20
945.8252450636602
 30
0.0
 10
600.2009539912967
 20
949.4876202618178
 30
0.0
 10
586.1180689049172
 20
955.1420220141738
 30
0.0
 10
570.6136689744146
 20
962.7228650210961
 30
0.0
 10
555.1510601173793
 20
972.8146282088669
 30
0.0
 10
544.1784408784388
 20
981.7176738288516
 30
0.0
 10
535.8978896107558
 20
989.6931062834678
 30
0.0
 10
528.5861680402967
 20
998.0978426867923
 30
0.0
 10
522.186503805164
 20
1006.92459046344
 30
0.0
 10
516.5906665699744
 20
1016.275617775142
 30
0.0
 10
511.7271333033819
 20
1026.32261764776
 30
0.0
 10
507.6469661286226
 20
1037.059573297368
 30
0.0
 10
505.3246404395813
 20
1045.177633718235
 30
0.0
 10
504.1037159790869
 20
1050.323767325105
 30
0.0
 10
503.6472587538819
 20
1052.368409359683
 30
0.0
 10
503.2056623158946
 20
1054.480829297155
 30
0.0
 10
502.7810038642462
 20
1056.661520762541
 30
0.0
 10
502.3753973709656
 20
1058.910954096876
 30
0.0
 10
501.9909386951617
 20
1061.229609182897
 30
0.0
 10
501.6297141768404
 20
1063.617963308471
 30
0.0
 10
501.2937907734382
 20
1066.076493196535
 30
0.0
 10
500.9852116761044
 20
1068.605673042211
 30
0.0
 10
500.7059881864781
 20
1071.205973633832
 30
0.0
 10
500.4581002455591
 20
1073.877861138625
 30
0.0
 10
500.2434640768609
 20
1076.621795954502
 30
0.0
 10
500.0640261843693
 20
1079.438231495154
 30
0.0
 10
499.921367070061
 20
1082.327613025368
 30
0.0
 10
499.8182032660171
 20
1085.290376203078
 30
0.0
 10
499.7525386573584
 20
1088.326946625824
 30
0.0
 10
499.7444536108943
 20
1090.376042331113
 30
0.0
 10
499.7403626727212
 20
1091.412860595373
 30
0.0
  0
LINE
  5
9C
330
1F
100
AcDbEntity
  8
Ios54
  6
PHANTOM
 62
     7
420
 16777215
370
     0
100
AcDbLine
 10
753.005243675
 20
927.4625199106077
 30
0.0
 11
753.0052316548
 21
922.6757804190688
 31
0.0
  0
LINE
  5
9D
330
1F
100
AcDbEntity
  8
Ios54
  6
PHANTOM
 62
     7
420
 16777215
370
     0
100
AcDbLine
 10
499.7403626725
 20
1091.412860595417
 30
0.0
 11
495.2003780545
 21
1091.412881793432
 31
0.0
  0
SPLINE
  5
9E
330
1F
100
AcDbEntity
  8
Ios54
  6
PHANTOM
 62
     7
420
 16777215
370
     0
100
AcDbSpline
210
0.0
220
0.0
230
1.0
 70
     8
 71
     3
 72
    73
 73
    69
 74
     0
 42
0.000000001
 43
0.0000000001
 40
0.0
 40
0.0
 40
0.0
 40
0.0
 40
0.0044206697193784
 40
0.0087911003538024
 40
0.0131115914025331
 40
0.0173824410705582
 40
0.0216039456975788
 40
0.0257763992043249
 40
0.0299000925569828
 40
0.0339753132504688
 40
0.0380023448112439
 40
0.0419814663203132
 40
0.0459129519570068
 40
0.0497970705640888
 40
0.0536340852346857
 40
0.0574242529214766
 40
0.0611678240685287
 40
0.0648650422661068
 40
0.0685161439287304
 40
0.0721213579966927
 40
0.0756809056611985
 40
0.0791950001132233
 40
0.0826638463161322
 40
0.0860876408020482
 40
0.0894665714918957
 40
0.0928008175389944
 40
0.0960905491960221
 40
0.0993359277051132
 40
0.1025371052108068
 40
0.1056942246955109
 40
0.108807419937099
 40
0.1118768154882115
 40
0.1149025266767912
 40
0.1178846596273406
 40
0.1208233113023501
 40
0.1237185695633127
 40
0.1265708703449432
 40
0.1615454290477232
 40
0.1950222007348267
 40
0.2271567727251521
 40
0.2582291628776519
 40
0.2898744642658994
 40
0.3224770886267572
 40
0.3557933877023458
 40
0.3901135621782537
 40
0.4211352969877742
 40
0.4544977503773163
 40
0.4839189181952397
 40
0.5172134419248445
 40
0.5413095050540219
 40
0.5790521781987853
 40
0.6143126896497931
 40
0.640497390140065
 40
0.6841257414360096
 40
0.7243844342215526
 40
0.7613392922840434
 40
0.792732674698235
 40
0.8231221023991173
 40
0.8525155374133622
 40
0.8809166341410719
 40
0.8961847221475492
 40
0.9113428703377218
 40
0.9263915118230961
 40
0.941330968397104
 40
0.956161459975227
 40
0.9708831135327263
 40
0.985495971552915
 40
1.0
 40
1.0
 40
1.0
 40
1.0
 10
1006.270099651469
 20
1091.412904825288
 30
0.0
 10
1006.269126358549
 20
1090.906783467335
 30
0.0
 10
1006.26719083378
 20
1089.900292611561
 30
0.0
 10
1006.251515880632
 20
1088.399218091402
 30
0.0
 10
1006.226662939512
 20
1086.915432459164
 30
0.0
 10
1006.191905663096
 20
1085.448899813109
 30
0.0
 10
1006.147658116386
 20
1083.999583589001
 30
0.0
 10
1006.094040752576
 20
1082.56744654883
 30
0.0
 10
1006.031257770984
 20
1081.152450825512
 30
0.0
 10
1005.959497467498
 20
1079.754557952434
 30
0.0
 10
1005.878958191219
 20
1078.373728896535
 30
0.0
 10
1005.789841233431
 20
1077.00992409004
 30
0.0
 10
1005.692352425039
 20
1075.663103462105
 30
0.0
 10
1005.586701444656
 20
1074.333226470063
 30
0.0
 10
1005.473101732284
 20
1073.020252130342
 30
0.0
 10
1005.351770246624
 20
1071.724139049042
 30
0.0
 10
1005.222927266568
 20
1070.44484545217
 30
0.0
 10
1005.08679618408
 20
1069.182329215543
 30
0.0
 10
1004.943603302368
 20
1067.936547894348
 30
0.0
 10
1004.793577635692
 20
1066.707458752363
 30
0.0
 10
1004.636950711766
 20
1065.495018790843
 30
0.0
 10
1004.473956376505
 20
1064.29918477707
 30
0.0
 10
1004.304830601193
 20
1063.119913272564
 30
0.0
 10
1004.12981129204
 20
1061.957160660946
 30
0.0
 10
1003.949138102144
 20
1060.810883175492
 30
0.0
 10
1003.76305224587
 20
1059.681036926287
 30
0.0
 10
1003.571796315581
 20
1058.567577927212
 30
0.0
 10
1003.375614100972
 20
1057.470462122007
 30
0.0
 10
1003.17475041008
 20
1056.38964541211
 30
0.0
 10
1002.969450895398
 20
1055.325083676413
 30
0.0
 10
1002.759961872522
 20
1054.276732819028
 30
0.0
 10
1002.546530177333
 20
1053.244548713044
 30
0.0
 10
1002.329402893572
 20
1052.228487522751
 30
0.0
 10
1002.108827565081
 20
1051.228504641797
 30
0.0
 10
1001.885050649362
 20
1050.244558684115
 30
0.0
 10
1001.658313081654
 20
1049.276557231551
 30
0.0
 10
1000.566263849864
 20
1044.745534983877
 30
0.0
 10
998.3106734903041
 20
1036.891848692843
 30
0.0
 10
994.1977950183639
 20
1026.129232164727
 30
0.0
 10
989.3594143035773
 20
1016.170643316446
 30
0.0
 10
983.7795154146025
 20
1006.85719385556
 30
0.0
 10
977.372758856421
 20
998.0311585977546
 30
0.0
 10
970.0419009175363
 20
989.6198648810306
 30
0.0
 10
961.7847122889893
 20
981.6779051536633
 30
0.0
 10
953.0317312244985
 20
974.5793264728751
 30
0.0
 10
943.7754357824546
 20
968.157908514143
 30
0.0
 10
934.5899105322744
 20
962.6642450417937
 30
0.0
 10
924.8707150625654
 20
957.6085326205185
 30
0.0
 10
915.8565346803274
 20
953.5213852097507
 30
0.0
 10
905.7946742805548
 20
949.4873994725685
 30
0.0
 10
895.3516871055097
 20
945.8270326036666
 30
0.0
 10
884.5263578848007
 20
942.585541247622
 30
0.0
 10
872.9494619619381
 20
939.5528858512971
 30
0.0
 10
860.7127208614689
 20
936.8181543418864
 30
0.0
 10
847.1742800706694
 20
934.3451186990089
 30
0.0
 10
834.943683642952
 20
932.5078587279378
 30
0.0
 10
823.7867642727211
 20
931.1188461547465
 30
0.0
 10
813.4594094375294
 20
930.0569926189735
 30
0.0
 10
803.453352284574
 20
929.2217618455345
 30
0.0
 10
795.1525332606391
 20
928.6716549940638
 30
0.0
 10
788.4644177009598
 20
928.3092112479346
 30
0.0
 10
783.2922187811134
 20
928.0713390406604
 30
0.0
 10
778.1557023475696
 20
927.8755700193541
 30
0.0
 10
773.0551375915985
 20
927.7198783216603
 30
0.0
 10
767.9907933422656
 20
927.6020163735699
 30
0.0
 10
762.9629292952677
 20
927.5207795513769
 30
0.0
 10
757.9717981736597
 20
927.471417692537
 30
0.0
 10
754.6566314983655
 20
927.4654784383
 30
0.0
 10
753.005243675037
 20
927.4625199106941
 30
0.0
  0
SPLINE
  5
9F
330
1F
100
AcDbEntity
  8
Ios54
  6
PHANTOM
 62
     7
420
 16777215
370
     0
100
AcDbSpline
210
0.0
220
0.0
230
1.0
 70
     8
 71
     3
 72
    72
 73
    68
 74
     0
 42
0.000000001
 43
0.0000000001
 40
0.0
 40
0.0
 40
0.0
 40
0.0
 40
0.004427907094754
 40
0.0088054464819772
 40
0.013132919017588
 40
0.0174106242629369
 40
0.0216388599095069
 40
0.0258179212210709
 40
0.0299481004940953
 40
0.0340296865371353
 40
0.0380629641699209
 40
0.0420482137427872
 40
0.0459857106770507
 40
0.0498757250268849
 40
0.0537185210631926
 40
0.0575143568799214
 40
0.0612634840232101
 40
0.0649661471436993
 40
0.0686225836722829
 40
0.0722330235195156
 40
0.0757976887988384
 40
0.079316793573721
 40
0.0827905436287658
 40
0.0862191362647574
 40
0.0896027601175868
 40
0.0929415950009225
 40
0.0962358117724445
 40
0.0994855722234061
 40
0.1026910289912355
 40
0.1058523254948366
 40
0.1089695958922049
 40
0.1120429650599244
 40
0.1150725485940692
 40
0.1180584528319927
 40
0.1210007748944482
 40
0.1238996027474493
 40
0.126755451023707
 40
0.1619771367349587
 40
0.1956799623522187
 40
0.2280286566268082
 40
0.259309003869414
 40
0.2911107033438283
 40
0.3238515636205384
 40
0.3573224056698258
 40
0.3918168560349422
 40
0.4227544374675919
 40
0.4562750728668393
 40
0.4858830042074582
 40
0.5194640302817793
 40
0.5426615868464463
 40
0.5819426170435292
 40
0.6166992739149441
 40
0.6430381137149086
 40
0.6862703417945513
 40
0.7262088609868804
 40
0.7629161869098647
 40
0.7940429538287942
 40
0.8241854970182952
 40
0.8533514466197013
 40
0.8815442691421614
 40
0.8988892463811974
 40
0.9160926039412493
 40
0.9331549382176659
 40
0.9500766647157469
 40
0.9668580355844029
 40
0.9834991560809527
 40
1.0
 40
1.0
 40
1.0
 40
1.0
 10
499.740362672512
 20
1091.412860595936
 30
0.0
 10
499.7413391480747
 20
1091.919809939803
 30
0.0
 10
499.7432809917324
 20
1092.927942048485
 30
0.0
 10
499.7590073468876
 20
1094.431456188183
 30
0.0
 10
499.7839418111151
 20
1095.917637075318
 30
0.0
 10
499.8188130371882
 20
1097.386520745595
 30
0.0
 10
499.8632055434307
 20
1098.838143901371
 30
0.0
 10
499.9169983942961
 20
1100.272543923038
 30
0.0
 10
499.9799866241393
 20
1101.689758824014
 30
0.0
 10
500.0519812078371
 20
1103.08982722101
 30
0.0
 10
500.1327830218702
 20
1104.472788300736
 30
0.0
 10
500.2221899787266
 20
1105.838681787958
 30
0.0
 10
500.3199954251348
 20
1107.187547913641
 30
0.0
 10
500.4259888368824
 20
1108.519427383507
 30
0.0
 10
500.5399559061299
 20
1109.834361346913
 30
0.0
 10
500.6616787855603
 20
1111.132391366076
 30
0.0
 10
500.7909362882175
 20
1112.41355938564
 30
0.0
 10
500.9275040959557
 20
1113.677907702584
 30
0.0
 10
501.0711549625818
 20
1114.925478936465
 30
0.0
 10
501.2216589153393
 20
1116.156316000012
 30
0.0
 10
501.3787834537859
 20
1117.370462070058
 30
0.0
 10
501.5422937462991
 20
1118.567960558794
 30
0.0
 10
501.7119528241571
 20
1119.748855085393
 30
0.0
 10
501.887521773197
 20
1120.913189447951
 30
0.0
 10
502.0687599230637
 20
1122.061007595771
 30
0.0
 10
502.255425034004
 20
1123.192353602029
 30
0.0
 10
502.4472734813546
 20
1124.307271636609
 30
0.0
 10
502.6440604371766
 20
1125.405805939918
 30
0.0
 10
502.8455400510354
 20
1126.488000794692
 30
0.0
 10
503.0514656226084
 20
1127.553900506747
 30
0.0
 10
503.261589792873
 20
1128.603549354657
 30
0.0
 10
503.4756646560834
 20
1129.636991654538
 30
0.0
 10
503.693442149856
 20
1130.654271405903
 30
0.0
 10
503.9146734181093
 20
1131.655433469353
 30
0.0
 10
504.1391119135347
 20
1132.640519152012
 30
0.0
 10
504.3665142301977
 20
1133.609630765141
 30
0.0
 10
505.4672782134363
 20
1138.16847250012
 30
0.0
 10
507.7437040382348
 20
1146.07316804821
 30
0.0
 10
511.8998885998988
 20
1156.903661123238
 30
0.0
 10
516.7915988720123
 20
1166.918944594865
 30
0.0
 10
522.4311066245021
 20
1176.273869206519
 30
0.0
 10
528.9004414834717
 20
1185.125363083191
 30
0.0
 10
536.2949479185513
 20
1193.549016940881
 30
0.0
 10
544.6205204126348
 20
1201.496454009867
 30
0.0
 10
553.4225063697688
 20
1208.578491533994
 30
0.0
 10
562.7251622885614
 20
1214.981989505717
 30
0.0
 10
571.9545869405403
 20
1220.45974528433
 30
0.0
 10
581.7546550580113
 20
1225.515446434431
 30
0.0
 10
590.73846699239
 20
1229.551780824014
 30
0.0
 10
600.9087562201361
 20
1233.597910926884
 30
0.0
 10
611.3772422039788
 20
1237.233267956674
 30
0.0
 10
622.3422059300424
 20
1240.479079225911
 30
0.0
 10
633.8447773478271
 20
1243.459810779363
 30
0.0
 10
646.0250497277018
 20
1246.152468870313
 30
0.0
 10
659.4596050476742
 20
1248.582544632721
 30
0.0
 10
671.5985302656594
 20
1250.389941802808
 30
0.0
 10
682.67083368778
 20
1251.756799810689
 30
0.0
 10
692.9150510738137
 20
1252.801965657318
 30
0.0
 10
702.8441091402359
 20
1253.624935371333
 30
0.0
 10
711.3315895326193
 20
1254.183901729145
 30
0.0
 10
718.4650369716352
 20
1254.563922888364
 30
0.0
 10
724.3356373763648
 20
1254.822321899021
 30
0.0
 10
730.1601263505195
 20
1255.027087464556
 30
0.0
 10
735.9381113889128
 20
1255.181516385124
 30
0.0
 10
741.669204512949
 20
1255.287557033818
 30
0.0
 10
747.3530322604933
 20
1255.351726427632
 30
0.0
 10
751.1264803477488
 20
1255.359416666123
 30
0.0
 10
753.0052186489442
 20
1255.363245510529
 30
0.0
  0
SPLINE
  5
A0
330
1F
100
AcDbEntity
  8
Ios54
  6
PHANTOM
 62
     7
420
 16777215
370
     0
100
AcDbSpline
210
0.0
220
0.0
230
1.0
 70
     8
 71
     3
 72
    43
 73
    39
 74
     0
 42
0.000000001
 43
0.0000000001
 40
0.0
 40
0.0
 40
0.0
 40
0.0
 40
0.0089009802185815
 40
0.017809093890233
 40
0.0267290579817265
 40
0.035665579533547
 40
0.044623350608859
 40
0.0536070433735315
 40
0.0626213053436263
 40
0.0937652975849918
 40
0.1252557679871058
 40
0.1863500135024097
 40
0.2501122438937802
 40
0.2806983552678093
 40
0.3124339035123718
 40
0.3428988458183365
 40
0.3748744704833335
 40
0.4062164082624132
 40
0.4375367999449054
 40
0.4687374755285803
 40
0.4998617920277293
 40
0.5118869459019101
 40
0.5309725444078716
 40
0.5621482647399186
 40
0.5935072217358026
 40
0.6249510589606087
 40
0.656213202292568
 40
0.6874681412125003
 40
0.718939845462276
 40
0.750307157445781
 40
0.781477401606147
 40
0.8127175005379296
 40
0.8442026452550437
 40
0.8754587125257589
 40
0.906522519844575
 40
0.9375585850920247
 40
0.9686887345674282
 40
1.0
 40
1.0
 40
1.0
 40
1.0
 10
753.0052053283731
 20
941.9827102601348
 30
0.0
 10
753.9512124138668
 20
941.9837305200064
 30
0.0
 10
755.8439847369879
 20
941.9857718574095
 30
0.0
 10
758.6847416381246
 20
942.0023332537489
 30
0.0
 10
761.5291940854069
 20
942.0289561450376
 30
0.0
 10
764.3787983893899
 20
942.0668402439401
 30
0.0
 10
767.2350017385443
 20
942.1160392857237
 30
0.0
 10
770.0992433628068
 20
942.1770023415706
 30
0.0
 10
775.3204071083575
 20
942.3099958479447
 30
0.0
 10
782.9309670328795
 20
942.5765693065956
 30
0.0
 10
796.0645107625187
 20
943.2420684185785
 30
0.0
 10
812.6375370511998
 20
944.4905120605841
 30
0.0
 10
829.0569808236205
 20
946.3657487230843
 30
0.0
 10
842.3135167018402
 20
948.3333371852885
 30
0.0
 10
852.0318895864863
 20
950.0173126842491
 30
0.0
 10
861.8475082665606
 20
951.9873956020874
 30
0.0
 10
871.5609736899014
 20
954.2367766999711
 30
0.0
 10
881.2862822944237
 20
956.8194351360694
 30
0.0
 10
890.8369199593938
 20
959.7201555091162
 30
0.0
 10
900.2474468713793
 20
962.9822401031515
 30
0.0
 10
907.6013134742869
 20
965.8953967091203
 30
0.0
 10
913.6723888460833
 20
968.5337609111813
 30
0.0
 10
919.6800864759033
 20
971.329807487929
 30
0.0
 10
927.393036556064
 20
975.3297262939682
 30
0.0
 10
935.9847528220691
 20
980.4622716788397
 30
0.0
 10
944.2248287095323
 20
986.1675853232141
 30
0.0
 10
952.014276389947
 20
992.4658194889074
 30
0.0
 10
959.2740180935572
 20
999.381736579058
 30
0.0
 10
965.9107889132962
 20
1006.921607380828
 30
0.0
 10
971.8250038925025
 20
1015.03689483045
 30
0.0
 10
976.9466828902817
 20
1023.651017944663
 30
0.0
 10
981.268907507839
 20
1032.710484738719
 30
0.0
 10
984.787542456603
 20
1042.123550476767
 30
0.0
 10
987.5248306527645
 20
1051.773755290637
 30
0.0
 10
989.5411150484621
 20
1061.550867623419
 30
0.0
 10
990.9041581746891
 20
1071.426583486502
 30
0.0
 10
991.6734644057709
 20
1081.391942521454
 30
0.0
 10
991.8301146828542
 20
1088.066597238642
 30
0.0
 10
991.8301313482707
 20
1091.412974894115
 30
0.0
  0
SPLINE
  5
A1
330
1F
100
AcDbEntity
  8
Ios54
  6
PHANTOM
 62
     7
420
 16777215
370
     0
100
AcDbSpline
210
0.0
220
0.0
230
1.0
 70
     8
 71
     3
 72
    26
 73
    22
 74
     0
 42
0.000000001
 43
0.0000000001
 40
0.0
 40
0.0
 40
0.0
 40
0.0
 40
0.0625000000000004
 40
0.0625000000000004
 40
0.1250000000000008
 40
0.1250000000000008
 40
0.2500000000000007
 40
0.2500000000000007
 40
0.3750000000000006
 40
0.3750000000000006
 40
0.5000000000000004
 40
0.5000000000000004
 40
0.6250000000000003
 40
0.6250000000000003
 40
0.7500000000000002
 40
0.7500000000000002
 40
0.8750000000000001
 40
0.8750000000000001
 40
0.9375
 40
0.9375
 40
1.0
 40
1.0
 40
1.0
 40
1.0
 10
1006.270099651103
 20
1091.412828431906
 30
0.0
 10
1006.236551209966
 20
1091.412828685852
 30
0.0
 10
1006.20282427849
 20
1091.412828940754
 30
0.0
 10
1006.118858059956
 20
1091.412829534309
 30
0.0
 10
1006.068637227995
 20
1091.412829872859
 30
0.0
 10
1005.874955866313
 20
1091.412831104942
 30
0.0
 10
1005.687109700777
 20
1091.412832222011
 30
0.0
 10
1005.13511839809
 20
1091.412835329353
 30
0.0
 10
1004.77156382404
 20
1091.412837316284
 30
0.0
 10
1003.847138257659
 20
1091.412842251557
 30
0.0
 10
1003.28685782843
 20
1091.412845196557
 30
0.0
 10
1001.9668960953
 20
1091.412852049511
 30
0.0
 10
1001.204025661366
 20
1091.412855974022
 30
0.0
 10
999.5181411117911
 20
1091.412864590909
 30
0.0
 10
998.597269973077
 20
1091.412869272436
 30
0.0
 10
996.6915738113767
 20
1091.41287892487
 30
0.0
 10
995.7088917653186
 20
1091.412883884928
 30
0.0
 10
994.2455299431249
 20
1091.41289125585
 30
0.0
 10
993.7591778510389
 20
1091.41289370307
 30
0.0
 10
992.7917668813913
 20
1091.412898568035
 30
0.0
 10
992.3107749718585
 20
1091.412900985441
 30
0.0
 10
991.8301313479284
 20
1091.412903401068
 30
0.0
  0
SPLINE
  5
A2
330
1F
100
AcDbEntity
  8
Ios54
  6
PHANTOM
 62
     7
420
 16777215
370
     0
100
AcDbSpline
210
0.0
220
0.0
230
1.0
 70
     8
 71
     3
 72
    26
 73
    22
 74
     0
 42
0.000000001
 43
0.0000000001
 40
0.0
 40
0.0
 40
0.0
 40
0.0
 40
0.0625000000000006
 40
0.0625000000000006
 40
0.1250000000000011
 40
0.1250000000000011
 40
0.250000000000001
 40
0.250000000000001
 40
0.3750000000000009
 40
0.3750000000000009
 40
0.5000000000000007
 40
0.5000000000000007
 40
0.6250000000000004
 40
0.6250000000000004
 40
0.7500000000000003
 40
0.7500000000000003
 40
0.8750000000000002
 40
0.8750000000000002
 40
0.9375000000000001
 40
0.9375000000000001
 40
1.0
 40
1.0
 40
1.0
 40
1.0
 10
753.005204926787
 20
927.4625199107298
 30
0.0
 10
753.0052050579696
 20
927.4962547320954
 30
0.0
 10
753.0052051896447
 20
927.5301690354142
 30
0.0
 10
753.0052054960528
 20
927.6146017329415
 30
0.0
 10
753.005205670732
 20
927.665101569525
 30
0.0
 10
753.0052063060316
 20
927.8598589387748
 30
0.0
 10
753.0052068815631
 20
928.0487486941215
 30
0.0
 10
753.0052084814031
 20
928.6038066151623
 30
0.0
 10
753.0052095039898
 20
928.9693809368506
 30
0.0
 10
753.0052120431516
 20
929.8989422008309
 30
0.0
 10
753.0052135580053
 20
930.4623352991174
 30
0.0
 10
753.0052170824268
 20
931.7896301529994
 30
0.0
 10
753.00521910051
 20
932.556738756017
 30
0.0
 10
753.005223531121
 20
934.2519893308835
 30
0.0
 10
753.0052259380714
 20
935.1779764203762
 30
0.0
 10
753.0052309004875
 20
937.0942597829924
 30
0.0
 10
753.0052334503761
 20
938.0824011737594
 30
0.0
 10
753.0052372395371
 20
939.5538927838674
 30
0.0
 10
753.0052384975579
 20
940.0429468320247
 30
0.0
 10
753.0052409984256
 20
941.0157323070679
 30
0.0
 10
753.0052422410981
 20
941.4993963938803
 30
0.0
 10
753.0052434828565
 20
941.9827102601697
 30
0.0
  0
SPLINE
  5
A3
330
1F
100
AcDbEntity
  8
Ios54
  6
PHANTOM
 62
     7
420
 16777215
370
     0
100
AcDbSpline
210
0.0
220
0.0
230
1.0
 70
     8
 71
     3
 72
    49
 73
    45
 74
     0
 42
0.000000001
 43
0.0000000001
 40
0.0
 40
0.0
 40
0.0
 40
0.0
 40
0.0088705942502725
 40
0.0177482835788935
 40
0.0266377370957777
 40
0.0355436141573079
 40
0.0444705593997361
 40
0.0534231979007323
 40
0.0624061305046597
 40
0.0933304836368578
 40
0.1245956925803247
 40
0.1852261573111829
 40
0.2484695430750548
 40
0.2788325607312727
 40
0.3103078192038524
 40
0.3405479695671094
 40
0.3722646324679906
 40
0.4033622229913153
 40
0.4345977481042938
 40
0.4660341220942262
 40
0.497601108523996
 40
0.5103206186976055
 40
0.5290348425063252
 40
0.5603889490569078
 40
0.5917638987185644
 40
0.6232961025789119
 40
0.6549230936463225
 40
0.6863196955320972
 40
0.717685513247702
 40
0.7492789723481916
 40
0.7808796230525853
 40
0.8122473441478563
 40
0.8436420796236973
 40
0.8752673698651912
 40
0.8907093742944779
 40
0.9067301651270403
 40
0.9219441205149631
 40
0.937912436258102
 40
0.9528994550075313
 40
0.9689656275649718
 40
0.9759503950898005
 40
0.9834510909171407
 40
0.9914676575254591
 40
1.0
 40
1.0
 40
1.0
 40
1.0
 10
753.0052569952117
 20
1240.843055161088
 30
0.0
 10
752.0624657906905
 20
1240.842041881438
 30
0.0
 10
750.1761292971669
 20
1240.840014511673
 30
0.0
 10
747.3450369086919
 20
1240.823566517393
 30
0.0
 10
744.5102755521372
 20
1240.797126349069
 30
0.0
 10
741.6704036267087
 20
1240.759503455834
 30
0.0
 10
738.8239885048552
 20
1240.710645910246
 30
0.0
 10
735.9696053887496
 20
1240.650109644553
 30
0.0
 10
730.7783185536508
 20
1240.51835670488
 30
0.0
 10
723.2181987521502
 20
1240.254740696716
 30
0.0
 10
710.1807437005014
 20
1239.597763255268
 30
0.0
 10
693.7349724497321
 20
1238.367072156842
 30
0.0
 10
677.4410968893066
 20
1236.521202417591
 30
0.0
 10
664.287290513725
 20
1234.586111969332
 30
0.0
 10
654.6403284036312
 20
1232.930495756739
 30
0.0
 10
644.8983033338379
 20
1230.995406096493
 30
0.0
 10
635.2548372569166
 20
1228.786764527832
 30
0.0
 10
625.582669371172
 20
1226.247789262782
 30
0.0
 10
616.0316188417316
 20
1223.382854978507
 30
0.0
 10
606.5498082443477
 20
1220.133873686677
 30
0.0
 10
599.0490261053831
 20
1217.195146684383
 30
0.0
 10
592.8953845313507
 20
1214.54235351941
 30
0.0
 10
586.8311566777749
 20
1211.741575807401
 30
0.0
 10
579.1216536601868
 20
1207.776008092356
 30
0.0
 10
570.4861592719437
 20
1202.658387613577
 30
0.0
 10
562.1832814250281
 20
1196.95629804747
 30
0.0
 10
554.3214027858899
 20
1190.646714782437
 30
0.0
 10
547.0079386022318
 20
1183.725302844456
 30
0.0
 10
540.3270490747877
 20
1176.187390077351
 30
0.0
 10
534.3507323850121
 20
1168.044466151433
 30
0.0
 10
529.1649098108046
 20
1159.37047818873
 30
0.0
 10
524.8079308033822
 20
1150.27190639942
 30
0.0
 10
521.2612454725333
 20
1140.823179377244
 30
0.0
 10
518.9640190844156
 20
1132.752482731782
 30
0.0
 10
517.479840091274
 20
1126.176260163113
 30
0.0
 10
516.5525073040749
 20
1121.274567884527
 30
0.0
 10
515.780908851333
 20
1116.289029787472
 30
0.0
 10
515.180940014372
 20
1111.390924356257
 30
0.0
 10
514.7195853574964
 20
1106.38641311677
 30
0.0
 10
514.4606423629068
 20
1102.328909747281
 30
0.0
 10
514.317599169094
 20
1099.066868584007
 30
0.0
 10
514.2417698654506
 20
1096.663163717101
 30
0.0
 10
514.1902974705058
 20
1094.093323644515
 30
0.0
 10
514.1837214583056
 20
1092.324675905703
 30
0.0
 10
514.1803309757108
 20
1091.412790527109
 30
0.0
  0
SPLINE
  5
A4
330
1F
100
AcDbEntity
  8
Ios54
  6
PHANTOM
 62
     7
420
 16777215
370
     0
100
AcDbSpline
210
0.0
220
0.0
230
1.0
 70
     8
 71
     3
 72
    26
 73
    22
 74
     0
 42
0.000000001
 43
0.0000000001
 40
0.0
 40
0.0
 40
0.0
 40
0.0
 40
0.0624999999999998
 40
0.0624999999999998
 40
0.1249999999999996
 40
0.1249999999999996
 40
0.2499999999999981
 40
0.2499999999999981
 40
0.3749999999999966
 40
0.3749999999999966
 40
0.4999999999999951
 40
0.4999999999999951
 40
0.6249999999999963
 40
0.6249999999999963
 40
0.7499999999999976
 40
0.7499999999999976
 40
0.8749999999999987
 40
0.8749999999999987
 40
0.9374999999999993
 40
0.9374999999999993
 40
1.0
 40
1.0
 40
1.0
 40
1.0
 10
499.7403626725558
 20
1091.41287001707
 30
0.0
 10
499.7739111136922
 20
1091.412869773633
 30
0.0
 10
499.807638045169
 20
1091.412869529293
 30
0.0
 10
499.8916042637032
 20
1091.412868961761
 30
0.0
 10
499.9418250956639
 20
1091.412868638668
 30
0.0
 10
500.1355064573465
 20
1091.412867465705
 30
0.0
 10
500.3233526228829
 20
1091.412866405461
 30
0.0
 10
500.8753439255703
 20
1091.412863463938
 30
0.0
 10
501.2388984996218
 20
1091.412861585825
 30
0.0
 10
502.1633240660033
 20
1091.412856926473
 30
0.0
 10
502.7236044952339
 20
1091.4128541484
 30
0.0
 10
504.043566228366
 20
1091.412847688142
 30
0.0
 10
504.8064366623001
 20
1091.41284399035
 30
0.0
 10
506.4923212118781
 20
1091.412835874123
 30
0.0
 10
507.4131923505932
 20
1091.412831465902
 30
0.0
 10
509.3188885122965
 20
1091.412822378823
 30
0.0
 10
510.3015705583559
 20
1091.41281771018
 30
0.0
 10
511.7649323805518
 20
1091.412810773115
 30
0.0
 10
512.2512844726383
 20
1091.412808470072
 30
0.0
 10
513.2186954422874
 20
1091.412803891874
 30
0.0
 10
513.6996873518208
 20
1091.412801617038
 30
0.0
 10
514.1803309757515
 20
1091.412799343877
 30
0.0
  0
SPLINE
  5
A5
330
1F
100
AcDbEntity
  8
Ios54
  6
PHANTOM
 62
     7
420
 16777215
370
     0
100
AcDbSpline
210
0.0
220
0.0
230
1.0
 70
     8
 71
     3
 72
    26
 73
    22
 74
     0
 42
0.000000001
 43
0.0000000001
 40
0.0
 40
0.0
 40
0.0
 40
0.0
 40
0.0625000000000004
 40
0.0625000000000004
 40
0.1250000000000009
 40
0.1250000000000009
 40
0.2500000000000012
 40
0.2500000000000012
 40
0.3750000000000017
 40
0.3750000000000017
 40
0.500000000000002
 40
0.500000000000002
 40
0.6250000000000024
 40
0.6250000000000024
 40
0.7500000000000028
 40
0.7500000000000028
 40
0.8750000000000031
 40
0.8750000000000031
 40
0.9375000000000016
 40
0.9375000000000016
 40
1.0
 40
1.0
 40
1.0
 40
1.0
 10
753.0052235032842
 20
1255.363245510581
 30
0.0
 10
753.0052233704578
 20
1255.329510689216
 30
0.0
 10
753.0052232371442
 20
1255.295596385897
 30
0.0
 10
753.0052229281237
 20
1255.211163688369
 30
0.0
 10
753.0052227524703
 20
1255.160663851786
 30
0.0
 10
753.0052221160424
 20
1254.965906482536
 30
0.0
 10
753.0052215422005
 20
1254.777016727189
 30
0.0
 10
753.0052199535867
 20
1254.221958806148
 30
0.0
 10
753.005218940525
 20
1253.856384484459
 30
0.0
 10
753.0052164297637
 20
1252.926823220479
 30
0.0
 10
753.0052149337739
 20
1252.363430122193
 30
0.0
 10
753.0052114568371
 20
1251.03613526831
 30
0.0
 10
753.0052094674894
 20
1250.269026665293
 30
0.0
 10
753.0052051023822
 20
1248.573776090427
 30
0.0
 10
753.0052027321133
 20
1247.647789000933
 30
0.0
 10
753.0051978468846
 20
1245.731505638317
 30
0.0
 10
753.0051953374156
 20
1244.74336424755
 30
0.0
 10
753.0051916089938
 20
1243.271872637442
 30
0.0
 10
753.0051903712499
 20
1242.782818589285
 30
0.0
 10
753.0051879108174
 20
1241.81003311424
 30
0.0
 10
753.0051866883
 20
1241.326369027428
 30
0.0
 10
753.0051854666833
 20
1240.84305516114
 30
0.0
  0
SPLINE
  5
A6
330
1F
100
AcDbEntity
  8
Ios54
  6
PHANTOM
 62
     7
420
 16777215
370
     0
100
AcDbSpline
210
0.0
220
0.0
230
1.0
 70
     8
 71
     3
 72
    37
 73
    33
 74
     0
 42
0.000000001
 43
0.0000000001
 40
0.0
 40
0.0
 40
0.0
 40
0.0
 40
0.0313098563333911
 40
0.062436846761978
 40
0.0934678616358744
 40
0.1245242998002925
 40
0.155770294469148
 40
0.1872596799526607
 40
0.2185084229558922
 40
0.2496795727481712
 40
0.2810397742613027
 40
0.3125214530030458
 40
0.3437839299358698
 40
0.3750475044512485
 40
0.4064896447573761
 40
0.437859724891303
 40
0.4690423174648439
 40
0.5001543066012861
 40
0.531278955203838
 40
0.5624775364879363
 40
0.5937942654434961
 40
0.6251447494564134
 40
0.6875893051255222
 40
0.7499070522677429
 40
0.8136572829806056
 40
0.8747392824370572
 40
0.9062279949973789
 40
0.9373711153061809
 40
0.9531277135485612
 40
0.9688013289248035
 40
0.9844170178179454
 40
1.0
 40
1.0
 40
1.0
 40
1.0
 10
991.8301313480755
 20
1091.412831908024
 30
0.0
 10
991.8301145617635
 20
1094.758973767411
 30
0.0
 10
991.6729706398261
 20
1101.433054652609
 30
0.0
 10
990.9029728983126
 20
1111.397173777099
 30
0.0
 10
989.5409032584602
 20
1121.27119352879
 30
0.0
 10
987.5261112144376
 20
1131.046010464182
 30
0.0
 10
984.7906488195399
 20
1140.695165304395
 30
0.0
 10
981.2715850588534
 20
1150.108251191305
 30
0.0
 10
976.9498181645815
 20
1159.169419390139
 30
0.0
 10
971.8282263329406
 20
1167.783741438197
 30
0.0
 10
965.9149490196168
 20
1175.900061329518
 30
0.0
 10
959.2771457286004
 20
1183.440366796606
 30
0.0
 10
952.0163710992839
 20
1190.357893294382
 30
0.0
 10
944.2266947419097
 20
1196.65691232083
 30
0.0
 10
935.9857687862924
 20
1202.36275039819
 30
0.0
 10
927.3930916554268
 20
1207.496928237067
 30
0.0
 10
918.5421611491267
 20
1212.086802836039
 30
0.0
 10
909.4860859872502
 20
1216.186030733399
 30
0.0
 10
900.2457536597354
 20
1219.848564081383
 30
0.0
 10
890.8357024632136
 20
1223.110368884713
 30
0.0
 10
881.283639631174
 20
1226.006934254357
 30
0.0
 10
868.4270243005632
 20
1229.42068292904
 30
0.0
 10
852.1935909886114
 20
1232.909686033219
 30
0.0
 10
832.4024990369593
 20
1236.078708425212
 30
0.0
 10
812.6345829519147
 20
1238.335385735237
 30
0.0
 10
796.0643981859562
 20
1239.583702233667
 30
0.0
 10
782.9326201254441
 20
1240.249156652008
 30
0.0
 10
774.6062857669524
 20
1240.540774202866
 30
0.0
 10
767.9578684353088
 20
1240.69959010943
 30
0.0
 10
762.9585005606142
 20
1240.782620925806
 30
0.0
 10
757.977133335731
 20
1240.833683889983
 30
0.0
 10
754.6613395469268
 20
1240.839933588024
 30
0.0
 10
753.0051806866417
 20
1240.843055161151
 30
0.0
  0
SPLINE
  5
A7
330
1F
100
AcDbEntity
  8
Ios54
  6
PHANTOM
 62
     7
420
 16777215
370
     0
100
AcDbSpline
210
0.0
220
0.0
230
1.0
 70
     8
 71
     3
 72
    47
 73
    43
 74
     0
 42
0.000000001
 43
0.0000000001
 40
0.0
 40
0.0
 40
0.0
 40
0.0
 40
0.0043451953292745
 40
0.0085672390780493
 40
0.0126661154201092
 40
0.0166418107502295
 40
0.0204943137286243
 40
0.0242236153327291
 40
0.0278297089178159
 40
0.0313125902883133
 40
0.0474236971425269
 40
0.0624422689469321
 40
0.0783360806648842
 40
0.0934767141623584
 40
0.109284080579456
 40
0.1245373949458453
 40
0.1557829203731632
 40
0.1872718351032266
 40
0.2185201119765861
 40
0.2496907952466096
 40
0.2810505258910392
 40
0.3125317348960712
 40
0.3437937447945975
 40
0.3750568512280473
 40
0.4064985204020152
 40
0.4378681324928501
 40
0.4690502591950096
 40
0.5001617830993297
 40
0.5312859660135406
 40
0.5624840803336149
 40
0.593800340464252
 40
0.6251503558482986
 40
0.687593977874944
 40
0.7499107929950469
 40
0.8136600707095069
 40
0.8747411559335792
 40
0.9062293976121943
 40
0.9373720520162657
 40
0.9531284146458374
 40
0.9688017956085786
 40
0.9844172509244264
 40
1.0
 40
1.0
 40
1.0
 40
1.0
 10
514.1803309759059
 20
1091.412933513199
 30
0.0
 10
514.1812178526574
 20
1090.948553617208
 30
0.0
 10
514.1829664702883
 20
1090.032955286057
 30
0.0
 10
514.1968759166657
 20
1088.679361644815
 30
0.0
 10
514.2182856019069
 20
1087.365369058477
 30
0.0
 10
514.2473410190429
 20
1086.091026225988
 30
0.0
 10
514.2832125899128
 20
1084.85637381022
 30
0.0
 10
514.3253462124653
 20
1083.661446195838
 30
0.0
 10
514.3731354943898
 20
1082.50626755948
 30
0.0
 10
514.490588448827
 20
1080.029643496068
 30
0.0
 10
514.7284191078325
 20
1076.337688910158
 30
0.0
 10
515.1930802889434
 20
1071.3333406697
 30
0.0
 10
515.7945631424626
 20
1066.448015327879
 30
0.0
 10
516.5624286802217
 20
1061.501041960949
 30
0.0
 10
517.4810315976895
 20
1056.649505916009
 30
0.0
 10
518.9448842474188
 20
1050.154454265667
 30
0.0
 10
521.2199126271614
 20
1042.130519432531
 30
0.0
 10
524.7388211225243
 20
1032.71760944652
 30
0.0
 10
529.060624425659
 20
1023.656388628058
 30
0.0
 10
534.1822020321883
 20
1015.042074612968
 30
0.0
 10
540.09547936554
 20
1006.925746301353
 30
0.0
 10
546.733279818644
 20
999.385436726376
 30
0.0
 10
553.9940535058112
 20
992.4679050671647
 30
0.0
 10
561.7837292371686
 20
986.1688816848582
 30
0.0
 10
570.0246552976403
 20
980.4630395087395
 30
0.0
 10
578.6173331354292
 20
975.3288580007417
 30
0.0
 10
587.4682648438463
 20
970.7389801070437
 30
0.0
 10
596.5243414179655
 20
966.6397494367087
 30
0.0
 10
605.7646752968512
 20
962.9772136644375
 30
0.0
 10
615.1747281830377
 20
959.7154067677308
 30
0.0
 10
624.7267929026299
 20
956.8188395878168
 30
0.0
 10
637.583410979997
 20
953.4050888186451
 30
0.0
 10
653.8168479751159
 20
949.9160836421217
 30
0.0
 10
673.6079445771576
 20
946.7470594641869
 30
0.0
 10
693.3758652890365
 20
944.4903809478233
 30
0.0
 10
709.9460539721596
 20
943.2420638091785
 30
0.0
 10
723.0778350818725
 20
942.5766090615681
 30
0.0
 10
731.4041714252114
 20
942.284991365711
 30
0.0
 10
738.0525903356305
 20
942.1261753805213
 30
0.0
 10
743.0519594062226
 20
942.0431445240099
 30
0.0
 10
748.0333278133284
 20
941.9920815356105
 30
0.0
 10
751.3491223863409
 20
941.9858318346534
 30
0.0
 10
753.0052816373397
 20
941.982710260072
 30
0.0
  0
SPLINE
  5
A8
330
1F
100
AcDbEntity
  8
Ios54
  6
PHANTOM
 62
     7
420
 16777215
370
     0
100
AcDbSpline
210
0.0
220
0.0
230
1.0
 70
    15
 71
     2
 72
    12
 73
     9
 74
     0
 42
0.000000001
 43
0.0000000001
 40
0.0
 40
0.0
 40
0.0
 40
66.82174022476742
 40
66.82174022476742
 40
133.6434804495348
 40
133.6434804495348
 40
200.4652206743023
 40
200.4652206743023
 40
267.2869608990697
 40
267.2869608990697
 40
267.2869608990697
 10
795.5452722130971
 20
1091.4128827106
 30
0.0
 41
1.0
 10
795.5452722130972
 20
1134.189257323092
 30
0.0
 41
0.7071067811865476
 10
753.005231162
 20
1134.189257323092
 30
0.0
 41
1.0
 10
710.4651901109029
 20
1134.189257323092
 30
0.0
 41
0.7071067811865476
 10
710.4651901109029
 20
1091.4128827106
 30
0.0
 41
1.0
 10
710.4651901109029
 20
1048.636508098108
 30
0.0
 41
0.7071067811865476
 10
753.005231162
 20
1048.636508098108
 30
0.0
 41
1.0
 10
795.5452722130972
 20
1048.636508098108
 30
0.0
 41
0.7071067811865476
 10
795.5452722130971
 20
1091.4128827106
 30
0.0
 41
1.0
  0
SPLINE
  5
A9
330
1F
100
AcDbEntity
  8
Ios54
  6
PHANTOM
 62
     7
420
 16777215
370
     0
100
AcDbSpline
210
0.0
220
0.0
230
1.0
 70
    15
 71
     2
 72
    12
 73
     9
 74
     0
 42
0.000000001
 43
0.0000000001
 40
0.0
 40
0.0
 40
0.0
 40
62.43827125174612
 40
62.43827125174612
 40
124.8765425034922
 40
124.8765425034922
 40
187.3148137552383
 40
187.3148137552383
 40
249.7530850069845
 40
249.7530850069845
 40
249.7530850069845
 10
792.7546691933119
 20
1091.4128827106
 30
0.0
 41
1.0
 10
792.754669193312
 20
1131.383150953197
 30
0.0
 41
0.7071067811865476
 10
753.005231162
 20
1131.383150953196
 30
0.0
 41
1.0
 10
713.2557931306881
 20
1131.383150953197
 30
0.0
 41
0.7071067811865476
 10
713.2557931306881
 20
1091.4128827106
 30
0.0
 41
1.0
 10
713.2557931306881
 20
1051.442614468003
 30
0.0
 41
0.7071067811865476
 10
753.005231162
 20
1051.442614468003
 30
0.0
 41
1.0
 10
792.754669193312
 20
1051.442614468003
 30
0.0
 41
0.7071067811865476
 10
792.7546691933119
 20
1091.4128827106
 30
0.0
 41
1.0
  0
POLYLINE
  5
AB
330
1F
100
AcDbEntity
  8
Boundingbox
100
AcDb2dPolyline
 66
     1
 10
0.0
 20
0.0
 30
0.0
 70
     1
  0
VERTEX
  5
AC
330
AB
100
AcDbEntity
  8
Boundingbox
100
AcDbVertex
100
AcDb2dVertex
 10
1332.6870317138
 20
490.7931824537
 30
0.0
  0
VERTEX
  5
AD
330
AB
100
AcDbEntity
  8
Boundingbox
100
AcDbVertex
100
AcDb2dVertex
 10
1694.6870317138
 20
490.7931824537
 30
0.0
  0
VERTEX
  5
AE
330
AB
100
AcDbEntity
  8
Boundingbox
100
AcDbVertex
100
AcDb2dVertex
 10
1694.6870317138
 20
615.7931824537352
 30
0.0
  0
VERTEX
  5
AF
330
AB
100
AcDbEntity
  8
Boundingbox
100
AcDbVertex
100
AcDb2dVertex
 10
1332.6870317138
 20
615.7931824537352
 30
0.0
  0
SEQEND
  5
B0
330
AB
100
AcDbEntity
  8
Boundingbox
  0
POLYLINE
  5
B1
330
1F
100
AcDbEntity
  8
Boundingbox
100
AcDb2dPolyline
 66
     1
 10
0.0
 20
0.0
 30
0.0
 70
     1
  0
VERTEX
  5
B2
330
B1
100
AcDbEntity
  8
Boundingbox
100
AcDbVertex
100
AcDb2dVertex
 10
483.0052311619907
 20
910.4128827106117
 30
0.0
  0
VERTEX
  5
B3
330
B1
100
AcDbEntity
  8
Boundingbox
100
AcDbVertex
100
AcDb2dVertex
 10
1023.005231161991
 20
910.4128827106117
 30
0.0
  0
VERTEX
  5
B4
330
B1
100
AcDbEntity
  8
Boundingbox
100
AcDbVertex
100
AcDb2dVertex
 10
1023.005231161991
 20
1272.412882710612
 30
0.0
  0
VERTEX
  5
B5
330
B1
100
AcDbEntity
  8
Boundingbox
100
AcDbVertex
100
AcDb2dVertex
 10
483.0052311619907
 20
1272.412882710612
 30
0.0
  0
SEQEND
  5
B6
330
B1
100
AcDbEntity
  8
Boundingbox
  0
POLYLINE
  5
B7
330
1F
100
AcDbEntity
  8
Boundingbox
100
AcDb2dPolyline
 66
     1
 10
0.0
 20
0.0
 30
0.0
 70
     1
  0
VERTEX
  5
B8
330
B7
100
AcDbEntity
  8
Boundingbox
100
AcDbVertex
100
AcDb2dVertex
 10
483.0052311619905
 20
490.7931824537
 30
0.0
  0
VERTEX
  5
B9
330
B7
100
AcDbEntity
  8
Boundingbox
100
AcDbVertex
100
AcDb2dVertex
 10
1023.005231162
 20
490.7931824537
 30
0.0
  0
VERTEX
  5
BA
330
B7
100
AcDbEntity
  8
Boundingbox
100
AcDbVertex
100
AcDb2dVertex
 10
1023.005231162
 20
615.7931824537352
 30
0.0
  0
VERTEX
  5
BB
330
B7
100
AcDbEntity
  8
Boundingbox
100
AcDbVertex
100
AcDb2dVertex
 10
483.0052311619905
 20
615.7931824537352
 30
0.0
  0
SEQEND
  5
BC
330
B7
100
AcDbEntity
  8
Boundingbox
  0
SPLINE
  5
BD
330
1F
100
AcDbEntity
  8
Ios54
  6
Continuous
 62
     7
420
 16777215
370
    15
100
AcDbSpline
210
0.0
220
0.0
230
1.0
 70
    24
 71
     3
 72
   134
 73
   130
 74
     0
 42
0.000000001
 43
0.0000000001
 40
0.0
 40
0.0
 40
0.0
 40
0.0
 40
0.0080594307477687
 40
0.0160745441665306
 40
0.0240454531665603
 40
0.0319722725470863
 40
0.0398551190335911
 40
0.0476941113158758
 40
0.0554893700868997
 40
0.0632410180824116
 40
0.0709491801213817
 40
0.0786139831472466
 40
0.0862355562699809
 40
0.0938140308090066
 40
0.1013495403369501
 40
0.1088422207242607
 40
0.1162922101846987
 40
0.1236996493217073
 40
0.1310646811756727
 40
0.1383874512720884
 40
0.1456681076706271
 40
0.1529068010151338
 40
0.1601036845845419
 40
0.1672589143447258
 40
0.1743726490012911
 40
0.1814450500533109
 40
0.1884762818480107
 40
0.1954665116364066
 40
0.2024159096298982
 40
0.2093246490578193
 40
0.2161929062259421
 40
0.2230208605759375
 40
0.229808694745786
 40
0.2365565946311358
 40
0.2432647494475984
 40
0.2499333517939793
 40
0.2565625977164259
 40
0.263152686773486
 40
0.2697038221020598
 40
0.2762162104842271
 40
0.2826900624149305
 40
0.2891255921704949
 40
0.2955230178779523
 40
0.3018825615851456
 40
0.3082044493315838
 40
0.3144889112200054
 40
0.3207361814886164
 40
0.3269464985839595
 40
0.3331201052343666
 40
0.3392572485239416
 40
0.3453581799670248
 40
0.3514231555830691
 40
0.3574524359718736
 40
0.363446286389095
 40
0.3694049768219684
 40
0.3753287820651554
 40
0.3812179817966288
 40
0.3870728606535107
 40
0.3928937083077557
 40
0.398680819541583
 40
0.4044344943225421
 40
0.4101550378780962
 40
0.4158427607695996
 40
0.4214979789655371
 40
0.4271210139138896
 40
0.4327121926134763
 40
0.438271847684128
 40
0.4438003174355269
 40
0.4492979459345464
 40
0.4547650830709206
 40
0.4602020846210592
 40
0.4656093123098188
 40
0.4709871338700381
 40
0.4763359230996327
 40
0.4816560599160395
 40
0.486947930407797
 40
0.4922119268830411
 40
0.4974484479146822
 40
0.5026578983820399
 40
0.5078406895086893
 40
0.5129972388962832
 40
0.5181279705540983
 40
0.523233314924061
 40
0.5283137089009988
 40
0.5333695958478656
 40
0.5384014256056856
 40
0.5434096544979646
 40
0.5483947453293164
 40
0.5533571673780538
 40
0.5582973963824975
 40
0.5632159145207682
 40
0.568113210383818
 40
0.5729897789414802
 40
0.5778461215013196
 40
0.5826827456600725
 40
0.5875001652474809
 40
0.5922989002623422
 40
0.5970794768006018
 40
0.6384229825835779
 40
0.6787599236308879
 40
0.7185020875758861
 40
0.7580798315282364
 40
0.797928840010685
 40
0.8051717461031319
 40
0.8124392067397381
 40
0.8197336328639568
 40
0.8270574087886555
 40
0.8344128902851423
 40
0.8418024028016462
 40
0.8492282398153724
 40
0.8566926613210036
 40
0.864197892457317
 40
0.8717461222724253
 40
0.8793395026270725
 40
0.8869801472343972
 40
0.8946701308336638
 40
0.902411488494629
 40
0.9102062150484879
 40
0.9180562646407084
 40
0.9259635504005419
 40
0.9339299442215538
 40
0.9419572766471915
 40
0.9500473368551492
 40
0.9582018727341258
 40
0.9664225910464815
 40
0.9747111576702792
 40
0.9830691979142366
 40
0.9914982968992138
 40
0.9999999999999999
 40
0.9999999999999999
 40
0.9999999999999999
 40
0.9999999999999999
 10
753.0052311619891
 20
615.793182453735
 30
0.0
 10
753.9936956639
 20
615.793182453735
 30
0.0
 10
755.965189283026
 20
615.793182453735
 30
0.0
 10
758.9142498493834
 20
615.7931824537351
 30
0.0
 10
761.8469638054929
 20
615.793182453735
 30
0.0
 10
764.7633311770068
 20
615.7931824537351
 30
0.0
 10
767.6633519697114
 20
615.793182453735
 30
0.0
 10
770.5470261949034
 20
615.793182453735
 30
0.0
 10
773.4143538626463
 20
615.793182453735
 30
0.0
 10
776.2653349835642
 20
615.7931824537351
 30
0.0
 10
779.099969568365
 20
615.793182453735
 30
0.0
 10
781.9182576279679
 20
615.7931824537351
 30
0.0
 10
784.7201991734686
 20
615.793182453735
 30
0.0
 10
787.5057942161485
 20
615.7931824537351
 30
0.0
 10
790.2750427674721
 20
615.793182453735
 30
0.0
 10
793.027944839085
 20
615.7931824537351
 30
0.0
 10
795.7645004428138
 20
615.7931824537351
 30
0.0
 10
798.4847095906636
 20
615.793182453735
 30
0.0
 10
801.1885722948161
 20
615.7931824537351
 30
0.0
 10
803.8760885676264
 20
615.793182453735
 30
0.0
 10
806.5472584216204
 20
615.793182453735
 30
0.0
 10
809.202081869491
 20
615.793182453735
 30
0.0
 10
811.8405589240936
 20
615.793182453735
 30
0.0
 10
814.4626895984417
 20
615.793182453735
 30
0.0
 10
817.0684739057014
 20
615.793182453735
 30
0.0
 10
819.6579118591851
 20
615.7931824537351
 30
0.0
 10
822.2310034723454
 20
615.793182453735
 30
0.0
 10
824.7877487587671
 20
615.7931824537351
 30
0.0
 10
827.328147732159
 20
615.793182453735
 30
0.0
 10
829.852200406345
 20
615.793182453735
 30
0.0
 10
832.3599067952542
 20
615.7931824537351
 30
0.0
 10
834.8512669129095
 20
615.793182453735
 30
0.0
 10
837.3262807734169
 20
615.7931824537351
 30
0.0
 10
839.7849483909514
 20
615.793182453735
 30
0.0
 10
842.2272697797441
 20
615.7931824537351
 30
0.0
 10
844.6532449540659
 20
615.793182453735
 30
0.0
 10
847.0628739282135
 20
615.7931824537351
 30
0.0
 10
849.4561567164885
 20
615.793182453735
 30
0.0
 10
851.8330933331822
 20
615.7931824537351
 30
0.0
 10
854.1936837925532
 20
615.793182453735
 30
0.0
 10
856.5379281088062
 20
615.793182453735
 30
0.0
 10
858.8658262960698
 20
615.7931824537351
 30
0.0
 10
861.1773783683711
 20
615.793182453735
 30
0.0
 10
863.4725843396096
 20
615.793182453735
 30
0.0
 10
865.7514442235298
 20
615.7931824537351
 30
0.0
 10
868.0139580336911
 20
615.793182453735
 30
0.0
 10
870.260125783437
 20
615.7931824537351
 30
0.0
 10
872.4899474858618
 20
615.793182453735
 30
0.0
 10
874.7034231537751
 20
615.7931824537351
 30
0.0
 10
876.9005527996652
 20
615.793182453735
 30
0.0
 10
879.0813364356608
 20
615.793182453735
 30
0.0
 10
881.2457740734884
 20
615.793182453735
 30
0.0
 10
883.3938657244312
 20
615.793182453735
 30
0.0
 10
885.5256113992821
 20
615.793182453735
 30
0.0
 10
887.6410111082981
 20
615.793182453735
 30
0.0
 10
889.74006486115
 20
615.7931824537351
 30
0.0
 10
891.8227726668706
 20
615.793182453735
 30
0.0
 10
893.8891345338021
 20
615.793182453735
 30
0.0
 10
895.9391504695394
 20
615.793182453735
 30
0.0
 10
897.972820480872
 20
615.7931824537351
 30
0.0
 10
899.9901445737244
 20
615.793182453735
 30
0.0
 10
901.9911227530943
 20
615.793182453735
 30
0.0
 10
903.9757550229874
 20
615.793182453735
 30
0.0
 10
905.9440413863528
 20
615.7931824537351
 30
0.0
 10
907.8959818450134
 20
615.793182453735
 30
0.0
 10
909.8315763995976
 20
615.7931824537351
 30
0.0
 10
911.7508250494683
 20
615.793182453735
 30
0.0
 10
913.6537277926491
 20
615.7931824537351
 30
0.0
 10
915.5402846257508
 20
615.793182453735
 30
0.0
 10
917.410495543898
 20
615.7931824537351
 30
0.0
 10
919.2643605406503
 20
615.793182453735
 30
0.0
 10
921.1018796079287
 20
615.7931824537351
 30
0.0
 10
922.9230527359375
 20
615.793182453735
 30
0.0
 10
924.7278799130871
 20
615.7931824537351
 30
0.0
 10
926.5163611259184
 20
615.793182453735
 30
0.0
 10
928.2884963590262
 20
615.7931824537351
 30
0.0
 10
930.0442855949854
 20
615.793182453735
 30
0.0
 10
931.7837288142753
 20
615.793182453735
 30
0.0
 10
933.5068259952109
 20
615.793182453735
 30
0.0
 10
935.2135771138711
 20
615.7931824537351
 30
0.0
 10
936.9039821440338
 20
615.793182453735
 30
0.0
 10
938.5780410571119
 20
615.793182453735
 30
0.0
 10
940.2357538220945
 20
615.793182453735
 30
0.0
 10
941.8771204054913
 20
615.793182453735
 30
0.0
 10
943.5021407712862
 20
615.7931824537351
 30
0.0
 10
945.1108148808793
 20
615.7931824537351
 30
0.0
 10
946.7031426931013
 20
615.793182453735
 30
0.0
 10
948.2791241639851
 20
615.793182453735
 30
0.0
 10
949.8387592474775
 20
615.793182453735
 30
0.0
 10
951.3820478926942
 20
615.793182453735
 30
0.0
 10
952.9089900540321
 20
615.793182453735
 30
0.0
 10
954.4195856536523
 20
615.793182453735
 30
0.0
 10
955.9138347206186
 20
615.7931824537351
 30
0.0
 10
957.3917368749666
 20
615.7931824537351
 30
0.0
 10
958.8532932414017
 20
615.793182453735
 30
0.0
 10
960.2984993506482
 20
615.7931824537351
 30
0.0
 10
961.7273714755564
 20
615.7931824537351
 30
0.0
 10
966.742433382182
 20
615.793182453735
 30
0.0
 10
974.9368436917331
 20
615.793182453735
 30
0.0
 10
985.4459592996989
 20
615.793182453735
 30
0.0
 10
994.672633521312
 20
615.793182453735
 30
0.0
 10
1002.6108646046
 20
615.793182453735
 30
0.0
 10
1007.414581814788
 20
615.793182453735
 30
0.0
 10
1010.05893014372
 20
615.793182453735
 30
0.0
 10
1011.074697013944
 20
615.7931824537351
 30
0.0
 10
1012.048962355872
 20
615.7931824537351
 30
0.0
 10
1012.981764652573
 20
615.7931824537351
 30
0.0
 10
1013.873093892008
 20
615.793182453735
 30
0.0
 10
1014.722953202034
 20
615.7931824537351
 30
0.0
 10
1015.531342231765
 20
615.793182453735
 30
0.0
 10
1016.298261626785
 20
615.7931824537351
 30
0.0
 10
1017.023711815464
 20
615.793182453735
 30
0.0
 10
1017.707693330035
 20
615.7931824537351
 30
0.0
 10
1018.350206713444
 20
615.793182453735
 30
0.0
 10
1018.951252537897
 20
615.7931824537351
 30
0.0
 10
1019.51083139421
 20
615.793182453735
 30
0.0
 10
1020.028943886139
 20
615.7931824537351
 30
0.0
 10
1020.50559063538
 20
615.7931824537351
 30
0.0
 10
1020.940772239733
 20
615.793182453735
 30
0.0
 10
1021.334489411244
 20
615.793182453735
 30
0.0
 10
1021.686742436148
 20
615.793182453735
 30
0.0
 10
1021.997533195964
 20
615.7931824537351
 30
0.0
 10
1022.266857521752
 20
615.793182453735
 30
0.0
 10
1022.494734051251
 20
615.793182453735
 30
0.0
 10
1022.681095223369
 20
615.7931824537351
 30
0.0
 10
1022.826199067696
 20
615.793182453735
 30
0.0
 10
1022.929073225301
 20
615.793182453735
 30
0.0
 10
1022.993395402557
 20
615.7931824537351
 30
0.0
 10
1023.00127464603
 20
615.793182453735
 30
0.0
 10
1023.005231161991
 20
615.793182453735
 30
0.0
  0
SPLINE
  5
BE
330
1F
100
AcDbEntity
  8
Ios54
  6
Continuous
 62
     7
420
 16777215
370
    15
100
AcDbSpline
210
0.0
220
0.0
230
1.0
 70
    24
 71
     3
 72
    17
 73
    13
 74
     0
 42
0.000000001
 43
0.0000000001
 40
0.0
 40
0.0
 40
0.0
 40
0.0
 40
0.0933333333333333
 40
0.1866666666666578
 40
0.28
 40
0.3733333333333334
 40
0.4666666666666666
 40
0.5599999999999998
 40
0.6699999999999997
 40
0.78
 40
0.89
 40
1.0
 40
1.0
 40
1.0
 40
1.0
 10
753.0052311619891
 20
490.793182453735
 30
0.0
 10
771.3122854327181
 20
490.793182453735
 30
0.0
 10
805.7071339742623
 20
490.793182453735
 30
0.0
 10
850.4216268732001
 20
490.793182453735
 30
0.0
 10
888.6481960290521
 20
490.793182453735
 30
0.0
 10
920.6450391370812
 20
490.793182453735
 30
0.0
 10
946.7860256967889
 20
490.793182453735
 30
0.0
 10
968.785076851773
 20
490.793182453735
 30
0.0
 10
986.1807344413903
 20
490.793182453735
 30
0.0
 10
998.7418149951188
 20
490.793182453735
 30
0.0
 10
1006.078272553162
 20
490.793182453735
 30
0.0
 10
1007.657161049128
 20
490.793182453735
 30
0.0
 10
1007.657161049128
 20
490.793182453735
 30
0.0
  0
LINE
  5
BF
330
1F
100
AcDbEntity
  8
Ios54
  6
Continuous
 62
     7
420
 16777215
370
    15
100
AcDbLine
 10
1007.6571610491
 20
490.7931824537
 30
0.0
 11
1023.005231162
 21
615.7931824537
 31
0.0
  0
LINE
  5
C0
330
1F
100
AcDbEntity
  8
Ios54
  6
Continuous
 62
     7
420
 16777215
370
    15
100
AcDbLine
 10
483.5270767914
 20
611.5430908657
 30
0.0
 11
483.005231162
 21
615.7931824537
 31
0.0
  0
SPLINE
  5
C1
330
1F
100
AcDbEntity
  8
Ios54
  6
Continuous
 62
     7
420
 16777215
370
    15
100
AcDbSpline
210
0.0
220
0.0
230
1.0
 70
    24
 71
     3
 72
    32
 73
    28
 74
     0
 42
0.000000001
 43
0.0000000001
 40
0.0
 40
0.0
 40
0.0
 40
0.0
 40
0.0360401128041409
 40
0.0727290669516497
 40
0.1083151037421161
 40
0.142912037404151
 40
0.1767695221022179
 40
0.2101737721219003
 40
0.2434476121358125
 40
0.2741344906678257
 40
0.3052993997550815
 40
0.3372618497142927
 40
0.3703480913332304
 40
0.4048640435807015
 40
0.4411057849154165
 40
0.4737642688049779
 40
0.5080620199609549
 40
0.5441509420930399
 40
0.5821769148560666
 40
0.6222680864450274
 40
0.6645429746255501
 40
0.7091159502583297
 40
0.760935003246704
 40
0.8158182867934731
 40
0.8739000004530939
 40
0.9352703234962609
 40
1.0
 40
1.0
 40
1.0
 40
1.0
 10
498.3707812429282
 20
490.793182453735
 30
0.0
 10
498.4345249189831
 20
490.793182453735
 30
0.0
 10
498.5631598682893
 20
490.793182453735
 30
0.0
 10
499.7890921097664
 20
490.793182453735
 30
0.0
 10
501.7884373436949
 20
490.793182453735
 30
0.0
 10
504.6330869678692
 20
490.793182453735
 30
0.0
 10
508.3303021074084
 20
490.793182453735
 30
0.0
 10
512.9114111385214
 20
490.793182453735
 30
0.0
 10
518.2580925068257
 20
490.793182453735
 30
0.0
 10
524.3086746188543
 20
490.793182453735
 30
0.0
 10
531.0202687223206
 20
490.793182453735
 30
0.0
 10
538.616813706734
 20
490.793182453735
 30
0.0
 10
547.1402444126844
 20
490.793182453735
 30
0.0
 10
556.6393744278151
 20
490.793182453735
 30
0.0
 10
566.6221183697618
 20
490.793182453735
 30
0.0
 10
576.9864814305772
 20
490.793182453735
 30
0.0
 10
587.6519322422932
 20
490.793182453735
 30
0.0
 10
599.1499173626628
 20
490.793182453735
 30
0.0
 10
611.5018084239412
 20
490.793182453735
 30
0.0
 10
624.7260446247271
 20
490.793182453735
 30
0.0
 10
638.8394212673239
 20
490.793182453735
 30
0.0
 10
654.4011683300913
 20
490.793182453735
 30
0.0
 10
671.5035566341629
 20
490.793182453735
 30
0.0
 10
690.2335056411877
 20
490.793182453735
 30
0.0
 10
710.1194886821487
 20
490.793182453735
 30
0.0
 10
731.1725694128772
 20
490.793182453735
 30
0.0
 10
745.5995636500862
 20
490.793182453735
 30
0.0
 10
753.0052311619918
 20
490.793182453735
 30
0.0
  0
SPLINE
  5
C2
330
1F
100
AcDbEntity
  8
Ios54
  6
Continuous
 62
     7
420
 16777215
370
    15
100
AcDbSpline
210
0.0
220
0.0
230
1.0
 70
    24
 71
     3
 72
   115
 73
   111
 74
     0
 42
0.000000001
 43
0.0000000001
 40
0.0
 40
0.0
 40
0.0
 40
0.0
 40
0.0043431107187355
 40
0.0086672803375534
 40
0.0129727133241339
 40
0.0172596168271392
 40
0.0215282006928652
 40
0.0257786774809338
 40
0.0300112624789696
 40
0.0342261737162084
 40
0.0384236319759793
 40
0.0426038608070067
 40
0.0467670865334717
 40
0.0509135382637786
 40
0.0550434478979647
 40
0.0591570501336988
 40
0.0632545824708066
 40
0.0673362852142666
 40
0.0714024014756156
 40
0.0754531771727088
 40
0.0794888610277734
 40
0.0835097045637013
 40
0.0875159620985226
 40
0.0915078907380058
 40
0.0954857503663305
 40
0.0994498036347792
 40
0.1034003159483985
 40
0.1073375554505792
 40
0.111261793005509
 40
0.115173302178453
 40
0.11907235921382
 40
0.1229592430109742
 40
0.1268342350977568
 40
0.1306976196016851
 40
0.1345496832187965
 40
0.1383907151801145
 40
0.142221007215714
 40
0.1460408535163655
 40
0.1498505506927485
 40
0.153650397732222
 40
0.1574406959531494
 40
0.1612217489567782
 40
0.1649938625766802
 40
0.1687573448257635
 40
0.1725125058408725
 40
0.1762596578249987
 40
0.1799991149871279
 40
0.1837311934797611
 40
0.1874562113341431
 40
0.1911744883932489
 40
0.1948863462425731
 40
0.1985921081387865
 40
0.2386139540719953
 40
0.2783638545984545
 40
0.3182794173367512
 40
0.3587928820424008
 40
0.4003178216942116
 40
0.4090279713548277
 40
0.4177993647564522
 40
0.4266350976753727
 40
0.4355381987719361
 40
0.4445116284935902
 40
0.4535582782445198
 40
0.4626809698087038
 40
0.4718824550120376
 40
0.4811654156083027
 40
0.4905324633731618
 40
0.4999861403900261
 40
0.5095289195115363
 40
0.5191632049804942
 40
0.5288913331943652
 40
0.5387155735978959
 40
0.5486381296889395
 40
0.5586611401232429
 40
0.5687866799046621
 40
0.5790167616480673
 40
0.5893533369030104
 40
0.5997982975270697
 40
0.610353477098631
 40
0.6210206523596997
 40
0.631801544680167
 40
0.6426978215357434
 40
0.6537110979925441
 40
0.6648429381920431
 40
0.6760948568307968
 40
0.6874683206300007
 40
0.6989647497905338
 40
0.7105855194297284
 40
0.7223319609966021
 40
0.7342053636627904
 40
0.7462069756868316
 40
0.7583380057498756
 40
0.7705996242612321
 40
0.7829929646325089
 40
0.7955191245193726
 40
0.8081791670302394
 40
0.8209741219014108
 40
0.8339049866384034
 40
0.8469727276233696
 40
0.8601782811886938
 40
0.8735225546569576
 40
0.887006427347609
 40
0.9006307515507489
 40
0.9143963534685567
 40
0.9283040341249252
 40
0.9423545702439566
 40
0.9565487150980009
 40
0.9708871993259685
 40
0.9853707317226752
 40
1.0
 40
1.0
 40
1.0
 40
1.0
 10
483.0052311619905
 20
615.793182453735
 30
0.0
 10
483.0139364512536
 20
615.793182453735
 30
0.0
 10
483.0250775733165
 20
615.7931824537351
 30
0.0
 10
483.0518360586794
 20
615.793182453735
 30
0.0
 10
483.0895724312693
 20
615.7931824537351
 30
0.0
 10
483.1380290666672
 20
615.793182453735
 30
0.0
 10
483.1972745707508
 20
615.793182453735
 30
0.0
 10
483.2672907023591
 20
615.793182453735
 30
0.0
 10
483.348082341786
 20
615.793182453735
 30
0.0
 10
483.4396482138745
 20
615.793182453735
 30
0.0
 10
483.5419886827505
 20
615.7931824537351
 30
0.0
 10
483.6551036764163
 20
615.793182453735
 30
0.0
 10
483.778993239344
 20
615.7931824537351
 30
0.0
 10
483.9136573853089
 20
615.793182453735
 30
0.0
 10
484.0590961365542
 20
615.793182453735
 30
0.0
 10
484.2153095133356
 20
615.793182453735
 30
0.0
 10
484.3822975366775
 20
615.7931824537351
 30
0.0
 10
484.5600602276103
 20
615.793182453735
 30
0.0
 10
484.7485976073403
 20
615.793182453735
 30
0.0
 10
484.9479096971718
 20
615.7931824537351
 30
0.0
 10
485.1579965184927
 20
615.793182453735
 30
0.0
 10
485.37885809274
 20
615.793182453735
 30
0.0
 10
485.6104944413701
 20
615.7931824537351
 30
0.0
 10
485.8529055858267
 20
615.793182453735
 30
0.0
 10
486.1060915475042
 20
615.793182453735
 30
0.0
 10
486.3700523477148
 20
615.793182453735
 30
0.0
 10
486.6447880076494
 20
615.793182453735
 30
0.0
 10
486.9302985483414
 20
615.793182453735
 30
0.0
 10
487.2265839906253
 20
615.793182453735
 30
0.0
 10
487.5336443550972
 20
615.7931824537351
 30
0.0
 10
487.8514796620735
 20
615.793182453735
 30
0.0
 10
488.1800899315471
 20
615.7931824537351
 30
0.0
 10
488.5194751831451
 20
615.793182453735
 30
0.0
 10
488.8696354360839
 20
615.793182453735
 30
0.0
 10
489.2305707091249
 20
615.793182453735
 30
0.0
 10
489.6022810205283
 20
615.793182453735
 30
0.0
 10
489.984766388009
 20
615.793182453735
 30
0.0
 10
490.3780268286882
 20
615.793182453735
 30
0.0
 10
490.7820623590518
 20
615.7931824537351
 30
0.0
 10
491.1968729948943
 20
615.793182453735
 30
0.0
 10
491.6224587513082
 20
615.7931824537351
 30
0.0
 10
492.0588196425082
 20
615.793182453735
 30
0.0
 10
492.5059556822756
 20
615.793182453735
 30
0.0
 10
492.9638668820968
 20
615.7931824537351
 30
0.0
 10
493.4325532578791
 20
615.793182453735
 30
0.0
 10
493.9120148047743
 20
615.7931824537351
 30
0.0
 10
494.4022515906432
 20
615.793182453735
 30
0.0
 10
494.9032634081207
 20
615.7931824537351
 30
0.0
 10
495.4150510691431
 20
615.793182453735
 30
0.0
 10
495.9376115870916
 20
615.793182453735
 30
0.0
 10
496.4709561089028
 20
615.793182453735
 30
0.0
 10
498.7926059816546
 20
615.793182453735
 30
0.0
 10
503.3994169263372
 20
615.7931824537351
 30
0.0
 10
511.3374684953479
 20
615.793182453735
 30
0.0
 10
520.5641489668458
 20
615.7931824537351
 30
0.0
 10
531.0734713098701
 20
615.793182453735
 30
0.0
 10
539.6366281749417
 20
615.7931824537351
 30
0.0
 10
545.441167449033
 20
615.793182453735
 30
0.0
 10
548.0657357175706
 20
615.7931824537351
 30
0.0
 10
550.7438964036678
 20
615.793182453735
 30
0.0
 10
553.4756969236087
 20
615.7931824537351
 30
0.0
 10
556.2611229761982
 20
615.793182453735
 30
0.0
 10
559.100177103099
 20
615.7931824537351
 30
0.0
 10
561.9928574008106
 20
615.793182453735
 30
0.0
 10
564.9391632912349
 20
615.793182453735
 30
0.0
 10
567.9390939548346
 20
615.793182453735
 30
0.0
 10
570.9926487528222
 20
615.7931824537351
 30
0.0
 10
574.0998271087675
 20
615.793182453735
 30
0.0
 10
577.2606285361801
 20
615.793182453735
 30
0.0
 10
580.4750526258657
 20
615.793182453735
 30
0.0
 10
583.7430990437564
 20
615.7931824537351
 30
0.0
 10
587.0647675255735
 20
615.793182453735
 30
0.0
 10
590.4400578721497
 20
615.7931824537351
 30
0.0
 10
593.8689699444756
 20
615.793182453735
 30
0.0
 10
597.3515036588132
 20
615.7931824537351
 30
0.0
 10
600.887658981866
 20
615.793182453735
 30
0.0
 10
604.4774359260692
 20
615.793182453735
 30
0.0
 10
608.1208345450398
 20
615.793182453735
 30
0.0
 10
611.8178549292146
 20
615.7931824537351
 30
0.0
 10
615.5684972017054
 20
615.7931824537351
 30
0.0
 10
619.372761514382
 20
615.793182453735
 30
0.0
 10
623.2306480441985
 20
615.7931824537351
 30
0.0
 10
627.1421569897686
 20
615.7931824537351
 30
0.0
 10
631.1072885681884
 20
615.793182453735
 30
0.0
 10
635.1260430121062
 20
615.7931824537351
 30
0.0
 10
639.1984205670366
 20
615.7931824537351
 30
0.0
 10
643.3244214889078
 20
615.793182453735
 30
0.0
 10
647.5040460418327
 20
615.793182453735
 30
0.0
 10
651.7372944960994
 20
615.793182453735
 30
0.0
 10
656.0241671263586
 20
615.793182453735
 30
0.0
 10
660.3646642100088
 20
615.793182453735
 30
0.0
 10
664.7587860257539
 20
615.793182453735
 30
0.0
 10
669.2065328523315
 20
615.793182453735
 30
0.0
 10
673.7079049673919
 20
615.7931824537351
 30
0.0
 10
678.2629026465199
 20
615.793182453735
 30
0.0
 10
682.8715261623856
 20
615.793182453735
 30
0.0
 10
687.5337757840141
 20
615.793182453735
 30
0.0
 10
692.249651776162
 20
615.793182453735
 30
0.0
 10
697.0191543987926
 20
615.7931824537351
 30
0.0
 10
701.8422839066365
 20
615.793182453735
 30
0.0
 10
706.7190405488396
 20
615.7931824537351
 30
0.0
 10
711.64942456865
 20
615.793182453735
 30
0.0
 10
716.633436203292
 20
615.7931824537351
 30
0.0
 10
721.671075683419
 20
615.793182453735
 30
0.0
 10
726.7623432344351
 20
615.793182453735
 30
0.0
 10
731.9072390709553
 20
615.793182453735
 30
0.0
 10
737.1057634174832
 20
615.7931824537351
 30
0.0
 10
742.3579164299074
 20
615.793182453735
 30
0.0
 10
747.6636984929769
 20
615.793182453735
 30
0.0
 10
751.2187881267067
 20
615.793182453735
 30
0.0
 10
753.005231161992
 20
615.793182453735
 30
0.0
  0
LINE
  5
C3
330
1F
100
AcDbEntity
  8
Ios54
  6
Continuous
 62
     7
420
 16777215
370
    15
100
AcDbLine
 10
483.5270476675
 20
611.5430872897
 30
0.0
 11
498.3524317931
 21
490.7931824537
 31
0.0
  0
ENDSEC
  0
SECTION
  2
OBJECTS
  0
DICTIONARY
  5
C
330
0
100
AcDbDictionary
281
     1
  3
ACAD_DETAILVIEWSTYLE
350
138
  3
ACAD_GROUP
350
D
  3
ACAD_IMAGE_VARS
350
13D
  3
ACAD_LAYOUT
350
1A
  3
ACAD_MATERIAL
350
43
  3
ACAD_MLEADERSTYLE
350
137
  3
ACAD_MLINESTYLE
350
17
  3
ACAD_PLOTSETTINGS
350
19
  3
ACAD_PLOTSTYLENAME
350
E
  3
ACAD_SCALELIST
350
47
  3
ACAD_SECTIONVIEWSTYLE
350
139
  3
ACAD_TABLESTYLE
350
136
  3
AcDbVariableDictionary
350
FD
  3
ACDB_RECOMPOSE_DATA
350
14A
  3
APPDATA
350
13C
  0
DICTIONARY
  5
138
102
{ACAD_REACTORS
330
C
102
}
330
C
100
AcDbDictionary
281
     1
  0
DICTIONARY
  5
D
102
{ACAD_REACTORS
330
C
102
}
330
C
100
AcDbDictionary
281
     1
  0
RASTERVARIABLES
  5
13D
102
{ACAD_REACTORS
330
C
102
}
330
C
100
AcDbRasterVariables
 90
        0
 70
     1
 71
     1
 72
     1
  0
DICTIONARY
  5
1A
102
{ACAD_REACTORS
330
C
102
}
330
C
100
AcDbDictionary
281
     1
  3
Layout1
350
1E
  3
Layout2
350
26
  3
Model
350
22
  0
DICTIONARY
  5
43
102
{ACAD_REACTORS
330
C
102
}
330
C
100
AcDbDictionary
281
     1
  3
ByBlock
350
45
  3
ByLayer
350
44
  3
Global
350
46
  0
DICTIONARY
  5
137
102
{ACAD_REACTORS
330
C
102
}
330
C
100
AcDbDictionary
281
     1
  3
Standard
350
13B
  0
DICTIONARY
  5
17
102
{ACAD_REACTORS
330
C
102
}
330
C
100
AcDbDictionary
281
     1
  3
Standard
350
18
  0
DICTIONARY
  5
19
102
{ACAD_REACTORS
330
C
102
}
330
C
100
AcDbDictionary
281
     1
  0
ACDBDICTIONARYWDFLT
  5
E
102
{ACAD_REACTORS
330
C
102
}
330
C
100
AcDbDictionary
281
     1
  3
Normal
350
F
100
AcDbDictionaryWithDefault
340
F
  0
DICTIONARY
  5
47
102
{ACAD_REACTORS
330
C
102
}
330
C
100
AcDbDictionary
281
     1
  3
A0
350
48
  3
A1
350
49
  3
A2
350
4A
  3
A3
350
4B
  3
A4
350
4C
  3
A5
350
4D
  3
A6
350
4E
  3
A7
350
4F
  3
A8
350
50
  3
A9
350
51
  3
B0
350
52
  3
B1
350
53
  3
B2
350
54
  3
B3
350
55
  3
B4
350
56
  3
B5
350
57
  3
B6
350
58
  3
B7
350
59
  3
B8
350
5A
  3
B9
350
5B
  3
C0
350
5C
  3
C1
350
5D
  3
C2
350
5E
  3
C3
350
5F
  3
C4
350
60
  3
C5
350
61
  3
C6
350
62
  3
C7
350
63
  3
C8
350
64
  3
C9
350
65
  3
D0
350
66
  3
D1
350
67
  3
D2
350
68
  0
DICTIONARY
  5
139
102
{ACAD_REACTORS
330
C
102
}
330
C
100
AcDbDictionary
281
     1
  0
DICTIONARY
  5
136
102
{ACAD_REACTORS
330
C
102
}
330
C
100
AcDbDictionary
281
     1
  3
Standard
350
13A
  0
DICTIONARY
  5
FD
102
{ACAD_REACTORS
330
C
102
}
330
C
100
AcDbDictionary
281
     1
  3
CANNOSCALE
350
FE
  3
CMLEADERSTYLE
350
144
  3
CTABLESTYLE
350
143
  3
MSLTSCALE
350
FF
  3
XCLIPFRAME
350
145
  0
XRECORD
  5
14A
102
{ACAD_REACTORS
330
C
102
}
330
C
100
AcDbXrecord
280
     1
 90
        1
330
13A
  0
DICTIONARY
  5
13C
102
{ACAD_REACTORS
330
C
102
}
330
C
100
AcDbDictionary
281
     1
  0
LAYOUT
  5
1E
102
{ACAD_REACTORS
330
1A
102
}
330
1A
100
AcDbPlotSettings
  1

  2
none_device
  4

  6

 40
0.0
 41
0.0
 42
0.0
 43
0.0
 44
0.0
 45
0.0
 46
0.0
 47
0.0
 48
0.0
 49
0.0
140
0.0
141
0.0
142
1.0
143
1.0
 70
   688
 72
     0
 73
     0
 74
     5
  7

 75
    16
 76
     0
 77
     2
 78
   300
147
1.0
148
0.0
149
0.0
100
AcDbLayout
  1
Layout1
 70
     1
 71
     1
 10
0.0
 20
0.0
 11
12.0
 21
9.0
 12
0.0
 22
0.0
 32
0.0
 14
1.000000000000000E+20
 24
1.000000000000000E+20
 34
1.000000000000000E+20
 15
-1.000000000000000E+20
 25
-1.000000000000000E+20
 35
-1.000000000000000E+20
146
0.0
 13
0.0
 23
0.0
 33
0.0
 16
1.0
 26
0.0
 36
0.0
 17
0.0
 27
1.0
 37
0.0
 76
     0
330
1B
  0
LAYOUT
  5
26
102
{ACAD_REACTORS
330
1A
102
}
330
1A
100
AcDbPlotSettings
  1

  2
none_device
  4

  6

 40
0.0
 41
0.0
 42
0.0
 43
0.0
 44
0.0
 45
0.0
 46
0.0
 47
0.0
 48
0.0
 49
0.0
140
0.0
141
0.0
142
1.0
143
1.0
 70
   688
 72
     0
 73
     0
 74
     5
  7

 75
    16
 76
     0
 77
     2
 78
   300
147
1.0
148
0.0
149
0.0
100
AcDbLayout
  1
Layout2
 70
     1
 71
     2
 10
0.0
 20
0.0
 11
0.0
 21
0.0
 12
0.0
 22
0.0
 32
0.0
 14
0.0
 24
0.0
 34
0.0
 15
0.0
 25
0.0
 35
0.0
146
0.0
 13
0.0
 23
0.0
 33
0.0
 16
1.0
 26
0.0
 36
0.0
 17
0.0
 27
1.0
 37
0.0
 76
     0
330
23
  0
LAYOUT
  5
22
102
{ACAD_REACTORS
330
1A
102
}
330
1A
100
AcDbPlotSettings
  1

  2
none_device
  4
Letter_(8.50_x_11.00_Inches)
  6

 40
6.35
 41
6.35
 42
6.35000508
 43
6.35000508
 44
215.9
 45
279.4
 46
0.0
 47
0.0
 48
0.0
 49
0.0
140
0.0
141
0.0
142
1.0
143
1.0
 70
  1712
 72
     0
 73
     0
 74
     0
  7

 75
     0
 76
     0
 77
     2
 78
   300
147
1.0
148
0.0
149
0.0
100
AcDbLayout
  1
Model
 70
     1
 71
     0
 10
0.0
 20
0.0
 11
12.0
 21
9.0
 12
0.0
 22
0.0
 32
0.0
 14
483.0052311619904
 24
490.7931824537
 34
0.0
 15
1694.6870317138
 25
1272.412882710612
 35
0.0
146
0.0
 13
0.0
 23
0.0
 33
0.0
 16
1.0
 26
0.0
 36
0.0
 17
0.0
 27
1.0
 37
0.0
 76
     0
330
1F
331
29
  0
MATERIAL
  5
45
102
{ACAD_REACTORS
330
43
102
}
330
43
100
AcDbMaterial
  1
ByBlock
  0
MATERIAL
  5
44
102
{ACAD_REACTORS
330
43
102
}
330
43
100
AcDbMaterial
  1
ByLayer
  0
MATERIAL
  5
46
102
{ACAD_REACTORS
330
43
102
}
330
43
100
AcDbMaterial
  1
Global
  0
MLEADERSTYLE
  5
13B
102
{ACAD_REACTORS
330
137
102
}
330
137
100
AcDbMLeaderStyle
170
     2
171
     1
172
     0
 90
        2
 40
0.0
 41
0.0
173
     1
 91
-1056964608
340
14
 92
       -2
290
     1
 42
0.09
291
     1
 43
0.36
  3
Standard
341
0
 44
0.18
300

342
11
174
     1
178
     6
175
     1
176
     0
 93
-1056964608
 45
0.18
292
     0
297
     0
 46
0.18
343
0
 94
-1056964608
 47
1.0
 49
1.0
140
1.0
293
     1
141
0.0
294
     1
177
     0
142
1.0
295
     0
296
     0
143
0.125
1001
ACAD_MLEADERVER
1070
     2
  0
MLINESTYLE
  5
18
102
{ACAD_REACTORS
330
17
102
}
330
17
100
AcDbMlineStyle
  2
Standard
 70
     0
  3

 62
   256
 51
90.0
 52
90.0
 71
     2
 49
0.5
 62
   256
  6
BYLAYER
 49
-0.5
 62
   256
  6
BYLAYER
  0
ACDBPLACEHOLDER
  5
F
102
{ACAD_REACTORS
330
E
102
}
330
E
  0
SCALE
  5
48
102
{ACAD_REACTORS
330
47
102
}
330
47
100
AcDbScale
 70
     0
300
1:1
140
1.0
141
1.0
290
     1
  0
SCALE
  5
49
102
{ACAD_REACTORS
330
47
102
}
330
47
100
AcDbScale
 70
     0
300
1:2
140
1.0
141
2.0
290
     0
  0
SCALE
  5
4A
102
{ACAD_REACTORS
330
47
102
}
330
47
100
AcDbScale
 70
     0
300
1:4
140
1.0
141
4.0
290
     0
  0
SCALE
  5
4B
102
{ACAD_REACTORS
330
47
102
}
330
47
100
AcDbScale
 70
     0
300
1:5
140
1.0
141
5.0
290
     0
  0
SCALE
  5
4C
102
{ACAD_REACTORS
330
47
102
}
330
47
100
AcDbScale
 70
     0
300
1:8
140
1.0
141
8.0
290
     0
  0
SCALE
  5
4D
102
{ACAD_REACTORS
330
47
102
}
330
47
100
AcDbScale
 70
     0
300
1:10
140
1.0
141
10.0
290
     0
  0
SCALE
  5
4E
102
{ACAD_REACTORS
330
47
102
}
330
47
100
AcDbScale
 70
     0
300
1:16
140
1.0
141
16.0
290
     0
  0
SCALE
  5
4F
102
{ACAD_REACTORS
330
47
102
}
330
47
100
AcDbScale
 70
     0
300
1:20
140
1.0
141
20.0
290
     0
  0
SCALE
  5
50
102
{ACAD_REACTORS
330
47
102
}
330
47
100
AcDbScale
 70
     0
300
1:30
140
1.0
141
30.0
290
     0
  0
SCALE
  5
51
102
{ACAD_REACTORS
330
47
102
}
330
47
100
AcDbScale
 70
     0
300
1:40
140
1.0
141
40.0
290
     0
  0
SCALE
  5
52
102
{ACAD_REACTORS
330
47
102
}
330
47
100
AcDbScale
 70
     0
300
1:50
140
1.0
141
50.0
290
     0
  0
SCALE
  5
53
102
{ACAD_REACTORS
330
47
102
}
330
47
100
AcDbScale
 70
     0
300
1:100
140
1.0
141
100.0
290
     0
  0
SCALE
  5
54
102
{ACAD_REACTORS
330
47
102
}
330
47
100
AcDbScale
 70
     0
300
2:1
140
2.0
141
1.0
290
     0
  0
SCALE
  5
55
102
{ACAD_REACTORS
330
47
102
}
330
47
100
AcDbScale
 70
     0
300
4:1
140
4.0
141
1.0
290
     0
  0
SCALE
  5
56
102
{ACAD_REACTORS
330
47
102
}
330
47
100
AcDbScale
 70
     0
300
8:1
140
8.0
141
1.0
290
     0
  0
SCALE
  5
57
102
{ACAD_REACTORS
330
47
102
}
330
47
100
AcDbScale
 70
     0
300
10:1
140
10.0
141
1.0
290
     0
  0
SCALE
  5
58
102
{ACAD_REACTORS
330
47
102
}
330
47
100
AcDbScale
 70
     0
300
100:1
140
100.0
141
1.0
290
     0
  0
SCALE
  5
59
102
{ACAD_REACTORS
330
47
102
}
330
47
100
AcDbScale
 70
     0
300
1/128" = 1'-0"
140
0.0078125
141
12.0
290
     0
  0
SCALE
  5
5A
102
{ACAD_REACTORS
330
47
102
}
330
47
100
AcDbScale
 70
     0
300
1/64" = 1'-0"
140
0.015625
141
12.0
290
     0
  0
SCALE
  5
5B
102
{ACAD_REACTORS
330
47
102
}
330
47
100
AcDbScale
 70
     0
300
1/32" = 1'-0"
140
0.03125
141
12.0
290
     0
  0
SCALE
  5
5C
102
{ACAD_REACTORS
330
47
102
}
330
47
100
AcDbScale
 70
     0
300
1/16" = 1'-0"
140
0.0625
141
12.0
290
     0
  0
SCALE
  5
5D
102
{ACAD_REACTORS
330
47
102
}
330
47
100
AcDbScale
 70
     0
300
3/32" = 1'-0"
140
0.09375
141
12.0
290
     0
  0
SCALE
  5
5E
102
{ACAD_REACTORS
330
47
102
}
330
47
100
AcDbScale
 70
     0
300
1/8" = 1'-0"
140
0.125
141
12.0
290
     0
  0
SCALE
  5
5F
102
{ACAD_REACTORS
330
47
102
}
330
47
100
AcDbScale
 70
     0
300
3/16" = 1'-0"
140
0.1875
141
12.0
290
     0
  0
SCALE
  5
60
102
{ACAD_REACTORS
330
47
102
}
330
47
100
AcDbScale
 70
     0
300
1/4" = 1'-0"
140
0.25
141
12.0
290
     0
  0
SCALE
  5
61
102
{ACAD_REACTORS
330
47
102
}
330
47
100
AcDbScale
 70
     0
300
3/8" = 1'-0"
140
0.375
141
12.0
290
     0
  0
SCALE
  5
62
102
{ACAD_REACTORS
330
47
102
}
330
47
100
AcDbScale
 70
     0
300
1/2" = 1'-0"
140
0.5
141
12.0
290
     0
  0
SCALE
  5
63
102
{ACAD_REACTORS
330
47
102
}
330
47
100
AcDbScale
 70
     0
300
3/4" = 1'-0"
140
0.75
141
12.0
290
     0
  0
SCALE
  5
64
102
{ACAD_REACTORS
330
47
102
}
330
47
100
AcDbScale
 70
     0
300
1" = 1'-0"
140
1.0
141
12.0
290
     0
  0
SCALE
  5
65
102
{ACAD_REACTORS
330
47
102
}
330
47
100
AcDbScale
 70
     0
300
1-1/2" = 1'-0"
140
1.5
141
12.0
290
     0
  0
SCALE
  5
66
102
{ACAD_REACTORS
330
47
102
}
330
47
100
AcDbScale
 70
     0
300
3" = 1'-0"
140
3.0
141
12.0
290
     0
  0
SCALE
  5
67
102
{ACAD_REACTORS
330
47
102
}
330
47
100
AcDbScale
 70
     0
300
6" = 1'-0"
140
6.0
141
12.0
290
     0
  0
SCALE
  5
68
102
{ACAD_REACTORS
330
47
102
}
330
47
100
AcDbScale
 70
     0
300
1'-0" = 1'-0"
140
12.0
141
12.0
290
     0
  0
TABLESTYLE
  5
13A
102
{ACAD_REACTORS
330
136
102
}
102
{ACAD_XDICTIONARY
360
146
102
}
330
136
100
AcDbTableStyle
  3
Standard
 70
     0
 71
     0
 40
0.06
 41
0.06
280
     0
281
     0
  7
Standard
140
0.18
170
     2
 62
     0
 63
   257
283
     0
274
    -2
284
     1
 64
     0
275
    -2
285
     1
 65
     0
276
    -2
286
     1
 66
     0
277
    -2
287
     1
 67
     0
278
    -2
288
     1
 68
     0
279
    -2
289
     1
 69
     0
  7
Standard
140
0.25
170
     5
 62
     0
 63
   257
283
     0
274
    -2
284
     1
 64
     0
275
    -2
285
     1
 65
     0
276
    -2
286
     1
 66
     0
277
    -2
287
     1
 67
     0
278
    -2
288
     1
 68
     0
279
    -2
289
     1
 69
     0
  7
Standard
140
0.18
170
     5
 62
     0
 63
   257
283
     0
274
    -2
284
     1
 64
     0
275
    -2
285
     1
 65
     0
276
    -2
286
     1
 66
     0
277
    -2
287
     1
 67
     0
278
    -2
288
     1
 68
     0
279
    -2
289
     1
 69
     0
  0
DICTIONARYVAR
  5
FE
102
{ACAD_REACTORS
330
FD
102
}
330
FD
100
DictionaryVariables
280
     0
  1
1:1
  0
DICTIONARYVAR
  5
144
102
{ACAD_REACTORS
330
FD
102
}
330
FD
100
DictionaryVariables
280
     0
  1
Standard
  0
DICTIONARYVAR
  5
143
102
{ACAD_REACTORS
330
FD
102
}
330
FD
100
DictionaryVariables
280
     0
  1
Standard
  0
DICTIONARYVAR
  5
FF
102
{ACAD_REACTORS
330
FD
102
}
330
FD
100
DictionaryVariables
280
     0
  1
1
  0
DICTIONARYVAR
  5
145
102
{ACAD_REACTORS
330
FD
102
}
330
FD
100
DictionaryVariables
280
     0
  1
0
  0
DICTIONARY
  5
146
330
13A
100
AcDbDictionary
280
     1
281
     1
  3
ACAD_ROUNDTRIP_2008_TABLESTYLE_CELLSTYLEMAP
360
148
  3
ACAD_XREC_ROUNDTRIP
360
147
  0
CELLSTYLEMAP
  5
148
102
{ACAD_REACTORS
330
146
102
}
330
146
100
AcDbCellStyleMap
 90
        3
300
CELLSTYLE
  1
TABLEFORMAT_BEGIN
 90
        5
170
     1
 91
        0
 92
    32768
 62
   257
 93
        1
300
CONTENTFORMAT
  1
CONTENTFORMAT_BEGIN
 90
        0
 91
        0
 92
        4
 93
        0
300

 40
0.0
140
1.0
 94
        5
 62
     0
340
11
144
0.25
309
CONTENTFORMAT_END
171
     1
301
MARGIN
  1
CELLMARGIN_BEGIN
 40
0.06
 40
0.06
 40
0.06
 40
0.06
 40
0.06
 40
0.06
309
CELLMARGIN_END
 94
        6
 95
        1
302
GRIDFORMAT
  1
GRIDFORMAT_BEGIN
 90
        0
 91
        1
 62
     0
 92
       -2
340
14
 93
        0
 40
0.045
309
GRIDFORMAT_END
 95
        2
302
GRIDFORMAT
  1
GRIDFORMAT_BEGIN
 90
        0
 91
        1
 62
     0
 92
       -2
340
14
 93
        0
 40
0.045
309
GRIDFORMAT_END
 95
        4
302
GRIDFORMAT
  1
GRIDFORMAT_BEGIN
 90
        0
 91
        1
 62
     0
 92
       -2
340
14
 93
        0
 40
0.045
309
GRIDFORMAT_END
 95
        8
302
GRIDFORMAT
  1
GRIDFORMAT_BEGIN
 90
        0
 91
        1
 62
     0
 92
       -2
340
14
 93
        0
 40
0.045
309
GRIDFORMAT_END
 95
       16
302
GRIDFORMAT
  1
GRIDFORMAT_BEGIN
 90
        0
 91
        1
 62
     0
 92
       -2
340
14
 93
        0
 40
0.045
309
GRIDFORMAT_END
 95
       32
302
GRIDFORMAT
  1
GRIDFORMAT_BEGIN
 90
        0
 91
        1
 62
     0
 92
       -2
340
14
 93
        0
 40
0.045
309
GRIDFORMAT_END
309
TABLEFORMAT_END
  1
CELLSTYLE_BEGIN
 90
        1
 91
        1
300
_TITLE
309
CELLSTYLE_END
300
CELLSTYLE
  1
TABLEFORMAT_BEGIN
 90
        5
170
     1
 91
        0
 92
        0
 62
   257
 93
        1
300
CONTENTFORMAT
  1
CONTENTFORMAT_BEGIN
 90
        0
 91
        0
 92
        4
 93
        0
300

 40
0.0
140
1.0
 94
        5
 62
     0
340
11
144
0.18
309
CONTENTFORMAT_END
171
     1
301
MARGIN
  1
CELLMARGIN_BEGIN
 40
0.06
 40
0.06
 40
0.06
 40
0.06
 40
0.06
 40
0.06
309
CELLMARGIN_END
 94
        6
 95
        1
302
GRIDFORMAT
  1
GRIDFORMAT_BEGIN
 90
        0
 91
        1
 62
     0
 92
       -2
340
14
 93
        0
 40
0.045
309
GRIDFORMAT_END
 95
        2
302
GRIDFORMAT
  1
GRIDFORMAT_BEGIN
 90
        0
 91
        1
 62
     0
 92
       -2
340
14
 93
        0
 40
0.045
309
GRIDFORMAT_END
 95
        4
302
GRIDFORMAT
  1
GRIDFORMAT_BEGIN
 90
        0
 91
        1
 62
     0
 92
       -2
340
14
 93
        0
 40
0.045
309
GRIDFORMAT_END
 95
        8
302
GRIDFORMAT
  1
GRIDFORMAT_BEGIN
 90
        0
 91
        1
 62
     0
 92
       -2
340
14
 93
        0
 40
0.045
309
GRIDFORMAT_END
 95
       16
302
GRIDFORMAT
  1
GRIDFORMAT_BEGIN
 90
        0
 91
        1
 62
     0
 92
       -2
340
14
 93
        0
 40
0.045
309
GRIDFORMAT_END
 95
       32
302
GRIDFORMAT
  1
GRIDFORMAT_BEGIN
 90
        0
 91
        1
 62
     0
 92
       -2
340
14
 93
        0
 40
0.045
309
GRIDFORMAT_END
309
TABLEFORMAT_END
  1
CELLSTYLE_BEGIN
 90
        2
 91
        1
300
_HEADER
309
CELLSTYLE_END
300
CELLSTYLE
  1
TABLEFORMAT_BEGIN
 90
        5
170
     1
 91
        0
 92
        0
 62
   257
 93
        1
300
CONTENTFORMAT
  1
CONTENTFORMAT_BEGIN
 90
        0
 91
        0
 92
        4
 93
        0
300

 40
0.0
140
1.0
 94
        2
 62
     0
340
11
144
0.18
309
CONTENTFORMAT_END
171
     1
301
MARGIN
  1
CELLMARGIN_BEGIN
 40
0.06
 40
0.06
 40
0.06
 40
0.06
 40
0.06
 40
0.06
309
CELLMARGIN_END
 94
        6
 95
        1
302
GRIDFORMAT
  1
GRIDFORMAT_BEGIN
 90
        0
 91
        1
 62
     0
 92
       -2
340
14
 93
        0
 40
0.045
309
GRIDFORMAT_END
 95
        2
302
GRIDFORMAT
  1
GRIDFORMAT_BEGIN
 90
        0
 91
        1
 62
     0
 92
       -2
340
14
 93
        0
 40
0.045
309
GRIDFORMAT_END
 95
        4
302
GRIDFORMAT
  1
GRIDFORMAT_BEGIN
 90
        0
 91
        1
 62
     0
 92
       -2
340
14
 93
        0
 40
0.045
309
GRIDFORMAT_END
 95
        8
302
GRIDFORMAT
  1
GRIDFORMAT_BEGIN
 90
        0
 91
        1
 62
     0
 92
       -2
340
14
 93
        0
 40
0.045
309
GRIDFORMAT_END
 95
       16
302
GRIDFORMAT
  1
GRIDFORMAT_BEGIN
 90
        0
 91
        1
 62
     0
 92
       -2
340
14
 93
        0
 40
0.045
309
GRIDFORMAT_END
 95
       32
302
GRIDFORMAT
  1
GRIDFORMAT_BEGIN
 90
        0
 91
        1
 62
     0
 92
       -2
340
14
 93
        0
 40
0.045
309
GRIDFORMAT_END
309
TABLEFORMAT_END
  1
CELLSTYLE_BEGIN
 90
        3
 91
        2
300
_DATA
309
CELLSTYLE_END
  0
XRECORD
  5
147
102
{ACAD_REACTORS
330
146
102
}
330
146
100
AcDbXrecord
280
     1
102
ACAD_ROUNDTRIP_PRE2007_TABLESTYLE
 90
        4
 91
        0
  1

 92
        4
 93
        0
  2

 94
        4
 95
        0
  3

  0
ENDSEC
  0
EOF
